ISO-10303-21;
HEADER;
FILE_DESCRIPTION(
/* description */ (''),
/* implementation_level */ '2;1');
FILE_NAME(
/* name */ 'RPGN090300.stp',
/* time_stamp */ '2017-03-21T10:54:15',
/* author */ ('Sandvik Coromant R&D'),
/* organization */ ('Sandvik Machining Solutions'),
/* preprocessor_version */ 'ST-DEVELOPER v15',
/* originating_system */ 'SIEMENS PLM Software NX v8.5.3.3(64 bits)',
/* authorization */ '');
FILE_SCHEMA(('AUTOMOTIVE_DESIGN'));
ENDSEC;
DATA;
#10=GEOMETRICALLY_BOUNDED_WIREFRAME_SHAPE_REPRESENTATION('IsoTurningInsert-None',
     (#25),#134);
#11=SHAPE_REPRESENTATION_RELATIONSHIP('None','relationship between IsoTurningInsert-None and IsoTurningInsert-None',
     #24,#13);
#12=SHAPE_REPRESENTATION_RELATIONSHIP('None','relationship between IsoTurningInsert-None and IsoTurningInsert-None',
     #24,#10);
#13=ADVANCED_BREP_SHAPE_REPRESENTATION('IsoTurningInsert-None',(#31),#134);
#14=SHAPE_DEFINITION_REPRESENTATION(#15,#24);
#15=PRODUCT_DEFINITION_SHAPE('','',#16);
#16=PRODUCT_DEFINITION(' ','',#18,#17);
#17=PRODUCT_DEFINITION_CONTEXT('part definition',#23,'design');
#18=PRODUCT_DEFINITION_FORMATION_WITH_SPECIFIED_SOURCE(' ',' ',#20,.NOT_KNOWN.);
#19=PRODUCT_RELATED_PRODUCT_CATEGORY('part','',(#20));
#20=PRODUCT('IsoTurningInsert','IsoTurningInsert',' ',(#21));
#21=PRODUCT_CONTEXT(' ',#23,'mechanical');
#22=APPLICATION_PROTOCOL_DEFINITION('international standard','automotive_design',
     2010,#23);
#23=APPLICATION_CONTEXT('core data for automotive mechanical design processes');
#24=SHAPE_REPRESENTATION('IsoTurningInsert-None',(#84),#134);
#25=GEOMETRIC_CURVE_SET('geometric curve set',(#64));
#26=SURFACE_STYLE_USAGE(.BOTH.,#27);
#27=SURFACE_SIDE_STYLE('',(#28));
#28=SURFACE_STYLE_FILL_AREA(#29);
#29=FILL_AREA_STYLE('',(#30));
#30=FILL_AREA_STYLE_COLOUR('',#83);
#31=MANIFOLD_SOLID_BREP('CUT',#32);
#32=CLOSED_SHELL('',(#36,#37,#38));
#33=CONICAL_SURFACE('',#91,4.76249999999999,11.0);
#34=FACE_BOUND('',#45,.T.);
#35=FACE_BOUND('',#46,.T.);
#36=ADVANCED_FACE('',(#41),#39,.F.);
#37=ADVANCED_FACE('',(#42),#40,.F.);
#38=ADVANCED_FACE('',(#34,#35),#33,.T.);
#39=PLANE('',#88);
#40=PLANE('',#90);
#41=FACE_OUTER_BOUND('',#43,.T.);
#42=FACE_OUTER_BOUND('',#44,.T.);
#43=EDGE_LOOP('',(#47));
#44=EDGE_LOOP('',(#48));
#45=EDGE_LOOP('',(#49));
#46=EDGE_LOOP('',(#50));
#47=ORIENTED_EDGE('',*,*,#53,.F.);
#48=ORIENTED_EDGE('',*,*,#54,.F.);
#49=ORIENTED_EDGE('',*,*,#53,.T.);
#50=ORIENTED_EDGE('',*,*,#54,.T.);
#51=VERTEX_POINT('',#127);
#52=VERTEX_POINT('',#130);
#53=EDGE_CURVE('',#51,#51,#55,.T.);
#54=EDGE_CURVE('',#52,#52,#56,.T.);
#55=CIRCLE('',#87,4.14534251848773);
#56=CIRCLE('',#89,4.76249999999999);
#57=CURVE_STYLE('',#61,POSITIVE_LENGTH_MEASURE(0.18),#60);
#58=CURVE_STYLE('',#62,POSITIVE_LENGTH_MEASURE(0.18),#82);
#59=CURVE_STYLE('',#63,POSITIVE_LENGTH_MEASURE(0.18),#82);
#60=DRAUGHTING_PRE_DEFINED_COLOUR('blue');
#61=DRAUGHTING_PRE_DEFINED_CURVE_FONT('continuous');
#62=DRAUGHTING_PRE_DEFINED_CURVE_FONT('continuous');
#63=DRAUGHTING_PRE_DEFINED_CURVE_FONT('continuous');
#64=B_SPLINE_CURVE_WITH_KNOTS('CUTTING EDGE LINE',5,(#111,#112,#113,#114,#115,#116,
     #117,#118,#119,#120,#121,#122,#123),.UNSPECIFIED.,.T.,.F.,(1,1,1,1,1,1,1,1,
     1,1,1,1,1,1,1,1,1,1,1),(-0.625,-0.5,-0.375,-0.25,-0.125,0.0,0.125,0.25,0.375,
     0.5,0.625,0.75,0.875,1.0,1.125,1.25,1.375,1.5,1.625),.UNSPECIFIED.);
#65=PRESENTATION_LAYER_ASSIGNMENT('1','Layer 1',(#64,#85,#86,#31));
#68=STYLED_ITEM('',(#74),#64);
#69=STYLED_ITEM('',(#75),#85);
#70=STYLED_ITEM('',(#76),#86);
#71=STYLED_ITEM('',(#77),#31);
#72=PRESENTATION_STYLE_ASSIGNMENT((#78));
#73=PRESENTATION_STYLE_ASSIGNMENT((#79));
#74=PRESENTATION_STYLE_ASSIGNMENT((#57));
#75=PRESENTATION_STYLE_ASSIGNMENT((#58));
#76=PRESENTATION_STYLE_ASSIGNMENT((#59));
#77=PRESENTATION_STYLE_ASSIGNMENT((#26));
#78=POINT_STYLE('',#80,POSITIVE_LENGTH_MEASURE(3.0),#82);
#79=POINT_STYLE('',#81,POSITIVE_LENGTH_MEASURE(3.0),#82);
#80=PRE_DEFINED_POINT_MARKER_SYMBOL('plus');
#81=PRE_DEFINED_POINT_MARKER_SYMBOL('plus');
#82=COLOUR_RGB('Medium Maroon',0.6,0.4,0.4);
#83=COLOUR_RGB('IsoInsertColor',0.8,0.8,0.8);
#84=AXIS2_PLACEMENT_3D('',#108,#92,#93);
#85=AXIS2_PLACEMENT_3D('PCS',#124,#94,#95);
#86=AXIS2_PLACEMENT_3D('MCS',#125,#96,#97);
#87=AXIS2_PLACEMENT_3D('',#126,#98,#99);
#88=AXIS2_PLACEMENT_3D('',#128,#100,#101);
#89=AXIS2_PLACEMENT_3D('',#129,#102,#103);
#90=AXIS2_PLACEMENT_3D('',#131,#104,#105);
#91=AXIS2_PLACEMENT_3D('',#132,#106,#107);
#92=DIRECTION('',(0.0,0.0,1.0));
#93=DIRECTION('',(1.0,0.0,0.0));
#94=DIRECTION('',(0.0,0.0,1.0));
#95=DIRECTION('',(1.0,0.0,0.0));
#96=DIRECTION('',(0.0,0.0,1.0));
#97=DIRECTION('',(1.0,0.0,0.0));
#98=DIRECTION('',(0.0,0.0,1.0));
#99=DIRECTION('',(-0.707106781186548,-0.707106781186548,0.0));
#100=DIRECTION('',(0.0,0.0,1.0));
#101=DIRECTION('',(-0.707106781186548,-0.707106781186548,0.0));
#102=DIRECTION('',(0.0,0.0,-1.0));
#103=DIRECTION('',(-0.882015164970351,-0.471221019015837,0.0));
#104=DIRECTION('',(0.0,0.0,-1.0));
#105=DIRECTION('',(0.707106781186548,0.707106781186548,0.0));
#106=DIRECTION('',(0.0,0.0,1.0));
#107=DIRECTION('',(-0.707106781186547,-0.707106781186547,-2.17773803067269E-17));
#108=CARTESIAN_POINT('',(0.0,0.0,0.0));
#111=CARTESIAN_POINT('',(7.38295329074918,-0.142373612229472,0.0));
#112=CARTESIAN_POINT('',(3.14717089979694,-0.558709683665213,0.0));
#113=CARTESIAN_POINT('',(-0.142373612026049,2.14204670913506,0.0));
#114=CARTESIAN_POINT('',(-0.558709683919888,6.37782910018464,0.0));
#115=CARTESIAN_POINT('',(2.14204670961067,9.66737361225845,0.0));
#116=CARTESIAN_POINT('',(6.37782909998273,10.0837096837508,0.0));
#117=CARTESIAN_POINT('',(9.66737361229553,7.38295329059351,0.0));
#118=CARTESIAN_POINT('',(10.0837096836863,3.14717089993356,0.0));
#119=CARTESIAN_POINT('',(7.38295329074918,-0.142373612229472,0.0));
#120=CARTESIAN_POINT('',(3.14717089979694,-0.558709683665213,0.0));
#121=CARTESIAN_POINT('',(-0.142373612026049,2.14204670913506,0.0));
#122=CARTESIAN_POINT('',(-0.558709683919888,6.37782910018464,0.0));
#123=CARTESIAN_POINT('',(2.14204670961067,9.66737361225845,0.0));
#124=CARTESIAN_POINT('',(0.0,0.0,0.0));
#125=CARTESIAN_POINT('',(4.7625,4.7625,0.0));
#126=CARTESIAN_POINT('',(4.76249999999999,4.76249999999999,-3.175));
#127=CARTESIAN_POINT('',(1.83130019483639,1.83130019483639,-3.175));
#128=CARTESIAN_POINT('',(4.7625,4.23216991411009,-3.175));
#129=CARTESIAN_POINT('',(4.76249999999999,4.76249999999999,4.26685108753951E-15));
#130=CARTESIAN_POINT('',(0.5619027768287,2.51830989693707,4.26685108753951E-15));
#131=CARTESIAN_POINT('',(4.76249999999999,4.76249999999999,4.26685108753951E-15));
#132=CARTESIAN_POINT('',(4.76249999999999,4.76249999999999,4.33680868994202E-15));
#133=MECHANICAL_DESIGN_GEOMETRIC_PRESENTATION_REPRESENTATION('',(#68,#69,#70,#71),
     #134);
#134=(GEOMETRIC_REPRESENTATION_CONTEXT(3)GLOBAL_UNCERTAINTY_ASSIGNED_CONTEXT((#135))
     GLOBAL_UNIT_ASSIGNED_CONTEXT((#141,#137,#136))REPRESENTATION_CONTEXT('RPGN090300',
     'TOP_LEVEL_ASSEMBLY_PART'));
#135=UNCERTAINTY_MEASURE_WITH_UNIT(LENGTH_MEASURE(2.0E-5),#141,'DISTANCE_ACCURACY_VALUE',
     'Maximum Tolerance applied to model');
#136=(NAMED_UNIT(*)SI_UNIT($,.STERADIAN.)SOLID_ANGLE_UNIT());
#137=(CONVERSION_BASED_UNIT('DEGREE',#139)NAMED_UNIT(#138)PLANE_ANGLE_UNIT());
#138=DIMENSIONAL_EXPONENTS(0.0,0.0,0.0,0.0,0.0,0.0,0.0);
#139=PLANE_ANGLE_MEASURE_WITH_UNIT(PLANE_ANGLE_MEASURE(0.0174532925),#140);
#140=(NAMED_UNIT(*)PLANE_ANGLE_UNIT()SI_UNIT($,.RADIAN.));
#141=(LENGTH_UNIT()NAMED_UNIT(*)SI_UNIT(.MILLI.,.METRE.));
#142=CONSTRUCTIVE_GEOMETRY_REPRESENTATION('supplemental geometry',(#85,#86),#134);
#143=CONSTRUCTIVE_GEOMETRY_REPRESENTATION_RELATIONSHIP('supplemental geometry','contains PCS and MCS coordinate systems',
     #24,#142);
ENDSEC;
END-ISO-10303-21;
