ISO-10303-21;
HEADER;
FILE_DESCRIPTION(
/* description */ (''),
/* implementation_level */ '2;1');
FILE_NAME(
/* name */ 'CCGW060208.stp',
/* time_stamp */ '2017-03-21T10:53:49',
/* author */ ('Sandvik Coromant R&D'),
/* organization */ ('Sandvik Machining Solutions'),
/* preprocessor_version */ 'ST-DEVELOPER v15',
/* originating_system */ 'SIEMENS PLM Software NX v8.5.3.3(64 bits)',
/* authorization */ '');
FILE_SCHEMA(('AUTOMOTIVE_DESIGN'));
ENDSEC;
DATA;
#10=GEOMETRICALLY_BOUNDED_WIREFRAME_SHAPE_REPRESENTATION('IsoTurningInsert-None',
     (#25),#519);
#11=SHAPE_REPRESENTATION_RELATIONSHIP('None','relationship between IsoTurningInsert-None and IsoTurningInsert-None',
     #24,#13);
#12=SHAPE_REPRESENTATION_RELATIONSHIP('None','relationship between IsoTurningInsert-None and IsoTurningInsert-None',
     #24,#10);
#13=ADVANCED_BREP_SHAPE_REPRESENTATION('IsoTurningInsert-None',(#31),#519);
#14=SHAPE_DEFINITION_REPRESENTATION(#15,#24);
#15=PRODUCT_DEFINITION_SHAPE('','',#16);
#16=PRODUCT_DEFINITION(' ','',#18,#17);
#17=PRODUCT_DEFINITION_CONTEXT('part definition',#23,'design');
#18=PRODUCT_DEFINITION_FORMATION_WITH_SPECIFIED_SOURCE(' ',' ',#20,.NOT_KNOWN.);
#19=PRODUCT_RELATED_PRODUCT_CATEGORY('part','',(#20));
#20=PRODUCT('IsoTurningInsert','IsoTurningInsert',' ',(#21));
#21=PRODUCT_CONTEXT(' ',#23,'mechanical');
#22=APPLICATION_PROTOCOL_DEFINITION('international standard','automotive_design',
     2010,#23);
#23=APPLICATION_CONTEXT('core data for automotive mechanical design processes');
#24=SHAPE_REPRESENTATION('IsoTurningInsert-None',(#281),#519);
#25=GEOMETRIC_CURVE_SET('geometric curve set',(#261));
#26=SURFACE_STYLE_USAGE(.BOTH.,#27);
#27=SURFACE_SIDE_STYLE('',(#28));
#28=SURFACE_STYLE_FILL_AREA(#29);
#29=FILL_AREA_STYLE('',(#30));
#30=FILL_AREA_STYLE_COLOUR('',#280);
#31=MANIFOLD_SOLID_BREP('CUT',#32);
#32=CLOSED_SHELL('',(#49,#50,#51,#52,#53,#54,#55,#56,#57,#58,#59,#60,#61,#62));
#33=CYLINDRICAL_SURFACE('',#309,1.4);
#34=TOROIDAL_SURFACE('',#308,3.9,2.5);
#35=TOROIDAL_SURFACE('',#310,1.38569981785225,0.5);
#36=CONICAL_SURFACE('',#300,0.793750000000002,7.0);
#37=CONICAL_SURFACE('',#301,0.793750000000002,7.0);
#38=CONICAL_SURFACE('',#302,0.793750000000002,7.0);
#39=CONICAL_SURFACE('',#303,0.793750000000002,7.0);
#40=CONICAL_SURFACE('',#305,1.87499999997637,4.00000000179009);
#41=FACE_OUTER_BOUND('',#115,.T.);
#42=FACE_OUTER_BOUND('',#116,.T.);
#43=FACE_OUTER_BOUND('',#117,.T.);
#44=FACE_OUTER_BOUND('',#118,.T.);
#45=FACE_OUTER_BOUND('',#121,.T.);
#46=FACE_OUTER_BOUND('',#122,.T.);
#47=FACE_OUTER_BOUND('',#123,.T.);
#48=FACE_OUTER_BOUND('',#124,.T.);
#49=ADVANCED_FACE('',(#101,#102),#63,.F.);
#50=ADVANCED_FACE('',(#41),#64,.F.);
#51=ADVANCED_FACE('',(#42),#65,.F.);
#52=ADVANCED_FACE('',(#43),#66,.F.);
#53=ADVANCED_FACE('',(#44),#67,.F.);
#54=ADVANCED_FACE('',(#103,#104),#68,.T.);
#55=ADVANCED_FACE('',(#45),#36,.T.);
#56=ADVANCED_FACE('',(#46),#37,.T.);
#57=ADVANCED_FACE('',(#47),#38,.T.);
#58=ADVANCED_FACE('',(#48),#39,.T.);
#59=ADVANCED_FACE('',(#105,#106),#40,.F.);
#60=ADVANCED_FACE('',(#107,#108),#34,.T.);
#61=ADVANCED_FACE('',(#109,#110),#33,.F.);
#62=ADVANCED_FACE('',(#111,#112),#35,.F.);
#63=PLANE('',#289);
#64=PLANE('',#290);
#65=PLANE('',#291);
#66=PLANE('',#292);
#67=PLANE('',#293);
#68=PLANE('',#299);
#69=LINE('',#456,#85);
#70=LINE('',#461,#86);
#71=LINE('',#465,#87);
#72=LINE('',#469,#88);
#73=LINE('',#473,#89);
#74=LINE('',#476,#90);
#75=LINE('',#477,#91);
#76=LINE('',#479,#92);
#77=LINE('',#481,#93);
#78=LINE('',#483,#94);
#79=LINE('',#485,#95);
#80=LINE('',#487,#96);
#81=LINE('',#489,#97);
#82=LINE('',#491,#98);
#83=LINE('',#493,#99);
#84=LINE('',#495,#100);
#85=VECTOR('',#319,1.0);
#86=VECTOR('',#322,1.0);
#87=VECTOR('',#325,1.0);
#88=VECTOR('',#328,1.0);
#89=VECTOR('',#333,1.0);
#90=VECTOR('',#334,1.0);
#91=VECTOR('',#335,1.0);
#92=VECTOR('',#338,1.0);
#93=VECTOR('',#339,1.0);
#94=VECTOR('',#340,1.0);
#95=VECTOR('',#343,1.0);
#96=VECTOR('',#344,1.0);
#97=VECTOR('',#345,1.0);
#98=VECTOR('',#348,1.0);
#99=VECTOR('',#349,1.0);
#100=VECTOR('',#350,1.0);
#101=FACE_BOUND('',#113,.T.);
#102=FACE_BOUND('',#114,.T.);
#103=FACE_BOUND('',#119,.T.);
#104=FACE_BOUND('',#120,.T.);
#105=FACE_BOUND('',#125,.T.);
#106=FACE_BOUND('',#126,.T.);
#107=FACE_BOUND('',#127,.T.);
#108=FACE_BOUND('',#128,.T.);
#109=FACE_BOUND('',#129,.T.);
#110=FACE_BOUND('',#130,.T.);
#111=FACE_BOUND('',#131,.T.);
#112=FACE_BOUND('',#132,.T.);
#113=EDGE_LOOP('',(#133));
#114=EDGE_LOOP('',(#134,#135,#136,#137,#138,#139,#140,#141));
#115=EDGE_LOOP('',(#142,#143,#144,#145));
#116=EDGE_LOOP('',(#146,#147,#148,#149));
#117=EDGE_LOOP('',(#150,#151,#152,#153));
#118=EDGE_LOOP('',(#154,#155,#156,#157));
#119=EDGE_LOOP('',(#158));
#120=EDGE_LOOP('',(#159,#160,#161,#162,#163,#164,#165,#166));
#121=EDGE_LOOP('',(#167,#168,#169,#170));
#122=EDGE_LOOP('',(#171,#172,#173,#174));
#123=EDGE_LOOP('',(#175,#176,#177,#178));
#124=EDGE_LOOP('',(#179,#180,#181,#182));
#125=EDGE_LOOP('',(#183));
#126=EDGE_LOOP('',(#184));
#127=EDGE_LOOP('',(#185));
#128=EDGE_LOOP('',(#186));
#129=EDGE_LOOP('',(#187));
#130=EDGE_LOOP('',(#188));
#131=EDGE_LOOP('',(#189));
#132=EDGE_LOOP('',(#190));
#133=ORIENTED_EDGE('',*,*,#212,.T.);
#134=ORIENTED_EDGE('',*,*,#213,.T.);
#135=ORIENTED_EDGE('',*,*,#214,.T.);
#136=ORIENTED_EDGE('',*,*,#215,.T.);
#137=ORIENTED_EDGE('',*,*,#216,.T.);
#138=ORIENTED_EDGE('',*,*,#217,.T.);
#139=ORIENTED_EDGE('',*,*,#218,.T.);
#140=ORIENTED_EDGE('',*,*,#219,.T.);
#141=ORIENTED_EDGE('',*,*,#220,.T.);
#142=ORIENTED_EDGE('',*,*,#221,.F.);
#143=ORIENTED_EDGE('',*,*,#222,.T.);
#144=ORIENTED_EDGE('',*,*,#213,.F.);
#145=ORIENTED_EDGE('',*,*,#223,.T.);
#146=ORIENTED_EDGE('',*,*,#219,.F.);
#147=ORIENTED_EDGE('',*,*,#224,.T.);
#148=ORIENTED_EDGE('',*,*,#225,.F.);
#149=ORIENTED_EDGE('',*,*,#226,.T.);
#150=ORIENTED_EDGE('',*,*,#217,.F.);
#151=ORIENTED_EDGE('',*,*,#227,.T.);
#152=ORIENTED_EDGE('',*,*,#228,.F.);
#153=ORIENTED_EDGE('',*,*,#229,.T.);
#154=ORIENTED_EDGE('',*,*,#215,.F.);
#155=ORIENTED_EDGE('',*,*,#230,.T.);
#156=ORIENTED_EDGE('',*,*,#231,.F.);
#157=ORIENTED_EDGE('',*,*,#232,.T.);
#158=ORIENTED_EDGE('',*,*,#233,.F.);
#159=ORIENTED_EDGE('',*,*,#231,.T.);
#160=ORIENTED_EDGE('',*,*,#234,.T.);
#161=ORIENTED_EDGE('',*,*,#221,.T.);
#162=ORIENTED_EDGE('',*,*,#235,.T.);
#163=ORIENTED_EDGE('',*,*,#225,.T.);
#164=ORIENTED_EDGE('',*,*,#236,.T.);
#165=ORIENTED_EDGE('',*,*,#228,.T.);
#166=ORIENTED_EDGE('',*,*,#237,.T.);
#167=ORIENTED_EDGE('',*,*,#214,.F.);
#168=ORIENTED_EDGE('',*,*,#222,.F.);
#169=ORIENTED_EDGE('',*,*,#234,.F.);
#170=ORIENTED_EDGE('',*,*,#230,.F.);
#171=ORIENTED_EDGE('',*,*,#216,.F.);
#172=ORIENTED_EDGE('',*,*,#232,.F.);
#173=ORIENTED_EDGE('',*,*,#237,.F.);
#174=ORIENTED_EDGE('',*,*,#227,.F.);
#175=ORIENTED_EDGE('',*,*,#218,.F.);
#176=ORIENTED_EDGE('',*,*,#229,.F.);
#177=ORIENTED_EDGE('',*,*,#236,.F.);
#178=ORIENTED_EDGE('',*,*,#224,.F.);
#179=ORIENTED_EDGE('',*,*,#220,.F.);
#180=ORIENTED_EDGE('',*,*,#226,.F.);
#181=ORIENTED_EDGE('',*,*,#235,.F.);
#182=ORIENTED_EDGE('',*,*,#223,.F.);
#183=ORIENTED_EDGE('',*,*,#238,.T.);
#184=ORIENTED_EDGE('',*,*,#233,.T.);
#185=ORIENTED_EDGE('',*,*,#239,.T.);
#186=ORIENTED_EDGE('',*,*,#240,.T.);
#187=ORIENTED_EDGE('',*,*,#240,.F.);
#188=ORIENTED_EDGE('',*,*,#212,.F.);
#189=ORIENTED_EDGE('',*,*,#239,.F.);
#190=ORIENTED_EDGE('',*,*,#238,.F.);
#191=VERTEX_POINT('',#455);
#192=VERTEX_POINT('',#457);
#193=VERTEX_POINT('',#458);
#194=VERTEX_POINT('',#460);
#195=VERTEX_POINT('',#462);
#196=VERTEX_POINT('',#464);
#197=VERTEX_POINT('',#466);
#198=VERTEX_POINT('',#468);
#199=VERTEX_POINT('',#470);
#200=VERTEX_POINT('',#474);
#201=VERTEX_POINT('',#475);
#202=VERTEX_POINT('',#480);
#203=VERTEX_POINT('',#482);
#204=VERTEX_POINT('',#486);
#205=VERTEX_POINT('',#488);
#206=VERTEX_POINT('',#492);
#207=VERTEX_POINT('',#494);
#208=VERTEX_POINT('',#498);
#209=VERTEX_POINT('',#509);
#210=VERTEX_POINT('',#512);
#211=VERTEX_POINT('',#514);
#212=EDGE_CURVE('',#191,#191,#241,.T.);
#213=EDGE_CURVE('',#192,#193,#69,.T.);
#214=EDGE_CURVE('',#193,#194,#242,.T.);
#215=EDGE_CURVE('',#194,#195,#70,.T.);
#216=EDGE_CURVE('',#195,#196,#243,.T.);
#217=EDGE_CURVE('',#196,#197,#71,.T.);
#218=EDGE_CURVE('',#197,#198,#244,.T.);
#219=EDGE_CURVE('',#198,#199,#72,.T.);
#220=EDGE_CURVE('',#199,#192,#245,.T.);
#221=EDGE_CURVE('',#200,#201,#73,.T.);
#222=EDGE_CURVE('',#200,#193,#74,.T.);
#223=EDGE_CURVE('',#192,#201,#75,.T.);
#224=EDGE_CURVE('',#198,#202,#76,.T.);
#225=EDGE_CURVE('',#203,#202,#77,.T.);
#226=EDGE_CURVE('',#203,#199,#78,.T.);
#227=EDGE_CURVE('',#196,#204,#79,.T.);
#228=EDGE_CURVE('',#205,#204,#80,.T.);
#229=EDGE_CURVE('',#205,#197,#81,.T.);
#230=EDGE_CURVE('',#194,#206,#82,.T.);
#231=EDGE_CURVE('',#207,#206,#83,.T.);
#232=EDGE_CURVE('',#207,#195,#84,.T.);
#233=EDGE_CURVE('',#208,#208,#246,.T.);
#234=EDGE_CURVE('',#206,#200,#247,.T.);
#235=EDGE_CURVE('',#201,#203,#248,.T.);
#236=EDGE_CURVE('',#202,#205,#249,.T.);
#237=EDGE_CURVE('',#204,#207,#250,.T.);
#238=EDGE_CURVE('',#209,#209,#251,.T.);
#239=EDGE_CURVE('',#210,#210,#252,.T.);
#240=EDGE_CURVE('',#211,#211,#253,.T.);
#241=CIRCLE('',#284,1.4);
#242=CIRCLE('',#285,0.501369264349961);
#243=CIRCLE('',#286,0.50136926434996);
#244=CIRCLE('',#287,0.501369264349961);
#245=CIRCLE('',#288,0.501369264349961);
#246=CIRCLE('',#294,1.92255023212159);
#247=CIRCLE('',#295,0.793750000000002);
#248=CIRCLE('',#296,0.793750000000002);
#249=CIRCLE('',#297,0.793750000000002);
#250=CIRCLE('',#298,0.793750000000002);
#251=CIRCLE('',#304,1.88448184298103);
#252=CIRCLE('',#306,1.80474984821024);
#253=CIRCLE('',#307,1.4);
#254=CURVE_STYLE('',#258,POSITIVE_LENGTH_MEASURE(0.18),#257);
#255=CURVE_STYLE('',#259,POSITIVE_LENGTH_MEASURE(0.18),#279);
#256=CURVE_STYLE('',#260,POSITIVE_LENGTH_MEASURE(0.18),#279);
#257=DRAUGHTING_PRE_DEFINED_COLOUR('blue');
#258=DRAUGHTING_PRE_DEFINED_CURVE_FONT('continuous');
#259=DRAUGHTING_PRE_DEFINED_CURVE_FONT('continuous');
#260=DRAUGHTING_PRE_DEFINED_CURVE_FONT('continuous');
#261=B_SPLINE_CURVE_WITH_KNOTS('CUTTING EDGE LINE',5,(#390,#391,#392,#393,#394,#395,
     #396,#397,#398,#399,#400,#401,#402,#403,#404,#405,#406,#407,#408,#409,#410,
     #411,#412,#413,#414,#415,#416,#417,#418,#419,#420,#421,#422,#423,#424,#425,
     #426,#427,#428,#429,#430,#431,#432,#433,#434,#435,#436,#437,#438,#439,#440,
     #441,#442,#443,#444,#445,#446,#447,#448,#449,#450,#451),.UNSPECIFIED.,.T.,.F.,
     (2,4,1,1,1,1,1,1,1,4,4,1,1,1,1,1,1,1,4,4,1,1,1,1,1,1,1,4,4,1,1,1,1,1,1,1,4,
     4,1,1),(-0.1987562523,0.0,0.00569374975000003,0.0113874995,0.01708124925,0.022774999,
     0.0284687487500001,0.0341624985,0.03985624825,0.045549998,0.2443062502,0.2514234373875,
     0.258540624575,0.2656578117625,0.27277499895,0.2798921861375,0.287009373325,
     0.2941265605125,0.3012437477,0.5,0.50569374975,0.5113874995,0.51708124925,0.522774999,
     0.52846874875,0.5341624985,0.53985624825,0.545549998,0.7443062502,0.7514234373875,
     0.758540624575,0.7656578117625,0.77277499895,0.7798921861375,0.787009373325,
     0.7941265605125,0.8012437477,1.0,1.00569374975,1.0113874995),.UNSPECIFIED.);
#262=PRESENTATION_LAYER_ASSIGNMENT('1','Layer 1',(#261,#282,#283,#31));
#265=STYLED_ITEM('',(#271),#261);
#266=STYLED_ITEM('',(#272),#282);
#267=STYLED_ITEM('',(#273),#283);
#268=STYLED_ITEM('',(#274),#31);
#269=PRESENTATION_STYLE_ASSIGNMENT((#275));
#270=PRESENTATION_STYLE_ASSIGNMENT((#276));
#271=PRESENTATION_STYLE_ASSIGNMENT((#254));
#272=PRESENTATION_STYLE_ASSIGNMENT((#255));
#273=PRESENTATION_STYLE_ASSIGNMENT((#256));
#274=PRESENTATION_STYLE_ASSIGNMENT((#26));
#275=POINT_STYLE('',#277,POSITIVE_LENGTH_MEASURE(3.0),#279);
#276=POINT_STYLE('',#278,POSITIVE_LENGTH_MEASURE(3.0),#279);
#277=PRE_DEFINED_POINT_MARKER_SYMBOL('plus');
#278=PRE_DEFINED_POINT_MARKER_SYMBOL('plus');
#279=COLOUR_RGB('Medium Maroon',0.6,0.4,0.4);
#280=COLOUR_RGB('IsoInsertColor',0.8,0.8,0.8);
#281=AXIS2_PLACEMENT_3D('',#387,#311,#312);
#282=AXIS2_PLACEMENT_3D('PCS',#452,#313,#314);
#283=AXIS2_PLACEMENT_3D('MCS',#453,#315,#316);
#284=AXIS2_PLACEMENT_3D('',#454,#317,#318);
#285=AXIS2_PLACEMENT_3D('',#459,#320,#321);
#286=AXIS2_PLACEMENT_3D('',#463,#323,#324);
#287=AXIS2_PLACEMENT_3D('',#467,#326,#327);
#288=AXIS2_PLACEMENT_3D('',#471,#329,#330);
#289=AXIS2_PLACEMENT_3D('',#472,#331,#332);
#290=AXIS2_PLACEMENT_3D('',#478,#336,#337);
#291=AXIS2_PLACEMENT_3D('',#484,#341,#342);
#292=AXIS2_PLACEMENT_3D('',#490,#346,#347);
#293=AXIS2_PLACEMENT_3D('',#496,#351,#352);
#294=AXIS2_PLACEMENT_3D('',#497,#353,#354);
#295=AXIS2_PLACEMENT_3D('',#499,#355,#356);
#296=AXIS2_PLACEMENT_3D('',#500,#357,#358);
#297=AXIS2_PLACEMENT_3D('',#501,#359,#360);
#298=AXIS2_PLACEMENT_3D('',#502,#361,#362);
#299=AXIS2_PLACEMENT_3D('',#503,#363,#364);
#300=AXIS2_PLACEMENT_3D('',#504,#365,#366);
#301=AXIS2_PLACEMENT_3D('',#505,#367,#368);
#302=AXIS2_PLACEMENT_3D('',#506,#369,#370);
#303=AXIS2_PLACEMENT_3D('',#507,#371,#372);
#304=AXIS2_PLACEMENT_3D('',#508,#373,#374);
#305=AXIS2_PLACEMENT_3D('',#510,#375,#376);
#306=AXIS2_PLACEMENT_3D('',#511,#377,#378);
#307=AXIS2_PLACEMENT_3D('',#513,#379,#380);
#308=AXIS2_PLACEMENT_3D('',#515,#381,#382);
#309=AXIS2_PLACEMENT_3D('',#516,#383,#384);
#310=AXIS2_PLACEMENT_3D('',#517,#385,#386);
#311=DIRECTION('',(0.0,0.0,1.0));
#312=DIRECTION('',(1.0,0.0,0.0));
#313=DIRECTION('',(0.0,0.0,1.0));
#314=DIRECTION('',(1.0,0.0,0.0));
#315=DIRECTION('',(0.0,0.0,1.0));
#316=DIRECTION('',(1.0,0.0,0.0));
#317=DIRECTION('',(0.0,0.0,1.0));
#318=DIRECTION('',(-0.766044443118978,-0.642787609686539,0.0));
#319=DIRECTION('',(1.0,7.7715611723761E-16,0.0));
#320=DIRECTION('',(0.0,0.0,-1.0));
#321=DIRECTION('',(-0.766044443118978,-0.642787609686539,0.0));
#322=DIRECTION('',(-0.173648177666929,-0.984807753012208,0.0));
#323=DIRECTION('',(0.0,0.0,-1.0));
#324=DIRECTION('',(-0.766044443118977,-0.642787609686539,0.0));
#325=DIRECTION('',(-1.0,1.11022302462516E-16,0.0));
#326=DIRECTION('',(0.0,0.0,-1.0));
#327=DIRECTION('',(-0.766044443118978,-0.642787609686539,0.0));
#328=DIRECTION('',(0.17364817766693,0.984807753012208,0.0));
#329=DIRECTION('',(0.0,0.0,-1.0));
#330=DIRECTION('',(-0.766044443118978,-0.642787609686539,0.0));
#331=DIRECTION('',(0.0,0.0,1.0));
#332=DIRECTION('',(-0.766044443118978,-0.642787609686539,0.0));
#333=DIRECTION('',(-1.0,-7.21644966006352E-16,-2.17181600848858E-16));
#334=DIRECTION('',(3.05311331771918E-16,-0.121869343405148,-0.992546151641322));
#335=DIRECTION('',(-3.05311331771918E-16,0.121869343405148,0.992546151641322));
#336=DIRECTION('',(7.7715611723761E-16,-0.992546151641322,0.121869343405148));
#337=DIRECTION('',(1.0,7.7715611723761E-16,0.0));
#338=DIRECTION('',(-0.120017874239897,0.0211623893957699,0.992546151641322));
#339=DIRECTION('',(-0.17364817766693,-0.984807753012208,7.21360439164787E-16));
#340=DIRECTION('',(0.120017874239897,-0.0211623893957699,-0.992546151641322));
#341=DIRECTION('',(0.977467145358805,-0.17235383048284,0.121869343405148));
#342=DIRECTION('',(0.17364817766693,0.984807753012208,0.0));
#343=DIRECTION('',(-2.15105711021124E-16,-0.121869343405147,0.992546151641322));
#344=DIRECTION('',(1.0,-5.55111512312578E-17,2.10365688519714E-16));
#345=DIRECTION('',(2.15105711021124E-16,0.121869343405147,-0.992546151641322));
#346=DIRECTION('',(0.0,0.992546151641322,0.121869343405147));
#347=DIRECTION('',(-1.0,1.11022302462516E-16,0.0));
#348=DIRECTION('',(0.120017874239896,-0.0211623893957683,0.992546151641322));
#349=DIRECTION('',(0.17364817766693,0.984807753012208,-7.21360439164787E-16));
#350=DIRECTION('',(-0.120017874239896,0.0211623893957683,-0.992546151641322));
#351=DIRECTION('',(-0.977467145358805,0.172353830482839,0.121869343405147));
#352=DIRECTION('',(-0.173648177666929,-0.984807753012208,0.0));
#353=DIRECTION('',(0.0,0.0,1.0));
#354=DIRECTION('',(-0.766044443118978,-0.642787609686539,0.0));
#355=DIRECTION('',(-2.06618502467437E-16,7.72938635790475E-16,1.0));
#356=DIRECTION('',(-0.642787609686539,0.766044443118978,-7.24917160137313E-16));
#357=DIRECTION('',(-2.06618502467437E-16,7.72938635790475E-16,1.0));
#358=DIRECTION('',(-0.642787609686539,0.766044443118978,-7.24917160137313E-16));
#359=DIRECTION('',(-2.06618502467437E-16,7.72938635790475E-16,1.0));
#360=DIRECTION('',(-0.642787609686539,0.766044443118978,-7.24917160137313E-16));
#361=DIRECTION('',(-2.06618502467437E-16,7.72938635790475E-16,1.0));
#362=DIRECTION('',(-0.642787609686539,0.766044443118978,-7.24917160137313E-16));
#363=DIRECTION('',(-2.06618502467437E-16,7.72938635790475E-16,1.0));
#364=DIRECTION('',(-0.642787609686539,0.766044443118978,-7.24917160137313E-16));
#365=DIRECTION('',(-2.06618502467437E-16,7.72938635790475E-16,1.0));
#366=DIRECTION('',(-0.642787609686539,0.766044443118978,-8.633027348658E-16));
#367=DIRECTION('',(-2.06618502467437E-16,7.72938635790475E-16,1.0));
#368=DIRECTION('',(-0.642787609686539,0.766044443118978,-8.91377620552493E-16));
#369=DIRECTION('',(-2.06618502467437E-16,7.72938635790475E-16,1.0));
#370=DIRECTION('',(-0.642787609686539,0.766044443118978,-8.8435889913082E-16));
#371=DIRECTION('',(-2.06618502467437E-16,7.72938635790475E-16,1.0));
#372=DIRECTION('',(-0.642787609686539,0.766044443118978,-8.56284013444127E-16));
#373=DIRECTION('',(0.0,0.0,-1.0));
#374=DIRECTION('',(0.766044443118978,0.642787609686539,0.0));
#375=DIRECTION('',(0.0,0.0,1.0));
#376=DIRECTION('',(-0.766044443118978,-0.642787609686539,0.0));
#377=DIRECTION('',(0.0,0.0,1.0));
#378=DIRECTION('',(0.766044443118978,0.642787609686539,0.0));
#379=DIRECTION('',(0.0,0.0,-1.0));
#380=DIRECTION('',(-0.766044443118978,-0.642787609686539,0.0));
#381=DIRECTION('',(0.0,0.0,1.0));
#382=DIRECTION('',(-0.766044443118978,-0.642787609686539,0.0));
#383=DIRECTION('',(0.0,0.0,1.0));
#384=DIRECTION('',(-0.766044443118978,-0.642787609686539,0.0));
#385=DIRECTION('',(0.0,0.0,-1.0));
#386=DIRECTION('',(0.766044443118978,0.642787609686539,0.0));
#387=CARTESIAN_POINT('',(0.0,0.0,0.0));
#390=CARTESIAN_POINT('',(4.81472980540633,-1.77635683940025E-15,0.0));
#391=CARTESIAN_POINT('',(5.80743428648693,-3.5527136788005E-15,6.18791010999751E-16));
#392=CARTESIAN_POINT('',(5.8584555530058,0.00204973987180068,6.27329799771471E-16));
#393=CARTESIAN_POINT('',(5.9394273141534,0.0116288538653917,6.34698684817788E-16));
#394=CARTESIAN_POINT('',(6.0457663541143,0.038693204692442,6.30221124815338E-16));
#395=CARTESIAN_POINT('',(6.1768746784366,0.097570228983936,5.99771791664648E-16));
#396=CARTESIAN_POINT('',(6.29635762322072,0.18067146810804,5.43246845995071E-16));
#397=CARTESIAN_POINT('',(6.39894436341917,0.283908819748488,4.63552416833E-16));
#398=CARTESIAN_POINT('',(6.47969363501121,0.402801426050804,3.64046554743757E-16));
#399=CARTESIAN_POINT('',(6.52481239803998,0.502825261851183,2.75618650237551E-16));
#400=CARTESIAN_POINT('',(6.54830658253364,0.580903484315875,2.04169493237003E-16));
#401=CARTESIAN_POINT('',(6.55918493220431,0.63079368955873,1.57660969783493E-16));
#402=CARTESIAN_POINT('',(6.73156625630575,1.60841675897687,8.04145478714693E-17));
#403=CARTESIAN_POINT('',(6.89951770543057,2.56091675897687,5.36096985809795E-17));
#404=CARTESIAN_POINT('',(7.06746915455538,3.51341675897687,5.36096985809795E-17));
#405=CARTESIAN_POINT('',(7.23542060368019,4.46591675897686,8.04145478714692E-17));
#406=CARTESIAN_POINT('',(7.40865137222314,5.44835726721293,1.16280332184676E-16));
#407=CARTESIAN_POINT('',(7.41634304106463,5.50874380784802,8.08407488429256E-17));
#408=CARTESIAN_POINT('',(7.41992682526037,5.60895211138321,2.31108214371263E-17));
#409=CARTESIAN_POINT('',(7.40269059833573,5.74430536346896,-5.2268343300319E-17));
#410=CARTESIAN_POINT('',(7.34104955185431,5.91681632915425,-1.43672656108816E-16));
#411=CARTESIAN_POINT('',(7.23804717709652,6.07344271674544,-2.21125826098336E-16));
#412=CARTESIAN_POINT('',(7.1016864709425,6.20207814076538,-2.78646014525729E-16));
#413=CARTESIAN_POINT('',(6.94250018984664,6.29273893606284,-3.117630185374E-16));
#414=CARTESIAN_POINT('',(6.81219629719367,6.33321715153691,-3.19579580413074E-16));
#415=CARTESIAN_POINT('',(6.71288806536041,6.34708880237179,-3.15827276168199E-16));
#416=CARTESIAN_POINT('',(6.65208328768784,6.34999999999999,-3.10337402061409E-16));
#417=CARTESIAN_POINT('',(5.65448705103039,6.34999999999999,-1.84056012647607E-16));
#418=CARTESIAN_POINT('',(4.68729320320922,6.34999999999999,-1.22704008431738E-16));
#419=CARTESIAN_POINT('',(3.72009935538805,6.34999999999999,-1.22704008431738E-16));
#420=CARTESIAN_POINT('',(2.75290550756688,6.34999999999999,-1.84056012647607E-16));
#421=CARTESIAN_POINT('',(1.76020102648628,6.34999999999999,-3.2378058039635E-16));
#422=CARTESIAN_POINT('',(1.70917975996741,6.34795026012818,-3.55652086624205E-16));
#423=CARTESIAN_POINT('',(1.62820799881981,6.33837114613459,-3.99536698462479E-16));
#424=CARTESIAN_POINT('',(1.52186895885891,6.31130679530754,-4.4183841884686E-16));
#425=CARTESIAN_POINT('',(1.39076063453661,6.25242977101604,-4.66992937734322E-16));
#426=CARTESIAN_POINT('',(1.27127768975249,6.16932853189194,-4.58750173808009E-16));
#427=CARTESIAN_POINT('',(1.16869094955405,6.0660911802515,-4.17920642541229E-16));
#428=CARTESIAN_POINT('',(1.08794167796201,5.94719857394917,-3.45950465377782E-16));
#429=CARTESIAN_POINT('',(1.04282291493324,5.8471747381488,-2.70180052415411E-16));
#430=CARTESIAN_POINT('',(1.01932873043957,5.76909651568411,-2.0321086817113E-16));
#431=CARTESIAN_POINT('',(1.0084503807689,5.71920631044125,-1.57660969783493E-16));
#432=CARTESIAN_POINT('',(0.83606905666746,4.74158324102311,-8.04145478714694E-17));
#433=CARTESIAN_POINT('',(0.668117607542648,3.78908324102312,-5.36096985809796E-17));
#434=CARTESIAN_POINT('',(0.500166158417835,2.83658324102312,-5.36096985809795E-17));
#435=CARTESIAN_POINT('',(0.332214709293023,1.88408324102312,-8.04145478714692E-17));
#436=CARTESIAN_POINT('',(0.158983940750069,0.901642732787062,-1.16280332184676E-16));
#437=CARTESIAN_POINT('',(0.151292271908586,0.841256192151969,-8.08407488429256E-17));
#438=CARTESIAN_POINT('',(0.147708487712839,0.74104788861678,-2.31108214371263E-17));
#439=CARTESIAN_POINT('',(0.164944714637484,0.60569463653103,5.2268343300319E-17));
#440=CARTESIAN_POINT('',(0.226585761118899,0.433183670845729,1.43672656108816E-16));
#441=CARTESIAN_POINT('',(0.329588135876691,0.276557283254544,2.21125826098336E-16));
#442=CARTESIAN_POINT('',(0.465948842030711,0.147921859234613,2.78646014525729E-16));
#443=CARTESIAN_POINT('',(0.62513512312657,0.0572610639371449,3.117630185374E-16));
#444=CARTESIAN_POINT('',(0.755439015779539,0.0167828484630834,3.19579580413074E-16));
#445=CARTESIAN_POINT('',(0.854747247612798,0.00291119762819481,3.15827276168199E-16));
#446=CARTESIAN_POINT('',(0.915552025285368,-2.66453525910038E-15,3.10337402061409E-16));
#447=CARTESIAN_POINT('',(1.91314826194282,-2.22044604925031E-15,1.84056012647607E-16));
#448=CARTESIAN_POINT('',(2.88034210976399,-2.22044604925031E-15,9.20280063238036E-17));
#449=CARTESIAN_POINT('',(3.84753595758516,-1.77635683940025E-15,3.06760021079345E-17));
#450=CARTESIAN_POINT('',(4.81472980540633,-1.77635683940025E-15,0.0));
#451=CARTESIAN_POINT('',(5.80743428648693,-3.5527136788005E-15,6.18791010999751E-16));
#452=CARTESIAN_POINT('',(0.0,0.0,0.0));
#453=CARTESIAN_POINT('',(3.78381765648661,3.175,0.0));
#454=CARTESIAN_POINT('',(3.78381765648661,3.175,-2.38125));
#455=CARTESIAN_POINT('',(2.71135543612005,2.27509734643884,-2.38125));
#456=CARTESIAN_POINT('',(3.78381765648661,6.05761926434994,-2.38125));
#457=CARTESIAN_POINT('',(1.78571165974571,6.05761926434994,-2.38125));
#458=CARTESIAN_POINT('',(6.62168089885156,6.05761926434995,-2.38125));
#459=CARTESIAN_POINT('',(6.62168089885156,5.55624999999999,-2.38125));
#460=CARTESIAN_POINT('',(7.11543323750543,5.46918814090741,-2.38125));
#461=CARTESIAN_POINT('',(6.62264345700079,2.67443841783804,-2.38125));
#462=CARTESIAN_POINT('',(6.27567599188137,0.706688140907417,-2.38125));
#463=CARTESIAN_POINT('',(5.7819236532275,0.79375,-2.38125));
#464=CARTESIAN_POINT('',(5.7819236532275,0.292380735650037,-2.38125));
#465=CARTESIAN_POINT('',(3.78381765648661,0.292380735650037,-2.38125));
#466=CARTESIAN_POINT('',(0.945954414121653,0.292380735650037,-2.38125));
#467=CARTESIAN_POINT('',(0.945954414121654,0.793750000000002,-2.38125));
#468=CARTESIAN_POINT('',(0.452202075467784,0.880811859092578,-2.38125));
#469=CARTESIAN_POINT('',(0.944991855972425,3.67556158216195,-2.38125));
#470=CARTESIAN_POINT('',(1.29195932109185,5.64331185909256,-2.38125));
#471=CARTESIAN_POINT('',(1.78571165974572,5.55624999999998,-2.38125));
#472=CARTESIAN_POINT('',(3.73759634394945,2.64668798019793,-2.38125));
#473=CARTESIAN_POINT('',(3.78381765648661,6.34999999999999,-5.38749756651153E-15));
#474=CARTESIAN_POINT('',(6.62168089885156,6.34999999999999,-4.8011425131667E-15));
#475=CARTESIAN_POINT('',(1.78571165974571,6.34999999999999,-5.80034323532934E-15));
#476=CARTESIAN_POINT('',(6.62168089885156,6.34999999999999,-4.68280776404605E-15));
#477=CARTESIAN_POINT('',(1.78571165974571,6.34999999999999,-5.99973152250962E-15));
#478=CARTESIAN_POINT('',(3.78381765648661,6.34999999999999,-5.38749756651153E-15));
#479=CARTESIAN_POINT('',(0.16426326016821,0.931583241023126,-2.1956689658752E-15));
#480=CARTESIAN_POINT('',(0.16426326016821,0.931583241023126,-1.94726081765045E-15));
#481=CARTESIAN_POINT('',(0.657053040672852,3.7263329640925,-4.00561136949637E-15));
#482=CARTESIAN_POINT('',(1.00402050579227,5.69408324102311,-5.45487168607555E-15));
#483=CARTESIAN_POINT('',(1.00402050579227,5.69408324102311,-5.64266357772749E-15));
#484=CARTESIAN_POINT('',(0.657053040672851,3.72633296409249,-4.00561136949637E-15));
#485=CARTESIAN_POINT('',(5.7819236532275,-2.60208521396521E-15,2.5352595293898E-17));
#486=CARTESIAN_POINT('',(5.7819236532275,-2.60208521396521E-15,-6.64915604242162E-17));
#487=CARTESIAN_POINT('',(3.78381765648661,-2.60208521396521E-15,-4.79337229242025E-16));
#488=CARTESIAN_POINT('',(0.945954414121653,-2.60208521396521E-15,-1.06569228258686E-15));
#489=CARTESIAN_POINT('',(0.945954414121653,-2.60208521396521E-15,-1.30284941801527E-15));
#490=CARTESIAN_POINT('',(3.78381765648661,-2.60208521396521E-15,-4.79337229242026E-16));
#491=CARTESIAN_POINT('',(7.403372052805,5.41841675897686,-3.84292494934994E-15));
#492=CARTESIAN_POINT('',(7.403372052805,5.41841675897686,-3.91957397810311E-15));
#493=CARTESIAN_POINT('',(6.91058227230036,2.6236670359075,-1.8612234262572E-15));
#494=CARTESIAN_POINT('',(6.56361480718094,0.655916758976873,-4.11963109678009E-16));
#495=CARTESIAN_POINT('',(6.56361480718094,0.655916758976873,-4.2326800561082E-16));
#496=CARTESIAN_POINT('',(6.91058227230036,2.62366703590749,-1.86122342625719E-15));
#497=CARTESIAN_POINT('',(3.78381765648661,3.175,0.0));
#498=CARTESIAN_POINT('',(2.31105873455277,1.93920853179226,0.0));
#499=CARTESIAN_POINT('',(6.62168089885156,5.55624999999999,-4.18762247100801E-15));
#500=CARTESIAN_POINT('',(1.78571165974571,5.55624999999998,-5.18682319317065E-15));
#501=CARTESIAN_POINT('',(0.945954414121653,0.793750000000001,-1.67921232474555E-15));
#502=CARTESIAN_POINT('',(5.7819236532275,0.793749999999998,-6.80011602582907E-16));
#503=CARTESIAN_POINT('',(3.78381765648661,3.175,-2.93341739787678E-15));
#504=CARTESIAN_POINT('',(6.62168089885156,5.55624999999999,-4.33680868994202E-15));
#505=CARTESIAN_POINT('',(5.7819236532275,0.793749999999998,-8.67361737988404E-16));
#506=CARTESIAN_POINT('',(0.945954414121653,0.793750000000001,-1.73472347597681E-15));
#507=CARTESIAN_POINT('',(1.78571165974571,5.55624999999998,-5.20417042793042E-15));
#508=CARTESIAN_POINT('',(3.78381765648661,3.175,-0.544403327785291));
#509=CARTESIAN_POINT('',(5.22741450046084,4.38632157934746,-0.544403327785291));
#510=CARTESIAN_POINT('',(3.78381765648661,3.175,-0.680000000032654));
#511=CARTESIAN_POINT('',(3.78381765648661,3.175,-0.782283357604652));
#512=CARTESIAN_POINT('',(5.16633624892789,4.3350708410132,-0.782283357604652));
#513=CARTESIAN_POINT('',(3.78381765648661,3.175,-2.14607469113958));
#514=CARTESIAN_POINT('',(2.71135543612005,2.27509734643884,-2.14607469113958));
#515=CARTESIAN_POINT('',(3.78381765648661,3.175,-2.14607469113959));
#516=CARTESIAN_POINT('',(3.78381765648661,3.175,-33.3676978394524));
#517=CARTESIAN_POINT('',(3.78381765648661,3.175,-0.509525090897641));
#518=MECHANICAL_DESIGN_GEOMETRIC_PRESENTATION_REPRESENTATION('',(#265,#266,#267,
     #268),#519);
#519=(GEOMETRIC_REPRESENTATION_CONTEXT(3)GLOBAL_UNCERTAINTY_ASSIGNED_CONTEXT((#520))
     GLOBAL_UNIT_ASSIGNED_CONTEXT((#526,#522,#521))REPRESENTATION_CONTEXT('CCGW060208',
     'TOP_LEVEL_ASSEMBLY_PART'));
#520=UNCERTAINTY_MEASURE_WITH_UNIT(LENGTH_MEASURE(2.0E-5),#526,'DISTANCE_ACCURACY_VALUE',
     'Maximum Tolerance applied to model');
#521=(NAMED_UNIT(*)SI_UNIT($,.STERADIAN.)SOLID_ANGLE_UNIT());
#522=(CONVERSION_BASED_UNIT('DEGREE',#524)NAMED_UNIT(#523)PLANE_ANGLE_UNIT());
#523=DIMENSIONAL_EXPONENTS(0.0,0.0,0.0,0.0,0.0,0.0,0.0);
#524=PLANE_ANGLE_MEASURE_WITH_UNIT(PLANE_ANGLE_MEASURE(0.0174532925),#525);
#525=(NAMED_UNIT(*)PLANE_ANGLE_UNIT()SI_UNIT($,.RADIAN.));
#526=(LENGTH_UNIT()NAMED_UNIT(*)SI_UNIT(.MILLI.,.METRE.));
#527=CONSTRUCTIVE_GEOMETRY_REPRESENTATION('supplemental geometry',(#282,#283),#519);
#528=CONSTRUCTIVE_GEOMETRY_REPRESENTATION_RELATIONSHIP('supplemental geometry','contains PCS and MCS coordinate systems',
     #24,#527);
ENDSEC;
END-ISO-10303-21;
