ISO-10303-21;
HEADER;
FILE_DESCRIPTION(
/* description */ (''),
/* implementation_level */ '2;1');
FILE_NAME(
/* name */ 'RNGN120300.stp',
/* time_stamp */ '2017-03-21T10:54:14',
/* author */ ('Sandvik Coromant R&D'),
/* organization */ ('Sandvik Machining Solutions'),
/* preprocessor_version */ 'ST-DEVELOPER v15',
/* originating_system */ 'SIEMENS PLM Software NX v8.5.3.3(64 bits)',
/* authorization */ '');
FILE_SCHEMA(('AUTOMOTIVE_DESIGN'));
ENDSEC;
DATA;
#10=GEOMETRICALLY_BOUNDED_WIREFRAME_SHAPE_REPRESENTATION('IsoTurningInsert-None',
     (#25),#190);
#11=SHAPE_REPRESENTATION_RELATIONSHIP('None','relationship between IsoTurningInsert-None and IsoTurningInsert-None',
     #24,#13);
#12=SHAPE_REPRESENTATION_RELATIONSHIP('None','relationship between IsoTurningInsert-None and IsoTurningInsert-None',
     #24,#10);
#13=ADVANCED_BREP_SHAPE_REPRESENTATION('IsoTurningInsert-None',(#31),#190);
#14=SHAPE_DEFINITION_REPRESENTATION(#15,#24);
#15=PRODUCT_DEFINITION_SHAPE('','',#16);
#16=PRODUCT_DEFINITION(' ','',#18,#17);
#17=PRODUCT_DEFINITION_CONTEXT('part definition',#23,'design');
#18=PRODUCT_DEFINITION_FORMATION_WITH_SPECIFIED_SOURCE(' ',' ',#20,.NOT_KNOWN.);
#19=PRODUCT_RELATED_PRODUCT_CATEGORY('part','',(#20));
#20=PRODUCT('IsoTurningInsert','IsoTurningInsert',' ',(#21));
#21=PRODUCT_CONTEXT(' ',#23,'mechanical');
#22=APPLICATION_PROTOCOL_DEFINITION('international standard','automotive_design',
     2010,#23);
#23=APPLICATION_CONTEXT('core data for automotive mechanical design processes');
#24=SHAPE_REPRESENTATION('IsoTurningInsert-None',(#84),#190);
#25=GEOMETRIC_CURVE_SET('geometric curve set',(#64));
#26=SURFACE_STYLE_USAGE(.BOTH.,#27);
#27=SURFACE_SIDE_STYLE('',(#28));
#28=SURFACE_STYLE_FILL_AREA(#29);
#29=FILL_AREA_STYLE('',(#30));
#30=FILL_AREA_STYLE_COLOUR('',#83);
#31=MANIFOLD_SOLID_BREP('CUT',#32);
#32=CLOSED_SHELL('',(#36,#37,#38));
#33=CYLINDRICAL_SURFACE('',#91,6.34999999999999);
#34=FACE_BOUND('',#45,.T.);
#35=FACE_BOUND('',#46,.T.);
#36=ADVANCED_FACE('',(#41),#39,.F.);
#37=ADVANCED_FACE('',(#42),#40,.F.);
#38=ADVANCED_FACE('',(#34,#35),#33,.T.);
#39=PLANE('',#88);
#40=PLANE('',#90);
#41=FACE_OUTER_BOUND('',#43,.T.);
#42=FACE_OUTER_BOUND('',#44,.T.);
#43=EDGE_LOOP('',(#47));
#44=EDGE_LOOP('',(#48));
#45=EDGE_LOOP('',(#49));
#46=EDGE_LOOP('',(#50));
#47=ORIENTED_EDGE('',*,*,#53,.F.);
#48=ORIENTED_EDGE('',*,*,#54,.F.);
#49=ORIENTED_EDGE('',*,*,#53,.T.);
#50=ORIENTED_EDGE('',*,*,#54,.T.);
#51=VERTEX_POINT('',#183);
#52=VERTEX_POINT('',#186);
#53=EDGE_CURVE('',#51,#51,#55,.T.);
#54=EDGE_CURVE('',#52,#52,#56,.T.);
#55=CIRCLE('',#87,6.34999999999999);
#56=CIRCLE('',#89,6.34999999999999);
#57=CURVE_STYLE('',#61,POSITIVE_LENGTH_MEASURE(0.18),#60);
#58=CURVE_STYLE('',#62,POSITIVE_LENGTH_MEASURE(0.18),#82);
#59=CURVE_STYLE('',#63,POSITIVE_LENGTH_MEASURE(0.18),#82);
#60=DRAUGHTING_PRE_DEFINED_COLOUR('blue');
#61=DRAUGHTING_PRE_DEFINED_CURVE_FONT('continuous');
#62=DRAUGHTING_PRE_DEFINED_CURVE_FONT('continuous');
#63=DRAUGHTING_PRE_DEFINED_CURVE_FONT('continuous');
#64=B_SPLINE_CURVE_WITH_KNOTS('CUTTING EDGE LINE',5,(#111,#112,#113,#114,#115,#116,
     #117,#118,#119,#120,#121,#122,#123,#124,#125,#126,#127,#128,#129,#130,#131,
     #132,#133,#134,#135,#136,#137,#138,#139,#140,#141,#142,#143,#144,#145,#146,
     #147,#148,#149,#150,#151,#152,#153,#154,#155,#156,#157,#158,#159,#160,#161,
     #162,#163,#164,#165,#166,#167,#168,#169,#170,#171,#172,#173,#174,#175,#176,
     #177,#178,#179),.UNSPECIFIED.,.T.,.F.,(1,1,1,1,1,1,1,1,1,1,1,1,1,1,1,1,1,1,
     1,1,1,1,1,1,1,1,1,1,1,1,1,1,1,1,1,1,1,1,1,1,1,1,1,1,1,1,1,1,1,1,1,1,1,1,1,1,
     1,1,1,1,1,1,1,1,1,1,1,1,1,1,1,1,1,1,1),(-0.078125,-0.0625,-0.046875,-0.03125,
     -0.015625,0.0,0.015625,0.03125,0.046875,0.0625,0.078125,0.09375,0.109375,0.125,
     0.140625,0.15625,0.171875,0.1875,0.203125,0.21875,0.234375,0.25,0.265625,0.28125,
     0.296875,0.3125,0.328125,0.34375,0.359375,0.375,0.390625,0.40625,0.421875,0.4375,
     0.453125,0.46875,0.484375,0.5,0.515625,0.53125,0.546875,0.5625,0.578125,0.59375,
     0.609375,0.625,0.640625,0.65625,0.671875,0.6875,0.703125,0.71875,0.734375,0.75,
     0.765625,0.78125,0.796875,0.8125,0.828125,0.84375,0.859375,0.875,0.890625,0.90625,
     0.921875,0.9375,0.953125,0.96875,0.984375,1.0,1.015625,1.03125,1.046875,1.0625,
     1.078125),.UNSPECIFIED.);
#65=PRESENTATION_LAYER_ASSIGNMENT('1','Layer 1',(#64,#85,#86,#31));
#68=STYLED_ITEM('',(#74),#64);
#69=STYLED_ITEM('',(#75),#85);
#70=STYLED_ITEM('',(#76),#86);
#71=STYLED_ITEM('',(#77),#31);
#72=PRESENTATION_STYLE_ASSIGNMENT((#78));
#73=PRESENTATION_STYLE_ASSIGNMENT((#79));
#74=PRESENTATION_STYLE_ASSIGNMENT((#57));
#75=PRESENTATION_STYLE_ASSIGNMENT((#58));
#76=PRESENTATION_STYLE_ASSIGNMENT((#59));
#77=PRESENTATION_STYLE_ASSIGNMENT((#26));
#78=POINT_STYLE('',#80,POSITIVE_LENGTH_MEASURE(3.0),#82);
#79=POINT_STYLE('',#81,POSITIVE_LENGTH_MEASURE(3.0),#82);
#80=PRE_DEFINED_POINT_MARKER_SYMBOL('plus');
#81=PRE_DEFINED_POINT_MARKER_SYMBOL('plus');
#82=COLOUR_RGB('Medium Maroon',0.6,0.4,0.4);
#83=COLOUR_RGB('IsoInsertColor',0.8,0.8,0.8);
#84=AXIS2_PLACEMENT_3D('',#108,#92,#93);
#85=AXIS2_PLACEMENT_3D('PCS',#180,#94,#95);
#86=AXIS2_PLACEMENT_3D('MCS',#181,#96,#97);
#87=AXIS2_PLACEMENT_3D('',#182,#98,#99);
#88=AXIS2_PLACEMENT_3D('',#184,#100,#101);
#89=AXIS2_PLACEMENT_3D('',#185,#102,#103);
#90=AXIS2_PLACEMENT_3D('',#187,#104,#105);
#91=AXIS2_PLACEMENT_3D('',#188,#106,#107);
#92=DIRECTION('',(0.0,0.0,1.0));
#93=DIRECTION('',(1.0,0.0,0.0));
#94=DIRECTION('',(0.0,0.0,1.0));
#95=DIRECTION('',(1.0,0.0,0.0));
#96=DIRECTION('',(0.0,0.0,1.0));
#97=DIRECTION('',(1.0,0.0,0.0));
#98=DIRECTION('',(0.0,0.0,1.0));
#99=DIRECTION('',(-0.707106781186548,-0.707106781186547,0.0));
#100=DIRECTION('',(0.0,0.0,1.0));
#101=DIRECTION('',(-0.707106781186548,-0.707106781186547,0.0));
#102=DIRECTION('',(0.0,0.0,-1.0));
#103=DIRECTION('',(-0.882015164970351,-0.471221019015837,0.0));
#104=DIRECTION('',(0.0,0.0,-1.0));
#105=DIRECTION('',(0.707106781186548,0.707106781186547,0.0));
#106=DIRECTION('',(0.0,0.0,1.0));
#107=DIRECTION('',(-0.707106781186548,-0.707106781186547,0.0));
#108=CARTESIAN_POINT('',(0.0,0.0,0.0));
#111=CARTESIAN_POINT('',(1.37365631146672,2.38262824615489,0.0));
#112=CARTESIAN_POINT('',(1.02590904431313,2.86500695889458,0.0));
#113=CARTESIAN_POINT('',(0.738515920076839,3.35203652800599,0.0));
#114=CARTESIAN_POINT('',(0.493435751765667,3.86167200568905,0.0));
#115=CARTESIAN_POINT('',(0.285772558005014,4.4188913362062,0.0));
#116=CARTESIAN_POINT('',(0.128307184971243,5.0071851738088,0.0));
#117=CARTESIAN_POINT('',(0.0257512984502206,5.62448247373737,0.0));
#118=CARTESIAN_POINT('',(-0.0156702219847453,6.26165196901506,0.0));
#119=CARTESIAN_POINT('',(0.00794334777594585,6.91005094082914,0.0));
#120=CARTESIAN_POINT('',(0.0989309715549567,7.55948382515632,0.0));
#121=CARTESIAN_POINT('',(0.257434677670344,8.19948510679484,0.0));
#122=CARTESIAN_POINT('',(0.481456436128581,8.81959744910806,0.0));
#123=CARTESIAN_POINT('',(0.766843856554974,9.41001750227998,0.0));
#124=CARTESIAN_POINT('',(1.10766108254996,9.9621247797134,0.0));
#125=CARTESIAN_POINT('',(1.49629612534474,10.4687444709705,0.0));
#126=CARTESIAN_POINT('',(1.92470201482563,10.9248607502726,0.0));
#127=CARTESIAN_POINT('',(2.38262824621233,11.3263436885685,0.0));
#128=CARTESIAN_POINT('',(2.86500695906733,11.6740909557907,0.0));
#129=CARTESIAN_POINT('',(3.35203652796768,11.9614840798974,0.0));
#130=CARTESIAN_POINT('',(3.86167200570547,12.2065642482448,0.0));
#131=CARTESIAN_POINT('',(4.41889133620065,12.4142274419914,0.0));
#132=CARTESIAN_POINT('',(5.00718517381061,12.5716928150299,0.0));
#133=CARTESIAN_POINT('',(5.62448247373676,12.6742487015494,0.0));
#134=CARTESIAN_POINT('',(6.2616519690153,12.7156702219848,0.0));
#135=CARTESIAN_POINT('',(6.91005094082899,12.6920566522241,0.0));
#136=CARTESIAN_POINT('',(7.5594838251565,12.6010690284448,0.0));
#137=CARTESIAN_POINT('',(8.19948510679452,12.4425653223301,0.0));
#138=CARTESIAN_POINT('',(8.81959744910876,12.2185435638703,0.0));
#139=CARTESIAN_POINT('',(9.41001750227826,11.9331561434478,0.0));
#140=CARTESIAN_POINT('',(9.96212477971807,11.5923389174424,0.0));
#141=CARTESIAN_POINT('',(10.4687444709569,11.2037038746774,0.0));
#142=CARTESIAN_POINT('',(10.924860750313,10.7752979851082,0.0));
#143=CARTESIAN_POINT('',(11.3263436884857,10.3173717539223,0.0));
#144=CARTESIAN_POINT('',(11.6740909556514,9.83499304116681,0.0));
#145=CARTESIAN_POINT('',(11.9614840799537,9.34796347193964,0.0));
#146=CARTESIAN_POINT('',(12.2065642482258,8.83832799432501,0.0));
#147=CARTESIAN_POINT('',(12.4142274419977,8.28110866378922,0.0));
#148=CARTESIAN_POINT('',(12.5716928150278,7.69281482619263,0.0));
#149=CARTESIAN_POINT('',(12.6742487015501,7.07551752626215,0.0));
#150=CARTESIAN_POINT('',(12.7156702219846,6.43834803098505,0.0));
#151=CARTESIAN_POINT('',(12.6920566522241,5.78994905917081,0.0));
#152=CARTESIAN_POINT('',(12.6010690284449,5.14051617484361,0.0));
#153=CARTESIAN_POINT('',(12.4425653223299,4.50051489320527,0.0));
#154=CARTESIAN_POINT('',(12.2185435638709,3.88040255089158,0.0));
#155=CARTESIAN_POINT('',(11.9331561434464,3.28998249772082,0.0));
#156=CARTESIAN_POINT('',(11.5923389174463,2.73787522028431,0.0));
#157=CARTESIAN_POINT('',(11.2037038746661,2.2312555290361,0.0));
#158=CARTESIAN_POINT('',(10.77529798514,1.77513924970641,0.0));
#159=CARTESIAN_POINT('',(10.3173717539449,1.37365631152729,0.0));
#160=CARTESIAN_POINT('',(9.83499304103198,1.02590904426855,0.0));
#161=CARTESIAN_POINT('',(9.34796347201409,0.738515920089656,0.0));
#162=CARTESIAN_POINT('',(8.8383279942947,0.4934357517568,0.0));
#163=CARTESIAN_POINT('',(8.28110866379942,0.285772558008082,0.0));
#164=CARTESIAN_POINT('',(7.69281482618933,0.128307184970232,0.0));
#165=CARTESIAN_POINT('',(7.07551752626324,0.0257512984505688,0.0));
#166=CARTESIAN_POINT('',(6.4383480309847,-0.0156702219848874,0.0));
#167=CARTESIAN_POINT('',(5.7899490591709,0.00794334777601868,0.0));
#168=CARTESIAN_POINT('',(5.14051617484366,0.0989309715548767,0.0));
#169=CARTESIAN_POINT('',(4.50051489320507,0.257434677670481,0.0));
#170=CARTESIAN_POINT('',(3.88040255089209,0.481456436128265,0.0));
#171=CARTESIAN_POINT('',(3.28998249771954,0.766843856555739,0.0));
#172=CARTESIAN_POINT('',(2.73787522028781,1.10766108254788,0.0));
#173=CARTESIAN_POINT('',(2.2312555290259,1.4962961253507,0.0));
#174=CARTESIAN_POINT('',(1.77513924973677,1.92470201481002,0.0));
#175=CARTESIAN_POINT('',(1.37365631146672,2.38262824615489,0.0));
#176=CARTESIAN_POINT('',(1.02590904431313,2.86500695889458,0.0));
#177=CARTESIAN_POINT('',(0.738515920076839,3.35203652800599,0.0));
#178=CARTESIAN_POINT('',(0.493435751765667,3.86167200568905,0.0));
#179=CARTESIAN_POINT('',(0.285772558005014,4.4188913362062,0.0));
#180=CARTESIAN_POINT('',(0.0,0.0,0.0));
#181=CARTESIAN_POINT('',(6.35,6.35,0.0));
#182=CARTESIAN_POINT('',(6.34999999999999,6.34999999999999,-3.175));
#183=CARTESIAN_POINT('',(1.85987193946542,1.85987193946542,-3.175));
#184=CARTESIAN_POINT('',(6.35,5.81966991411009,-3.175));
#185=CARTESIAN_POINT('',(6.34999999999999,6.34999999999999,4.26685108753951E-15));
#186=CARTESIAN_POINT('',(0.749203702438264,3.35774652924942,4.26685108753951E-15));
#187=CARTESIAN_POINT('',(6.34999999999999,6.34999999999999,4.26685108753951E-15));
#188=CARTESIAN_POINT('',(6.34999999999999,6.34999999999999,4.33680868994202E-15));
#189=MECHANICAL_DESIGN_GEOMETRIC_PRESENTATION_REPRESENTATION('',(#68,#69,#70,#71),
     #190);
#190=(GEOMETRIC_REPRESENTATION_CONTEXT(3)GLOBAL_UNCERTAINTY_ASSIGNED_CONTEXT((#191))
     GLOBAL_UNIT_ASSIGNED_CONTEXT((#197,#193,#192))REPRESENTATION_CONTEXT('RNGN120300',
     'TOP_LEVEL_ASSEMBLY_PART'));
#191=UNCERTAINTY_MEASURE_WITH_UNIT(LENGTH_MEASURE(2.0E-5),#197,'DISTANCE_ACCURACY_VALUE',
     'Maximum Tolerance applied to model');
#192=(NAMED_UNIT(*)SI_UNIT($,.STERADIAN.)SOLID_ANGLE_UNIT());
#193=(CONVERSION_BASED_UNIT('DEGREE',#195)NAMED_UNIT(#194)PLANE_ANGLE_UNIT());
#194=DIMENSIONAL_EXPONENTS(0.0,0.0,0.0,0.0,0.0,0.0,0.0);
#195=PLANE_ANGLE_MEASURE_WITH_UNIT(PLANE_ANGLE_MEASURE(0.0174532925),#196);
#196=(NAMED_UNIT(*)PLANE_ANGLE_UNIT()SI_UNIT($,.RADIAN.));
#197=(LENGTH_UNIT()NAMED_UNIT(*)SI_UNIT(.MILLI.,.METRE.));
#198=CONSTRUCTIVE_GEOMETRY_REPRESENTATION('supplemental geometry',(#85,#86),#190);
#199=CONSTRUCTIVE_GEOMETRY_REPRESENTATION_RELATIONSHIP('supplemental geometry','contains PCS and MCS coordinate systems',
     #24,#198);
ENDSEC;
END-ISO-10303-21;
