ISO-10303-21;
HEADER;
FILE_DESCRIPTION(
/* description */ (''),
/* implementation_level */ '2;1');
FILE_NAME(
/* name */ 'DNGQ150712.stp',
/* time_stamp */ '2017-03-21T10:54:10',
/* author */ ('Sandvik Coromant R&D'),
/* organization */ ('Sandvik Machining Solutions'),
/* preprocessor_version */ 'ST-DEVELOPER v15',
/* originating_system */ 'SIEMENS PLM Software NX v8.5.3.3(64 bits)',
/* authorization */ '');
FILE_SCHEMA(('AUTOMOTIVE_DESIGN'));
ENDSEC;
DATA;
#10=GEOMETRICALLY_BOUNDED_WIREFRAME_SHAPE_REPRESENTATION('IsoTurningInsert-None',
     (#25),#467);
#11=SHAPE_REPRESENTATION_RELATIONSHIP('None','relationship between IsoTurningInsert-None and IsoTurningInsert-None',
     #24,#13);
#12=SHAPE_REPRESENTATION_RELATIONSHIP('None','relationship between IsoTurningInsert-None and IsoTurningInsert-None',
     #24,#10);
#13=ADVANCED_BREP_SHAPE_REPRESENTATION('IsoTurningInsert-None',(#31),#467);
#14=SHAPE_DEFINITION_REPRESENTATION(#15,#24);
#15=PRODUCT_DEFINITION_SHAPE('','',#16);
#16=PRODUCT_DEFINITION(' ','',#18,#17);
#17=PRODUCT_DEFINITION_CONTEXT('part definition',#23,'design');
#18=PRODUCT_DEFINITION_FORMATION_WITH_SPECIFIED_SOURCE(' ',' ',#20,.NOT_KNOWN.);
#19=PRODUCT_RELATED_PRODUCT_CATEGORY('part','',(#20));
#20=PRODUCT('IsoTurningInsert','IsoTurningInsert',' ',(#21));
#21=PRODUCT_CONTEXT(' ',#23,'mechanical');
#22=APPLICATION_PROTOCOL_DEFINITION('international standard','automotive_design',
     2010,#23);
#23=APPLICATION_CONTEXT('core data for automotive mechanical design processes');
#24=SHAPE_REPRESENTATION('IsoTurningInsert-None',(#248),#467);
#25=GEOMETRIC_CURVE_SET('geometric curve set',(#228));
#26=SURFACE_STYLE_USAGE(.BOTH.,#27);
#27=SURFACE_SIDE_STYLE('',(#28));
#28=SURFACE_STYLE_FILL_AREA(#29);
#29=FILL_AREA_STYLE('',(#30));
#30=FILL_AREA_STYLE_COLOUR('',#247);
#31=MANIFOLD_SOLID_BREP('CUT',#32);
#32=CLOSED_SHELL('',(#46,#47,#48,#49,#50,#51,#52,#53,#54,#55,#56));
#33=CYLINDRICAL_SURFACE('',#267,1.190625);
#34=CYLINDRICAL_SURFACE('',#268,1.190625);
#35=CYLINDRICAL_SURFACE('',#269,1.190625);
#36=CYLINDRICAL_SURFACE('',#270,1.190625);
#37=CYLINDRICAL_SURFACE('',#271,2.578);
#38=FACE_OUTER_BOUND('',#103,.T.);
#39=FACE_OUTER_BOUND('',#104,.T.);
#40=FACE_OUTER_BOUND('',#105,.T.);
#41=FACE_OUTER_BOUND('',#106,.T.);
#42=FACE_OUTER_BOUND('',#109,.T.);
#43=FACE_OUTER_BOUND('',#110,.T.);
#44=FACE_OUTER_BOUND('',#111,.T.);
#45=FACE_OUTER_BOUND('',#112,.T.);
#46=ADVANCED_FACE('',(#95,#96),#57,.F.);
#47=ADVANCED_FACE('',(#38),#58,.T.);
#48=ADVANCED_FACE('',(#39),#59,.T.);
#49=ADVANCED_FACE('',(#40),#60,.T.);
#50=ADVANCED_FACE('',(#41),#61,.T.);
#51=ADVANCED_FACE('',(#97,#98),#62,.T.);
#52=ADVANCED_FACE('',(#42),#33,.T.);
#53=ADVANCED_FACE('',(#43),#34,.T.);
#54=ADVANCED_FACE('',(#44),#35,.T.);
#55=ADVANCED_FACE('',(#45),#36,.T.);
#56=ADVANCED_FACE('',(#99,#100),#37,.F.);
#57=PLANE('',#256);
#58=PLANE('',#257);
#59=PLANE('',#258);
#60=PLANE('',#259);
#61=PLANE('',#260);
#62=PLANE('',#266);
#63=LINE('',#413,#79);
#64=LINE('',#418,#80);
#65=LINE('',#422,#81);
#66=LINE('',#426,#82);
#67=LINE('',#430,#83);
#68=LINE('',#433,#84);
#69=LINE('',#434,#85);
#70=LINE('',#436,#86);
#71=LINE('',#438,#87);
#72=LINE('',#440,#88);
#73=LINE('',#442,#89);
#74=LINE('',#444,#90);
#75=LINE('',#446,#91);
#76=LINE('',#448,#92);
#77=LINE('',#450,#93);
#78=LINE('',#452,#94);
#79=VECTOR('',#280,1.0);
#80=VECTOR('',#283,1.0);
#81=VECTOR('',#286,1.0);
#82=VECTOR('',#289,1.0);
#83=VECTOR('',#294,1.0);
#84=VECTOR('',#295,1.0);
#85=VECTOR('',#296,1.0);
#86=VECTOR('',#299,1.0);
#87=VECTOR('',#300,1.0);
#88=VECTOR('',#301,1.0);
#89=VECTOR('',#304,1.0);
#90=VECTOR('',#305,1.0);
#91=VECTOR('',#306,1.0);
#92=VECTOR('',#309,1.0);
#93=VECTOR('',#310,1.0);
#94=VECTOR('',#311,1.0);
#95=FACE_BOUND('',#101,.T.);
#96=FACE_BOUND('',#102,.T.);
#97=FACE_BOUND('',#107,.T.);
#98=FACE_BOUND('',#108,.T.);
#99=FACE_BOUND('',#113,.T.);
#100=FACE_BOUND('',#114,.T.);
#101=EDGE_LOOP('',(#115));
#102=EDGE_LOOP('',(#116,#117,#118,#119,#120,#121,#122,#123));
#103=EDGE_LOOP('',(#124,#125,#126,#127));
#104=EDGE_LOOP('',(#128,#129,#130,#131));
#105=EDGE_LOOP('',(#132,#133,#134,#135));
#106=EDGE_LOOP('',(#136,#137,#138,#139));
#107=EDGE_LOOP('',(#140));
#108=EDGE_LOOP('',(#141,#142,#143,#144,#145,#146,#147,#148));
#109=EDGE_LOOP('',(#149,#150,#151,#152));
#110=EDGE_LOOP('',(#153,#154,#155,#156));
#111=EDGE_LOOP('',(#157,#158,#159,#160));
#112=EDGE_LOOP('',(#161,#162,#163,#164));
#113=EDGE_LOOP('',(#165));
#114=EDGE_LOOP('',(#166));
#115=ORIENTED_EDGE('',*,*,#185,.T.);
#116=ORIENTED_EDGE('',*,*,#186,.T.);
#117=ORIENTED_EDGE('',*,*,#187,.T.);
#118=ORIENTED_EDGE('',*,*,#188,.T.);
#119=ORIENTED_EDGE('',*,*,#189,.T.);
#120=ORIENTED_EDGE('',*,*,#190,.T.);
#121=ORIENTED_EDGE('',*,*,#191,.T.);
#122=ORIENTED_EDGE('',*,*,#192,.T.);
#123=ORIENTED_EDGE('',*,*,#193,.T.);
#124=ORIENTED_EDGE('',*,*,#194,.F.);
#125=ORIENTED_EDGE('',*,*,#195,.T.);
#126=ORIENTED_EDGE('',*,*,#186,.F.);
#127=ORIENTED_EDGE('',*,*,#196,.T.);
#128=ORIENTED_EDGE('',*,*,#192,.F.);
#129=ORIENTED_EDGE('',*,*,#197,.T.);
#130=ORIENTED_EDGE('',*,*,#198,.F.);
#131=ORIENTED_EDGE('',*,*,#199,.T.);
#132=ORIENTED_EDGE('',*,*,#190,.F.);
#133=ORIENTED_EDGE('',*,*,#200,.T.);
#134=ORIENTED_EDGE('',*,*,#201,.F.);
#135=ORIENTED_EDGE('',*,*,#202,.T.);
#136=ORIENTED_EDGE('',*,*,#188,.F.);
#137=ORIENTED_EDGE('',*,*,#203,.T.);
#138=ORIENTED_EDGE('',*,*,#204,.F.);
#139=ORIENTED_EDGE('',*,*,#205,.T.);
#140=ORIENTED_EDGE('',*,*,#206,.F.);
#141=ORIENTED_EDGE('',*,*,#204,.T.);
#142=ORIENTED_EDGE('',*,*,#207,.T.);
#143=ORIENTED_EDGE('',*,*,#194,.T.);
#144=ORIENTED_EDGE('',*,*,#208,.T.);
#145=ORIENTED_EDGE('',*,*,#198,.T.);
#146=ORIENTED_EDGE('',*,*,#209,.T.);
#147=ORIENTED_EDGE('',*,*,#201,.T.);
#148=ORIENTED_EDGE('',*,*,#210,.T.);
#149=ORIENTED_EDGE('',*,*,#187,.F.);
#150=ORIENTED_EDGE('',*,*,#195,.F.);
#151=ORIENTED_EDGE('',*,*,#207,.F.);
#152=ORIENTED_EDGE('',*,*,#203,.F.);
#153=ORIENTED_EDGE('',*,*,#189,.F.);
#154=ORIENTED_EDGE('',*,*,#205,.F.);
#155=ORIENTED_EDGE('',*,*,#210,.F.);
#156=ORIENTED_EDGE('',*,*,#200,.F.);
#157=ORIENTED_EDGE('',*,*,#191,.F.);
#158=ORIENTED_EDGE('',*,*,#202,.F.);
#159=ORIENTED_EDGE('',*,*,#209,.F.);
#160=ORIENTED_EDGE('',*,*,#197,.F.);
#161=ORIENTED_EDGE('',*,*,#193,.F.);
#162=ORIENTED_EDGE('',*,*,#199,.F.);
#163=ORIENTED_EDGE('',*,*,#208,.F.);
#164=ORIENTED_EDGE('',*,*,#196,.F.);
#165=ORIENTED_EDGE('',*,*,#185,.F.);
#166=ORIENTED_EDGE('',*,*,#206,.T.);
#167=VERTEX_POINT('',#412);
#168=VERTEX_POINT('',#414);
#169=VERTEX_POINT('',#415);
#170=VERTEX_POINT('',#417);
#171=VERTEX_POINT('',#419);
#172=VERTEX_POINT('',#421);
#173=VERTEX_POINT('',#423);
#174=VERTEX_POINT('',#425);
#175=VERTEX_POINT('',#427);
#176=VERTEX_POINT('',#431);
#177=VERTEX_POINT('',#432);
#178=VERTEX_POINT('',#437);
#179=VERTEX_POINT('',#439);
#180=VERTEX_POINT('',#443);
#181=VERTEX_POINT('',#445);
#182=VERTEX_POINT('',#449);
#183=VERTEX_POINT('',#451);
#184=VERTEX_POINT('',#455);
#185=EDGE_CURVE('',#167,#167,#211,.T.);
#186=EDGE_CURVE('',#168,#169,#63,.T.);
#187=EDGE_CURVE('',#169,#170,#212,.T.);
#188=EDGE_CURVE('',#170,#171,#64,.T.);
#189=EDGE_CURVE('',#171,#172,#213,.T.);
#190=EDGE_CURVE('',#172,#173,#65,.T.);
#191=EDGE_CURVE('',#173,#174,#214,.T.);
#192=EDGE_CURVE('',#174,#175,#66,.T.);
#193=EDGE_CURVE('',#175,#168,#215,.T.);
#194=EDGE_CURVE('',#176,#177,#67,.T.);
#195=EDGE_CURVE('',#176,#169,#68,.T.);
#196=EDGE_CURVE('',#168,#177,#69,.T.);
#197=EDGE_CURVE('',#174,#178,#70,.T.);
#198=EDGE_CURVE('',#179,#178,#71,.T.);
#199=EDGE_CURVE('',#179,#175,#72,.T.);
#200=EDGE_CURVE('',#172,#180,#73,.T.);
#201=EDGE_CURVE('',#181,#180,#74,.T.);
#202=EDGE_CURVE('',#181,#173,#75,.T.);
#203=EDGE_CURVE('',#170,#182,#76,.T.);
#204=EDGE_CURVE('',#183,#182,#77,.T.);
#205=EDGE_CURVE('',#183,#171,#78,.T.);
#206=EDGE_CURVE('',#184,#184,#216,.T.);
#207=EDGE_CURVE('',#182,#176,#217,.T.);
#208=EDGE_CURVE('',#177,#179,#218,.T.);
#209=EDGE_CURVE('',#178,#181,#219,.T.);
#210=EDGE_CURVE('',#180,#183,#220,.T.);
#211=CIRCLE('',#251,2.578);
#212=CIRCLE('',#252,1.190625);
#213=CIRCLE('',#253,1.190625);
#214=CIRCLE('',#254,1.190625);
#215=CIRCLE('',#255,1.190625);
#216=CIRCLE('',#261,2.578);
#217=CIRCLE('',#262,1.190625);
#218=CIRCLE('',#263,1.190625);
#219=CIRCLE('',#264,1.190625);
#220=CIRCLE('',#265,1.190625);
#221=CURVE_STYLE('',#225,POSITIVE_LENGTH_MEASURE(0.18),#224);
#222=CURVE_STYLE('',#226,POSITIVE_LENGTH_MEASURE(0.18),#246);
#223=CURVE_STYLE('',#227,POSITIVE_LENGTH_MEASURE(0.18),#246);
#224=DRAUGHTING_PRE_DEFINED_COLOUR('blue');
#225=DRAUGHTING_PRE_DEFINED_CURVE_FONT('continuous');
#226=DRAUGHTING_PRE_DEFINED_CURVE_FONT('continuous');
#227=DRAUGHTING_PRE_DEFINED_CURVE_FONT('continuous');
#228=B_SPLINE_CURVE_WITH_KNOTS('CUTTING EDGE LINE',5,(#339,#340,#341,#342,#343,#344,
     #345,#346,#347,#348,#349,#350,#351,#352,#353,#354,#355,#356,#357,#358,#359,
     #360,#361,#362,#363,#364,#365,#366,#367,#368,#369,#370,#371,#372,#373,#374,
     #375,#376,#377,#378,#379,#380,#381,#382,#383,#384,#385,#386,#387,#388,#389,
     #390,#391,#392,#393,#394,#395,#396,#397,#398,#399,#400,#401,#402,#403,#404,
     #405,#406,#407,#408),.UNSPECIFIED.,.T.,.F.,(2,4,1,1,1,4,4,1,1,1,1,1,1,1,1,1,
     1,1,1,1,1,1,4,4,1,1,1,4,4,1,1,1,1,1,1,1,1,1,1,1,1,1,1,1,4,4,1,1),(-0.2176813297,
     0.0,0.004937574625,0.00987514925000255,0.014812723875,0.0197502985,0.2374316281,
     0.2402370682375,0.243042508375,0.2458479485125,0.248653388650009,0.2514588287875,
     0.254264268925,0.2570697090625,0.2598751492,0.2626805893375,0.265486029475,
     0.2682914696125,0.271096909750007,0.2739023498875,0.276707790025,0.2795132301625,
     0.2823186703,0.5,0.504937574625,0.509875149250003,0.514812723875,0.5197502985,
     0.7374316281,0.7402370682375,0.743042508375,0.7458479485125,0.748653388650009,
     0.7514588287875,0.754264268925,0.7570697090625,0.7598751492,0.7626805893375,
     0.765486029475,0.7682914696125,0.771096909750027,0.7739023498875,0.776707790025,
     0.7795132301625,0.7823186703,1.0,1.004937574625,1.00987514925),.UNSPECIFIED.);
#229=PRESENTATION_LAYER_ASSIGNMENT('1','Layer 1',(#228,#249,#250,#31));
#232=STYLED_ITEM('',(#238),#228);
#233=STYLED_ITEM('',(#239),#249);
#234=STYLED_ITEM('',(#240),#250);
#235=STYLED_ITEM('',(#241),#31);
#236=PRESENTATION_STYLE_ASSIGNMENT((#242));
#237=PRESENTATION_STYLE_ASSIGNMENT((#243));
#238=PRESENTATION_STYLE_ASSIGNMENT((#221));
#239=PRESENTATION_STYLE_ASSIGNMENT((#222));
#240=PRESENTATION_STYLE_ASSIGNMENT((#223));
#241=PRESENTATION_STYLE_ASSIGNMENT((#26));
#242=POINT_STYLE('',#244,POSITIVE_LENGTH_MEASURE(3.0),#246);
#243=POINT_STYLE('',#245,POSITIVE_LENGTH_MEASURE(3.0),#246);
#244=PRE_DEFINED_POINT_MARKER_SYMBOL('plus');
#245=PRE_DEFINED_POINT_MARKER_SYMBOL('plus');
#246=COLOUR_RGB('Medium Maroon',0.6,0.4,0.4);
#247=COLOUR_RGB('IsoInsertColor',0.8,0.8,0.8);
#248=AXIS2_PLACEMENT_3D('',#336,#272,#273);
#249=AXIS2_PLACEMENT_3D('PCS',#409,#274,#275);
#250=AXIS2_PLACEMENT_3D('MCS',#410,#276,#277);
#251=AXIS2_PLACEMENT_3D('',#411,#278,#279);
#252=AXIS2_PLACEMENT_3D('',#416,#281,#282);
#253=AXIS2_PLACEMENT_3D('',#420,#284,#285);
#254=AXIS2_PLACEMENT_3D('',#424,#287,#288);
#255=AXIS2_PLACEMENT_3D('',#428,#290,#291);
#256=AXIS2_PLACEMENT_3D('',#429,#292,#293);
#257=AXIS2_PLACEMENT_3D('',#435,#297,#298);
#258=AXIS2_PLACEMENT_3D('',#441,#302,#303);
#259=AXIS2_PLACEMENT_3D('',#447,#307,#308);
#260=AXIS2_PLACEMENT_3D('',#453,#312,#313);
#261=AXIS2_PLACEMENT_3D('',#454,#314,#315);
#262=AXIS2_PLACEMENT_3D('',#456,#316,#317);
#263=AXIS2_PLACEMENT_3D('',#457,#318,#319);
#264=AXIS2_PLACEMENT_3D('',#458,#320,#321);
#265=AXIS2_PLACEMENT_3D('',#459,#322,#323);
#266=AXIS2_PLACEMENT_3D('',#460,#324,#325);
#267=AXIS2_PLACEMENT_3D('',#461,#326,#327);
#268=AXIS2_PLACEMENT_3D('',#462,#328,#329);
#269=AXIS2_PLACEMENT_3D('',#463,#330,#331);
#270=AXIS2_PLACEMENT_3D('',#464,#332,#333);
#271=AXIS2_PLACEMENT_3D('',#465,#334,#335);
#272=DIRECTION('',(0.0,0.0,1.0));
#273=DIRECTION('',(1.0,0.0,0.0));
#274=DIRECTION('',(0.0,0.0,1.0));
#275=DIRECTION('',(1.0,0.0,0.0));
#276=DIRECTION('',(0.0,0.0,1.0));
#277=DIRECTION('',(1.0,0.0,0.0));
#278=DIRECTION('',(0.0,0.0,1.0));
#279=DIRECTION('',(-0.887010833178222,-0.461748613235034,0.0));
#280=DIRECTION('',(1.0,-1.66533453693773E-16,0.0));
#281=DIRECTION('',(0.0,0.0,-1.0));
#282=DIRECTION('',(-0.887010833178223,-0.461748613235033,0.0));
#283=DIRECTION('',(-0.573576436351046,-0.819152044288992,0.0));
#284=DIRECTION('',(0.0,0.0,-1.0));
#285=DIRECTION('',(-0.887010833178221,-0.461748613235034,0.0));
#286=DIRECTION('',(-1.0,1.66533453693773E-16,0.0));
#287=DIRECTION('',(0.0,0.0,-1.0));
#288=DIRECTION('',(-0.887010833178222,-0.461748613235034,0.0));
#289=DIRECTION('',(0.573576436351046,0.819152044288992,0.0));
#290=DIRECTION('',(0.0,0.0,-1.0));
#291=DIRECTION('',(-0.887010833178221,-0.461748613235033,0.0));
#292=DIRECTION('',(0.0,0.0,1.0));
#293=DIRECTION('',(-0.887010833178222,-0.461748613235034,0.0));
#294=DIRECTION('',(-1.0,1.66533453693773E-16,-8.59314765579595E-17));
#295=DIRECTION('',(8.59314765579594E-17,-4.28422977201317E-16,-1.0));
#296=DIRECTION('',(-8.59314765579594E-17,4.28422977201317E-16,1.0));
#297=DIRECTION('',(1.66533453693773E-16,1.0,-4.28422977201317E-16));
#298=DIRECTION('',(-1.0,1.66533453693773E-16,0.0));
#299=DIRECTION('',(-8.59314765579595E-17,4.28422977201317E-16,1.0));
#300=DIRECTION('',(-0.573576436351046,-0.819152044288992,3.01655287500337E-16));
#301=DIRECTION('',(8.59314765579595E-17,-4.28422977201317E-16,-1.0));
#302=DIRECTION('',(-0.819152044288992,0.573576436351046,-3.16124269205261E-16));
#303=DIRECTION('',(-0.573576436351046,-0.819152044288992,0.0));
#304=DIRECTION('',(-8.59314765579594E-17,4.28422977201317E-16,1.0));
#305=DIRECTION('',(1.0,-1.66533453693773E-16,8.59314765579595E-17));
#306=DIRECTION('',(8.59314765579594E-17,-4.28422977201317E-16,-1.0));
#307=DIRECTION('',(-1.66533453693773E-16,-1.0,4.28422977201317E-16));
#308=DIRECTION('',(1.0,-1.66533453693773E-16,0.0));
#309=DIRECTION('',(-8.59314765579594E-17,4.28422977201317E-16,1.0));
#310=DIRECTION('',(0.573576436351046,0.819152044288992,-3.01655287500337E-16));
#311=DIRECTION('',(8.59314765579594E-17,-4.28422977201317E-16,-1.0));
#312=DIRECTION('',(0.819152044288992,-0.573576436351046,3.16124269205261E-16));
#313=DIRECTION('',(0.573576436351046,0.819152044288992,0.0));
#314=DIRECTION('',(0.0,0.0,1.0));
#315=DIRECTION('',(-0.887010833178222,-0.461748613235034,0.0));
#316=DIRECTION('',(-8.59314765579594E-17,4.28422977201317E-16,1.0));
#317=DIRECTION('',(-0.461748613235035,0.887010833178221,-4.19694562093911E-16));
#318=DIRECTION('',(-8.59314765579594E-17,4.28422977201317E-16,1.0));
#319=DIRECTION('',(-0.461748613235033,0.887010833178221,-4.19694562093911E-16));
#320=DIRECTION('',(-8.59314765579594E-17,4.28422977201317E-16,1.0));
#321=DIRECTION('',(-0.461748613235034,0.887010833178222,-4.19694562093911E-16));
#322=DIRECTION('',(-8.59314765579594E-17,4.28422977201317E-16,1.0));
#323=DIRECTION('',(-0.461748613235033,0.887010833178222,-4.19694562093911E-16));
#324=DIRECTION('',(-8.59314765579594E-17,4.28422977201317E-16,1.0));
#325=DIRECTION('',(-0.461748613235034,0.887010833178222,-4.19694562093911E-16));
#326=DIRECTION('',(-8.59314765579594E-17,4.28422977201317E-16,1.0));
#327=DIRECTION('',(-0.461748613235035,0.887010833178221,-4.19694562093911E-16));
#328=DIRECTION('',(-8.59314765579594E-17,4.28422977201317E-16,1.0));
#329=DIRECTION('',(-0.461748613235033,0.887010833178222,-4.19694562093911E-16));
#330=DIRECTION('',(-8.59314765579594E-17,4.28422977201317E-16,1.0));
#331=DIRECTION('',(-0.461748613235034,0.887010833178222,-4.19694562093911E-16));
#332=DIRECTION('',(-8.59314765579594E-17,4.28422977201317E-16,1.0));
#333=DIRECTION('',(-0.461748613235033,0.887010833178221,-4.19694562093911E-16));
#334=DIRECTION('',(0.0,0.0,1.0));
#335=DIRECTION('',(-0.887010833178222,-0.461748613235034,0.0));
#336=CARTESIAN_POINT('',(0.0,0.0,0.0));
#339=CARTESIAN_POINT('',(12.3646635751509,-1.77635683940025E-15,-8.87468518373638E-32));
#340=CARTESIAN_POINT('',(14.9390140769706,-4.44089209850063E-15,5.14815357227508E-16));
#341=CARTESIAN_POINT('',(15.0489679654972,0.00634638194337356,5.21544921375254E-16));
#342=CARTESIAN_POINT('',(15.2220108648995,0.0357630268550633,5.23990656542583E-16));
#343=CARTESIAN_POINT('',(15.4417592212522,0.119250836088415,5.02565370700467E-16));
#344=CARTESIAN_POINT('',(15.6361909099896,0.251371511324978,4.32976939318795E-16));
#345=CARTESIAN_POINT('',(15.7595409443801,0.376247261762228,3.29895518443527E-16));
#346=CARTESIAN_POINT('',(15.8278065556669,0.462676079187489,2.40288986775852E-16));
#347=CARTESIAN_POINT('',(17.3043933424192,2.57146055546953,3.76385458022513E-17));
#348=CARTESIAN_POINT('',(18.7494466493995,4.63521055546953,7.39557098644699E-32));
#349=CARTESIAN_POINT('',(20.1944999563798,6.69896055546953,1.18329135783152E-31));
#350=CARTESIAN_POINT('',(21.63955326336,8.76271055546953,3.76385458022515E-17));
#351=CARTESIAN_POINT('',(23.102320457912,10.8517586086967,1.97695915146017E-16));
#352=CARTESIAN_POINT('',(23.1361077388682,10.9035034015473,2.12149753833881E-16));
#353=CARTESIAN_POINT('',(23.1835965152072,10.9874198410276,2.22338612697888E-16));
#354=CARTESIAN_POINT('',(23.2352940802102,11.1056480490292,2.14687718675993E-16));
#355=CARTESIAN_POINT('',(23.2806601139975,11.2654804021898,1.79788150362852E-16));
#356=CARTESIAN_POINT('',(23.3032154042949,11.4310297254489,1.26477650490754E-16));
#357=CARTESIAN_POINT('',(23.3023947060953,11.5985498931516,6.18065186455473E-17));
#358=CARTESIAN_POINT('',(23.278597684681,11.7621303037246,-8.0274592771599E-18));
#359=CARTESIAN_POINT('',(23.2329640276691,11.9189439495084,-7.88707397769737E-17));
#360=CARTESIAN_POINT('',(23.1697486958463,12.0614077406274,-1.45370864545044E-16));
#361=CARTESIAN_POINT('',(23.0893080148751,12.1949045825191,-2.09544602753005E-16));
#362=CARTESIAN_POINT('',(22.9870281867155,12.3222300980857,-2.72520171881127E-16));
#363=CARTESIAN_POINT('',(22.8666803697317,12.4355493457712,-3.2830731833452E-16));
#364=CARTESIAN_POINT('',(22.7299266150452,12.5323072431901,-3.71794931014909E-16));
#365=CARTESIAN_POINT('',(22.581379365438,12.6087862219073,-3.96080624587507E-16));
#366=CARTESIAN_POINT('',(22.4244314786116,12.6633006141293,-3.92701702509341E-16));
#367=CARTESIAN_POINT('',(22.2979320952323,12.6887653622937,-3.62226149390234E-16));
#368=CARTESIAN_POINT('',(22.2019533291833,12.6979973263832,-3.17427940262701E-16));
#369=CARTESIAN_POINT('',(22.1401868881336,12.7,-2.77896268236108E-16));
#370=CARTESIAN_POINT('',(19.5899301100523,12.7,-5.10091107230317E-17));
#371=CARTESIAN_POINT('',(17.0705565524958,12.7,-1.97215226305253E-32));
#372=CARTESIAN_POINT('',(14.5511829949394,12.7,-1.57772181044202E-31));
#373=CARTESIAN_POINT('',(12.0318094373829,12.7,-5.1009110723032E-17));
#374=CARTESIAN_POINT('',(9.45745893556318,12.7,-3.07897175874923E-16));
#375=CARTESIAN_POINT('',(9.34750504703656,12.6936536180566,-3.93832970565133E-16));
#376=CARTESIAN_POINT('',(9.17446214763426,12.6642369731449,-4.77838744667605E-16));
#377=CARTESIAN_POINT('',(8.95471379128164,12.5807491639116,-4.96654074200728E-16));
#378=CARTESIAN_POINT('',(8.76028210254424,12.448628488675,-4.33219079200452E-16));
#379=CARTESIAN_POINT('',(8.63693206815366,12.3237527382378,-3.29895518443527E-16));
#380=CARTESIAN_POINT('',(8.56866645686691,12.2373239208125,-2.40288986775853E-16));
#381=CARTESIAN_POINT('',(7.09207967011461,10.1285394445305,-3.76385458022514E-17));
#382=CARTESIAN_POINT('',(5.64702636313432,8.06478944453046,9.86076131526265E-33));
#383=CARTESIAN_POINT('',(4.20197305615403,6.00103944453046,-7.88860905221012E-32));
#384=CARTESIAN_POINT('',(2.75691974917374,3.93728944453046,-3.76385458022513E-17));
#385=CARTESIAN_POINT('',(1.29415255462176,1.84824139130329,-1.97695915146017E-16));
#386=CARTESIAN_POINT('',(1.26036527366558,1.79649659845265,-2.12149753833881E-16));
#387=CARTESIAN_POINT('',(1.21287649732656,1.71258015897235,-2.22338612697887E-16));
#388=CARTESIAN_POINT('',(1.16117893232353,1.59435195097078,-2.14687718675992E-16));
#389=CARTESIAN_POINT('',(1.11581289853628,1.43451959781022,-1.79788150362852E-16));
#390=CARTESIAN_POINT('',(1.09325760823889,1.26897027455111,-1.26477650490754E-16));
#391=CARTESIAN_POINT('',(1.09407830643849,1.10145010684838,-6.18065186455466E-17));
#392=CARTESIAN_POINT('',(1.11787532785278,0.937869696275373,8.02745927716005E-18));
#393=CARTESIAN_POINT('',(1.16350898486466,0.781056050491547,7.88707397769739E-17));
#394=CARTESIAN_POINT('',(1.22672431668752,0.638592259372597,1.45370864545044E-16));
#395=CARTESIAN_POINT('',(1.30716499765872,0.505095417480906,2.09544602753005E-16));
#396=CARTESIAN_POINT('',(1.40944482581844,0.377769901914164,2.72520171881215E-16));
#397=CARTESIAN_POINT('',(1.52979264280223,0.264450654228606,3.28307318334598E-16));
#398=CARTESIAN_POINT('',(1.66654639748875,0.167692756809807,3.71794931014957E-16));
#399=CARTESIAN_POINT('',(1.81509364709597,0.0912137780925626,3.96080624587517E-16));
#400=CARTESIAN_POINT('',(1.97204153392244,0.0366993858706852,3.92701702509286E-16));
#401=CARTESIAN_POINT('',(2.09854091730143,0.0112346377063099,3.62226149390234E-16));
#402=CARTESIAN_POINT('',(2.19451968335042,0.00200267361676953,3.17427940262701E-16));
#403=CARTESIAN_POINT('',(2.25628612440016,-3.5527136788005E-15,2.77896268236108E-16));
#404=CARTESIAN_POINT('',(4.80654290248149,-1.77635683940025E-15,5.10091107230318E-17));
#405=CARTESIAN_POINT('',(7.32591646003795,-8.88178419700125E-16,-4.93038065763132E-32));
#406=CARTESIAN_POINT('',(9.84529001759441,0.0,-1.28189897098414E-31));
#407=CARTESIAN_POINT('',(12.3646635751509,-1.77635683940025E-15,-8.87468518373638E-32));
#408=CARTESIAN_POINT('',(14.9390140769706,-4.44089209850063E-15,5.14815357227508E-16));
#409=CARTESIAN_POINT('',(0.0,0.0,0.0));
#410=CARTESIAN_POINT('',(12.1982365062669,6.35,0.0));
#411=CARTESIAN_POINT('',(12.1982365062669,6.35,-7.9375));
#412=CARTESIAN_POINT('',(9.91152257833345,5.15961207508008,-7.9375));
#413=CARTESIAN_POINT('',(12.1982365062669,12.7,-7.9375));
#414=CARTESIAN_POINT('',(9.51243587982648,12.7,-7.9375));
#415=CARTESIAN_POINT('',(22.1093036676087,12.7,-7.9375));
#416=CARTESIAN_POINT('',(22.1093036676087,11.509375,-7.9375));
#417=CARTESIAN_POINT('',(23.0846065703403,10.8264605554695,-7.9375));
#418=CARTESIAN_POINT('',(17.399851987502,2.70778962917085,-7.9375));
#419=CARTESIAN_POINT('',(15.8593400354389,0.507710555469529,-7.9375));
#420=CARTESIAN_POINT('',(14.8840371327073,1.19062499999999,-7.9375));
#421=CARTESIAN_POINT('',(14.8840371327073,-6.93889390390723E-15,-7.9375));
#422=CARTESIAN_POINT('',(12.1982365062669,-6.07153216591882E-15,-7.9375));
#423=CARTESIAN_POINT('',(2.28716934492503,-6.07153216591882E-15,-7.9375));
#424=CARTESIAN_POINT('',(2.28716934492504,1.19062499999999,-7.9375));
#425=CARTESIAN_POINT('',(1.31186644219346,1.87353944453046,-7.9375));
#426=CARTESIAN_POINT('',(6.9966210250318,9.99221037082914,-7.9375));
#427=CARTESIAN_POINT('',(8.5371329770949,12.1922894445305,-7.9375));
#428=CARTESIAN_POINT('',(9.51243587982648,11.509375,-7.9375));
#429=CARTESIAN_POINT('',(12.0387631737882,5.84421520759503,-7.9375));
#430=CARTESIAN_POINT('',(12.1982365062669,12.7,-5.65390330310514E-15));
#431=CARTESIAN_POINT('',(22.1093036676087,12.7,-4.80223066766593E-15));
#432=CARTESIAN_POINT('',(9.51243587982648,12.7,-5.88469811667546E-15));
#433=CARTESIAN_POINT('',(22.1093036676087,12.7,-5.20417042793042E-15));
#434=CARTESIAN_POINT('',(9.51243587982648,12.7,-6.93889390390723E-15));
#435=CARTESIAN_POINT('',(12.1982365062669,12.7,-5.65390330310514E-15));
#436=CARTESIAN_POINT('',(1.31186644219346,1.87353944453046,-1.73472347597681E-15));
#437=CARTESIAN_POINT('',(1.31186644219346,1.87353944453046,-1.95108069334046E-15));
#438=CARTESIAN_POINT('',(6.9966210250318,9.99221037082915,-4.94080650733019E-15));
#439=CARTESIAN_POINT('',(8.5371329770949,12.1922894445305,-5.75099246746766E-15));
#440=CARTESIAN_POINT('',(8.5371329770949,12.1922894445305,-6.93889390390723E-15));
#441=CARTESIAN_POINT('',(6.9966210250318,9.99221037082914,-4.94080650733019E-15));
#442=CARTESIAN_POINT('',(14.8840371327073,-3.46944695195361E-15,-9.62964972193618E-32));
#443=CARTESIAN_POINT('',(14.8840371327073,-3.46944695195361E-15,1.78633209218982E-17));
#444=CARTESIAN_POINT('',(12.1982365062669,-2.60208521396521E-15,-2.12931492648419E-16));
#445=CARTESIAN_POINT('',(2.28716934492504,-1.73472347597681E-15,-1.06460412808763E-15));
#446=CARTESIAN_POINT('',(2.28716934492504,-1.73472347597681E-15,-1.73472347597681E-15));
#447=CARTESIAN_POINT('',(12.1982365062669,-3.46944695195361E-15,-2.12931492648419E-16));
#448=CARTESIAN_POINT('',(23.0846065703403,10.8264605554695,-5.20417042793042E-15));
#449=CARTESIAN_POINT('',(23.0846065703403,10.8264605554695,-3.9157541024131E-15));
#450=CARTESIAN_POINT('',(17.399851987502,2.70778962917086,-9.26028288423377E-16));
#451=CARTESIAN_POINT('',(15.8593400354389,0.507710555469534,-1.15842328285906E-16));
#452=CARTESIAN_POINT('',(15.8593400354389,0.507710555469534,3.85185988877447E-31));
#453=CARTESIAN_POINT('',(17.399851987502,2.70778962917085,-9.26028288423375E-16));
#454=CARTESIAN_POINT('',(12.1982365062669,6.35,0.0));
#455=CARTESIAN_POINT('',(9.91152257833345,5.15961207508008,0.0));
#456=CARTESIAN_POINT('',(22.1093036676087,11.509375,-4.29213956043562E-15));
#457=CARTESIAN_POINT('',(9.51243587982648,11.509375,-5.37460700944514E-15));
#458=CARTESIAN_POINT('',(2.28716934492504,1.190625,-1.57469523531795E-15));
#459=CARTESIAN_POINT('',(14.8840371327073,1.190625,-4.9222778630842E-16));
#460=CARTESIAN_POINT('',(12.1982365062669,6.35,-2.93341739787678E-15));
#461=CARTESIAN_POINT('',(22.1093036676087,11.509375,-5.20417042793042E-15));
#462=CARTESIAN_POINT('',(14.8840371327073,1.190625,-1.73472347597681E-15));
#463=CARTESIAN_POINT('',(2.28716934492504,1.190625,-1.73472347597681E-15));
#464=CARTESIAN_POINT('',(9.51243587982648,11.509375,-5.20417042793042E-15));
#465=CARTESIAN_POINT('',(12.1982365062669,6.35,-33.3676978394524));
#466=MECHANICAL_DESIGN_GEOMETRIC_PRESENTATION_REPRESENTATION('',(#232,#233,#234,
     #235),#467);
#467=(GEOMETRIC_REPRESENTATION_CONTEXT(3)GLOBAL_UNCERTAINTY_ASSIGNED_CONTEXT((#468))
     GLOBAL_UNIT_ASSIGNED_CONTEXT((#474,#470,#469))REPRESENTATION_CONTEXT('DNGQ150712',
     'TOP_LEVEL_ASSEMBLY_PART'));
#468=UNCERTAINTY_MEASURE_WITH_UNIT(LENGTH_MEASURE(2.0E-5),#474,'DISTANCE_ACCURACY_VALUE',
     'Maximum Tolerance applied to model');
#469=(NAMED_UNIT(*)SI_UNIT($,.STERADIAN.)SOLID_ANGLE_UNIT());
#470=(CONVERSION_BASED_UNIT('DEGREE',#472)NAMED_UNIT(#471)PLANE_ANGLE_UNIT());
#471=DIMENSIONAL_EXPONENTS(0.0,0.0,0.0,0.0,0.0,0.0,0.0);
#472=PLANE_ANGLE_MEASURE_WITH_UNIT(PLANE_ANGLE_MEASURE(0.0174532925),#473);
#473=(NAMED_UNIT(*)PLANE_ANGLE_UNIT()SI_UNIT($,.RADIAN.));
#474=(LENGTH_UNIT()NAMED_UNIT(*)SI_UNIT(.MILLI.,.METRE.));
#475=CONSTRUCTIVE_GEOMETRY_REPRESENTATION('supplemental geometry',(#249,#250),#467);
#476=CONSTRUCTIVE_GEOMETRY_REPRESENTATION_RELATIONSHIP('supplemental geometry','contains PCS and MCS coordinate systems',
     #24,#475);
ENDSEC;
END-ISO-10303-21;
