ISO-10303-21;
HEADER;
FILE_DESCRIPTION(
/* description */ (''),
/* implementation_level */ '2;1');
FILE_NAME(
/* name */ 'CCMT160508.stp',
/* time_stamp */ '2017-03-21T10:53:51',
/* author */ ('Sandvik Coromant R&D'),
/* organization */ ('Sandvik Machining Solutions'),
/* preprocessor_version */ 'ST-DEVELOPER v15',
/* originating_system */ 'SIEMENS PLM Software NX v8.5.3.3(64 bits)',
/* authorization */ '');
FILE_SCHEMA(('AUTOMOTIVE_DESIGN'));
ENDSEC;
DATA;
#10=GEOMETRICALLY_BOUNDED_WIREFRAME_SHAPE_REPRESENTATION('IsoTurningInsert-None',
     (#25),#519);
#11=SHAPE_REPRESENTATION_RELATIONSHIP('None','relationship between IsoTurningInsert-None and IsoTurningInsert-None',
     #24,#13);
#12=SHAPE_REPRESENTATION_RELATIONSHIP('None','relationship between IsoTurningInsert-None and IsoTurningInsert-None',
     #24,#10);
#13=ADVANCED_BREP_SHAPE_REPRESENTATION('IsoTurningInsert-None',(#31),#519);
#14=SHAPE_DEFINITION_REPRESENTATION(#15,#24);
#15=PRODUCT_DEFINITION_SHAPE('','',#16);
#16=PRODUCT_DEFINITION(' ','',#18,#17);
#17=PRODUCT_DEFINITION_CONTEXT('part definition',#23,'design');
#18=PRODUCT_DEFINITION_FORMATION_WITH_SPECIFIED_SOURCE(' ',' ',#20,.NOT_KNOWN.);
#19=PRODUCT_RELATED_PRODUCT_CATEGORY('part','',(#20));
#20=PRODUCT('IsoTurningInsert','IsoTurningInsert',' ',(#21));
#21=PRODUCT_CONTEXT(' ',#23,'mechanical');
#22=APPLICATION_PROTOCOL_DEFINITION('international standard','automotive_design',
     2010,#23);
#23=APPLICATION_CONTEXT('core data for automotive mechanical design processes');
#24=SHAPE_REPRESENTATION('IsoTurningInsert-None',(#281),#519);
#25=GEOMETRIC_CURVE_SET('geometric curve set',(#261));
#26=SURFACE_STYLE_USAGE(.BOTH.,#27);
#27=SURFACE_SIDE_STYLE('',(#28));
#28=SURFACE_STYLE_FILL_AREA(#29);
#29=FILL_AREA_STYLE('',(#30));
#30=FILL_AREA_STYLE_COLOUR('',#280);
#31=MANIFOLD_SOLID_BREP('CUT',#32);
#32=CLOSED_SHELL('',(#49,#50,#51,#52,#53,#54,#55,#56,#57,#58,#59,#60,#61,#62));
#33=CYLINDRICAL_SURFACE('',#309,2.75);
#34=TOROIDAL_SURFACE('',#308,7.75,5.00000000000001);
#35=TOROIDAL_SURFACE('',#310,3.70770146243598,0.3);
#36=CONICAL_SURFACE('',#300,0.793749999999997,7.0);
#37=CONICAL_SURFACE('',#301,0.793749999999997,7.0);
#38=CONICAL_SURFACE('',#302,0.793749999999997,7.0);
#39=CONICAL_SURFACE('',#303,0.793749999999997,7.0);
#40=CONICAL_SURFACE('',#305,3.99999999997936,4.00000000099365);
#41=FACE_OUTER_BOUND('',#115,.T.);
#42=FACE_OUTER_BOUND('',#116,.T.);
#43=FACE_OUTER_BOUND('',#117,.T.);
#44=FACE_OUTER_BOUND('',#118,.T.);
#45=FACE_OUTER_BOUND('',#121,.T.);
#46=FACE_OUTER_BOUND('',#122,.T.);
#47=FACE_OUTER_BOUND('',#123,.T.);
#48=FACE_OUTER_BOUND('',#124,.T.);
#49=ADVANCED_FACE('',(#101,#102),#63,.F.);
#50=ADVANCED_FACE('',(#41),#64,.F.);
#51=ADVANCED_FACE('',(#42),#65,.F.);
#52=ADVANCED_FACE('',(#43),#66,.F.);
#53=ADVANCED_FACE('',(#44),#67,.F.);
#54=ADVANCED_FACE('',(#103,#104),#68,.T.);
#55=ADVANCED_FACE('',(#45),#36,.T.);
#56=ADVANCED_FACE('',(#46),#37,.T.);
#57=ADVANCED_FACE('',(#47),#38,.T.);
#58=ADVANCED_FACE('',(#48),#39,.T.);
#59=ADVANCED_FACE('',(#105,#106),#40,.F.);
#60=ADVANCED_FACE('',(#107,#108),#34,.T.);
#61=ADVANCED_FACE('',(#109,#110),#33,.F.);
#62=ADVANCED_FACE('',(#111,#112),#35,.F.);
#63=PLANE('',#289);
#64=PLANE('',#290);
#65=PLANE('',#291);
#66=PLANE('',#292);
#67=PLANE('',#293);
#68=PLANE('',#299);
#69=LINE('',#456,#85);
#70=LINE('',#461,#86);
#71=LINE('',#465,#87);
#72=LINE('',#469,#88);
#73=LINE('',#473,#89);
#74=LINE('',#476,#90);
#75=LINE('',#477,#91);
#76=LINE('',#479,#92);
#77=LINE('',#481,#93);
#78=LINE('',#483,#94);
#79=LINE('',#485,#95);
#80=LINE('',#487,#96);
#81=LINE('',#489,#97);
#82=LINE('',#491,#98);
#83=LINE('',#493,#99);
#84=LINE('',#495,#100);
#85=VECTOR('',#319,1.0);
#86=VECTOR('',#322,1.0);
#87=VECTOR('',#325,1.0);
#88=VECTOR('',#328,1.0);
#89=VECTOR('',#333,1.0);
#90=VECTOR('',#334,1.0);
#91=VECTOR('',#335,1.0);
#92=VECTOR('',#338,1.0);
#93=VECTOR('',#339,1.0);
#94=VECTOR('',#340,1.0);
#95=VECTOR('',#343,1.0);
#96=VECTOR('',#344,1.0);
#97=VECTOR('',#345,1.0);
#98=VECTOR('',#348,1.0);
#99=VECTOR('',#349,1.0);
#100=VECTOR('',#350,1.0);
#101=FACE_BOUND('',#113,.T.);
#102=FACE_BOUND('',#114,.T.);
#103=FACE_BOUND('',#119,.T.);
#104=FACE_BOUND('',#120,.T.);
#105=FACE_BOUND('',#125,.T.);
#106=FACE_BOUND('',#126,.T.);
#107=FACE_BOUND('',#127,.T.);
#108=FACE_BOUND('',#128,.T.);
#109=FACE_BOUND('',#129,.T.);
#110=FACE_BOUND('',#130,.T.);
#111=FACE_BOUND('',#131,.T.);
#112=FACE_BOUND('',#132,.T.);
#113=EDGE_LOOP('',(#133));
#114=EDGE_LOOP('',(#134,#135,#136,#137,#138,#139,#140,#141));
#115=EDGE_LOOP('',(#142,#143,#144,#145));
#116=EDGE_LOOP('',(#146,#147,#148,#149));
#117=EDGE_LOOP('',(#150,#151,#152,#153));
#118=EDGE_LOOP('',(#154,#155,#156,#157));
#119=EDGE_LOOP('',(#158));
#120=EDGE_LOOP('',(#159,#160,#161,#162,#163,#164,#165,#166));
#121=EDGE_LOOP('',(#167,#168,#169,#170));
#122=EDGE_LOOP('',(#171,#172,#173,#174));
#123=EDGE_LOOP('',(#175,#176,#177,#178));
#124=EDGE_LOOP('',(#179,#180,#181,#182));
#125=EDGE_LOOP('',(#183));
#126=EDGE_LOOP('',(#184));
#127=EDGE_LOOP('',(#185));
#128=EDGE_LOOP('',(#186));
#129=EDGE_LOOP('',(#187));
#130=EDGE_LOOP('',(#188));
#131=EDGE_LOOP('',(#189));
#132=EDGE_LOOP('',(#190));
#133=ORIENTED_EDGE('',*,*,#212,.T.);
#134=ORIENTED_EDGE('',*,*,#213,.T.);
#135=ORIENTED_EDGE('',*,*,#214,.T.);
#136=ORIENTED_EDGE('',*,*,#215,.T.);
#137=ORIENTED_EDGE('',*,*,#216,.T.);
#138=ORIENTED_EDGE('',*,*,#217,.T.);
#139=ORIENTED_EDGE('',*,*,#218,.T.);
#140=ORIENTED_EDGE('',*,*,#219,.T.);
#141=ORIENTED_EDGE('',*,*,#220,.T.);
#142=ORIENTED_EDGE('',*,*,#221,.F.);
#143=ORIENTED_EDGE('',*,*,#222,.T.);
#144=ORIENTED_EDGE('',*,*,#213,.F.);
#145=ORIENTED_EDGE('',*,*,#223,.T.);
#146=ORIENTED_EDGE('',*,*,#219,.F.);
#147=ORIENTED_EDGE('',*,*,#224,.T.);
#148=ORIENTED_EDGE('',*,*,#225,.F.);
#149=ORIENTED_EDGE('',*,*,#226,.T.);
#150=ORIENTED_EDGE('',*,*,#217,.F.);
#151=ORIENTED_EDGE('',*,*,#227,.T.);
#152=ORIENTED_EDGE('',*,*,#228,.F.);
#153=ORIENTED_EDGE('',*,*,#229,.T.);
#154=ORIENTED_EDGE('',*,*,#215,.F.);
#155=ORIENTED_EDGE('',*,*,#230,.T.);
#156=ORIENTED_EDGE('',*,*,#231,.F.);
#157=ORIENTED_EDGE('',*,*,#232,.T.);
#158=ORIENTED_EDGE('',*,*,#233,.F.);
#159=ORIENTED_EDGE('',*,*,#231,.T.);
#160=ORIENTED_EDGE('',*,*,#234,.T.);
#161=ORIENTED_EDGE('',*,*,#221,.T.);
#162=ORIENTED_EDGE('',*,*,#235,.T.);
#163=ORIENTED_EDGE('',*,*,#225,.T.);
#164=ORIENTED_EDGE('',*,*,#236,.T.);
#165=ORIENTED_EDGE('',*,*,#228,.T.);
#166=ORIENTED_EDGE('',*,*,#237,.T.);
#167=ORIENTED_EDGE('',*,*,#214,.F.);
#168=ORIENTED_EDGE('',*,*,#222,.F.);
#169=ORIENTED_EDGE('',*,*,#234,.F.);
#170=ORIENTED_EDGE('',*,*,#230,.F.);
#171=ORIENTED_EDGE('',*,*,#216,.F.);
#172=ORIENTED_EDGE('',*,*,#232,.F.);
#173=ORIENTED_EDGE('',*,*,#237,.F.);
#174=ORIENTED_EDGE('',*,*,#227,.F.);
#175=ORIENTED_EDGE('',*,*,#218,.F.);
#176=ORIENTED_EDGE('',*,*,#229,.F.);
#177=ORIENTED_EDGE('',*,*,#236,.F.);
#178=ORIENTED_EDGE('',*,*,#224,.F.);
#179=ORIENTED_EDGE('',*,*,#220,.F.);
#180=ORIENTED_EDGE('',*,*,#226,.F.);
#181=ORIENTED_EDGE('',*,*,#235,.F.);
#182=ORIENTED_EDGE('',*,*,#223,.F.);
#183=ORIENTED_EDGE('',*,*,#238,.T.);
#184=ORIENTED_EDGE('',*,*,#233,.T.);
#185=ORIENTED_EDGE('',*,*,#239,.T.);
#186=ORIENTED_EDGE('',*,*,#240,.T.);
#187=ORIENTED_EDGE('',*,*,#240,.F.);
#188=ORIENTED_EDGE('',*,*,#212,.F.);
#189=ORIENTED_EDGE('',*,*,#239,.F.);
#190=ORIENTED_EDGE('',*,*,#238,.F.);
#191=VERTEX_POINT('',#455);
#192=VERTEX_POINT('',#457);
#193=VERTEX_POINT('',#458);
#194=VERTEX_POINT('',#460);
#195=VERTEX_POINT('',#462);
#196=VERTEX_POINT('',#464);
#197=VERTEX_POINT('',#466);
#198=VERTEX_POINT('',#468);
#199=VERTEX_POINT('',#470);
#200=VERTEX_POINT('',#474);
#201=VERTEX_POINT('',#475);
#202=VERTEX_POINT('',#480);
#203=VERTEX_POINT('',#482);
#204=VERTEX_POINT('',#486);
#205=VERTEX_POINT('',#488);
#206=VERTEX_POINT('',#492);
#207=VERTEX_POINT('',#494);
#208=VERTEX_POINT('',#498);
#209=VERTEX_POINT('',#509);
#210=VERTEX_POINT('',#512);
#211=VERTEX_POINT('',#514);
#212=EDGE_CURVE('',#191,#191,#241,.T.);
#213=EDGE_CURVE('',#192,#193,#69,.T.);
#214=EDGE_CURVE('',#193,#194,#242,.T.);
#215=EDGE_CURVE('',#194,#195,#70,.T.);
#216=EDGE_CURVE('',#195,#196,#243,.T.);
#217=EDGE_CURVE('',#196,#197,#71,.T.);
#218=EDGE_CURVE('',#197,#198,#244,.T.);
#219=EDGE_CURVE('',#198,#199,#72,.T.);
#220=EDGE_CURVE('',#199,#192,#245,.T.);
#221=EDGE_CURVE('',#200,#201,#73,.T.);
#222=EDGE_CURVE('',#200,#193,#74,.T.);
#223=EDGE_CURVE('',#192,#201,#75,.T.);
#224=EDGE_CURVE('',#198,#202,#76,.T.);
#225=EDGE_CURVE('',#203,#202,#77,.T.);
#226=EDGE_CURVE('',#203,#199,#78,.T.);
#227=EDGE_CURVE('',#196,#204,#79,.T.);
#228=EDGE_CURVE('',#205,#204,#80,.T.);
#229=EDGE_CURVE('',#205,#197,#81,.T.);
#230=EDGE_CURVE('',#194,#206,#82,.T.);
#231=EDGE_CURVE('',#207,#206,#83,.T.);
#232=EDGE_CURVE('',#207,#195,#84,.T.);
#233=EDGE_CURVE('',#208,#208,#246,.T.);
#234=EDGE_CURVE('',#206,#200,#247,.T.);
#235=EDGE_CURVE('',#201,#203,#248,.T.);
#236=EDGE_CURVE('',#202,#205,#249,.T.);
#237=EDGE_CURVE('',#204,#207,#250,.T.);
#238=EDGE_CURVE('',#209,#209,#251,.T.);
#239=EDGE_CURVE('',#210,#210,#252,.T.);
#240=EDGE_CURVE('',#211,#211,#253,.T.);
#241=CIRCLE('',#284,2.75);
#242=CIRCLE('',#285,0.111528283483234);
#243=CIRCLE('',#286,0.111528283483234);
#244=CIRCLE('',#287,0.111528283483234);
#245=CIRCLE('',#288,0.111528283483234);
#246=CIRCLE('',#294,4.07622022501842);
#247=CIRCLE('',#295,0.793749999999997);
#248=CIRCLE('',#296,0.793749999999997);
#249=CIRCLE('',#297,0.793749999999997);
#250=CIRCLE('',#298,0.793749999999997);
#251=CIRCLE('',#304,4.00697067751356);
#252=CIRCLE('',#306,3.93651081361885);
#253=CIRCLE('',#307,2.75);
#254=CURVE_STYLE('',#258,POSITIVE_LENGTH_MEASURE(0.18),#257);
#255=CURVE_STYLE('',#259,POSITIVE_LENGTH_MEASURE(0.18),#279);
#256=CURVE_STYLE('',#260,POSITIVE_LENGTH_MEASURE(0.18),#279);
#257=DRAUGHTING_PRE_DEFINED_COLOUR('blue');
#258=DRAUGHTING_PRE_DEFINED_CURVE_FONT('continuous');
#259=DRAUGHTING_PRE_DEFINED_CURVE_FONT('continuous');
#260=DRAUGHTING_PRE_DEFINED_CURVE_FONT('continuous');
#261=B_SPLINE_CURVE_WITH_KNOTS('CUTTING EDGE LINE',5,(#390,#391,#392,#393,#394,#395,
     #396,#397,#398,#399,#400,#401,#402,#403,#404,#405,#406,#407,#408,#409,#410,
     #411,#412,#413,#414,#415,#416,#417,#418,#419,#420,#421,#422,#423,#424,#425,
     #426,#427,#428,#429,#430,#431,#432,#433,#434,#435,#436,#437,#438,#439,#440,
     #441,#442,#443,#444,#445,#446,#447,#448,#449,#450,#451),.UNSPECIFIED.,.T.,.F.,
     (2,4,1,1,1,1,1,1,1,4,4,1,1,1,1,1,1,1,4,4,1,1,1,1,1,1,1,4,4,1,1,1,1,1,1,1,4,
     4,1,1),(-0.2302151513,0.0,0.00219831651250002,0.00439663302500004,0.00659494953749995,
     0.00879326604999997,0.0109915825625,0.013189899075,0.0153882155875,0.0175865321000001,
     0.2478016834,0.2505495790625,0.253297474725,0.2560453703875,0.25879326605,0.2615411617125,
     0.264289057375,0.2670369530375,0.2697848487,0.5,0.5021983165125,0.504396633025,
     0.5065949495375,0.50879326605,0.5109915825625,0.513189899075,0.5153882155875,
     0.5175865321,0.7478016834,0.7505495790625,0.753297474725,0.7560453703875,0.75879326605,
     0.7615411617125,0.764289057375,0.7670369530375,0.7697848487,1.0,1.0021983165125,
     1.004396633025),.UNSPECIFIED.);
#262=PRESENTATION_LAYER_ASSIGNMENT('1','Layer 1',(#261,#282,#283,#31));
#265=STYLED_ITEM('',(#271),#261);
#266=STYLED_ITEM('',(#272),#282);
#267=STYLED_ITEM('',(#273),#283);
#268=STYLED_ITEM('',(#274),#31);
#269=PRESENTATION_STYLE_ASSIGNMENT((#275));
#270=PRESENTATION_STYLE_ASSIGNMENT((#276));
#271=PRESENTATION_STYLE_ASSIGNMENT((#254));
#272=PRESENTATION_STYLE_ASSIGNMENT((#255));
#273=PRESENTATION_STYLE_ASSIGNMENT((#256));
#274=PRESENTATION_STYLE_ASSIGNMENT((#26));
#275=POINT_STYLE('',#277,POSITIVE_LENGTH_MEASURE(3.0),#279);
#276=POINT_STYLE('',#278,POSITIVE_LENGTH_MEASURE(3.0),#279);
#277=PRE_DEFINED_POINT_MARKER_SYMBOL('plus');
#278=PRE_DEFINED_POINT_MARKER_SYMBOL('plus');
#279=COLOUR_RGB('Medium Maroon',0.6,0.4,0.4);
#280=COLOUR_RGB('IsoInsertColor',0.8,0.8,0.8);
#281=AXIS2_PLACEMENT_3D('',#387,#311,#312);
#282=AXIS2_PLACEMENT_3D('PCS',#452,#313,#314);
#283=AXIS2_PLACEMENT_3D('MCS',#453,#315,#316);
#284=AXIS2_PLACEMENT_3D('',#454,#317,#318);
#285=AXIS2_PLACEMENT_3D('',#459,#320,#321);
#286=AXIS2_PLACEMENT_3D('',#463,#323,#324);
#287=AXIS2_PLACEMENT_3D('',#467,#326,#327);
#288=AXIS2_PLACEMENT_3D('',#471,#329,#330);
#289=AXIS2_PLACEMENT_3D('',#472,#331,#332);
#290=AXIS2_PLACEMENT_3D('',#478,#336,#337);
#291=AXIS2_PLACEMENT_3D('',#484,#341,#342);
#292=AXIS2_PLACEMENT_3D('',#490,#346,#347);
#293=AXIS2_PLACEMENT_3D('',#496,#351,#352);
#294=AXIS2_PLACEMENT_3D('',#497,#353,#354);
#295=AXIS2_PLACEMENT_3D('',#499,#355,#356);
#296=AXIS2_PLACEMENT_3D('',#500,#357,#358);
#297=AXIS2_PLACEMENT_3D('',#501,#359,#360);
#298=AXIS2_PLACEMENT_3D('',#502,#361,#362);
#299=AXIS2_PLACEMENT_3D('',#503,#363,#364);
#300=AXIS2_PLACEMENT_3D('',#504,#365,#366);
#301=AXIS2_PLACEMENT_3D('',#505,#367,#368);
#302=AXIS2_PLACEMENT_3D('',#506,#369,#370);
#303=AXIS2_PLACEMENT_3D('',#507,#371,#372);
#304=AXIS2_PLACEMENT_3D('',#508,#373,#374);
#305=AXIS2_PLACEMENT_3D('',#510,#375,#376);
#306=AXIS2_PLACEMENT_3D('',#511,#377,#378);
#307=AXIS2_PLACEMENT_3D('',#513,#379,#380);
#308=AXIS2_PLACEMENT_3D('',#515,#381,#382);
#309=AXIS2_PLACEMENT_3D('',#516,#383,#384);
#310=AXIS2_PLACEMENT_3D('',#517,#385,#386);
#311=DIRECTION('',(0.0,0.0,1.0));
#312=DIRECTION('',(1.0,0.0,0.0));
#313=DIRECTION('',(0.0,0.0,1.0));
#314=DIRECTION('',(1.0,0.0,0.0));
#315=DIRECTION('',(0.0,0.0,1.0));
#316=DIRECTION('',(1.0,0.0,0.0));
#317=DIRECTION('',(0.0,0.0,1.0));
#318=DIRECTION('',(-0.766044443118978,-0.642787609686539,0.0));
#319=DIRECTION('',(1.0,1.0547118733939E-15,0.0));
#320=DIRECTION('',(0.0,0.0,-1.0));
#321=DIRECTION('',(-0.766044443118976,-0.642787609686544,0.0));
#322=DIRECTION('',(-0.173648177666928,-0.984807753012209,0.0));
#323=DIRECTION('',(0.0,0.0,-1.0));
#324=DIRECTION('',(-0.76604444311898,-0.642787609686539,0.0));
#325=DIRECTION('',(-1.0,1.0547118733939E-15,0.0));
#326=DIRECTION('',(0.0,0.0,-1.0));
#327=DIRECTION('',(-0.766044443118978,-0.642787609686539,0.0));
#328=DIRECTION('',(0.17364817766693,0.984807753012208,0.0));
#329=DIRECTION('',(0.0,0.0,-1.0));
#330=DIRECTION('',(-0.766044443118979,-0.642787609686543,0.0));
#331=DIRECTION('',(0.0,0.0,1.0));
#332=DIRECTION('',(-0.766044443118978,-0.642787609686539,0.0));
#333=DIRECTION('',(-1.0,-1.0547118733939E-15,-8.14199104762278E-17));
#334=DIRECTION('',(2.28983498828939E-16,-0.121869343405148,-0.992546151641322));
#335=DIRECTION('',(-2.28983498828939E-16,0.121869343405148,0.992546151641322));
#336=DIRECTION('',(1.0547118733939E-15,-0.992546151641322,0.121869343405148));
#337=DIRECTION('',(1.0,1.0547118733939E-15,0.0));
#338=DIRECTION('',(-0.120017874239897,0.0211623893957695,0.992546151641322));
#339=DIRECTION('',(-0.17364817766693,-0.984807753012208,2.85817810734258E-16));
#340=DIRECTION('',(0.120017874239897,-0.0211623893957695,-0.992546151641322));
#341=DIRECTION('',(0.977467145358805,-0.17235383048284,0.121869343405148));
#342=DIRECTION('',(0.17364817766693,0.984807753012208,0.0));
#343=DIRECTION('',(-2.15105711021124E-16,-0.121869343405147,0.992546151641322));
#344=DIRECTION('',(1.0,-1.0547118733939E-15,8.14199104762284E-17));
#345=DIRECTION('',(2.15105711021124E-16,0.121869343405147,-0.992546151641322));
#346=DIRECTION('',(1.0547118733939E-15,0.992546151641322,0.121869343405147));
#347=DIRECTION('',(-1.0,1.0547118733939E-15,0.0));
#348=DIRECTION('',(0.120017874239896,-0.0211623893957686,0.992546151641322));
#349=DIRECTION('',(0.173648177666928,0.984807753012209,-2.85817810734259E-16));
#350=DIRECTION('',(-0.120017874239896,0.0211623893957686,-0.992546151641322));
#351=DIRECTION('',(-0.977467145358805,0.172353830482838,0.121869343405147));
#352=DIRECTION('',(-0.173648177666928,-0.984807753012209,0.0));
#353=DIRECTION('',(0.0,0.0,1.0));
#354=DIRECTION('',(-0.766044443118978,-0.642787609686539,0.0));
#355=DIRECTION('',(-8.26474009869754E-17,3.09175454316191E-16,1.0));
#356=DIRECTION('',(-0.642787609686539,0.76604444311898,-2.89966864054927E-16));
#357=DIRECTION('',(-8.26474009869754E-17,3.09175454316191E-16,1.0));
#358=DIRECTION('',(-0.64278760968654,0.76604444311898,-2.89966864054927E-16));
#359=DIRECTION('',(-8.26474009869754E-17,3.09175454316191E-16,1.0));
#360=DIRECTION('',(-0.642787609686539,0.766044443118978,-2.89966864054927E-16));
#361=DIRECTION('',(-8.26474009869754E-17,3.09175454316191E-16,1.0));
#362=DIRECTION('',(-0.642787609686539,0.766044443118978,-2.89966864054927E-16));
#363=DIRECTION('',(-8.26474009869754E-17,3.09175454316191E-16,1.0));
#364=DIRECTION('',(-0.642787609686539,0.766044443118978,-2.89966864054927E-16));
#365=DIRECTION('',(-8.26474009869754E-17,3.09175454316191E-16,1.0));
#366=DIRECTION('',(-0.642787609686539,0.766044443118978,3.50936071083659E-17));
#367=DIRECTION('',(-8.26474009869754E-17,3.09175454316191E-16,1.0));
#368=DIRECTION('',(-0.642787609686539,0.766044443118978,0.0));
#369=DIRECTION('',(-8.26474009869754E-17,3.09175454316191E-16,1.0));
#370=DIRECTION('',(-0.642787609686539,0.766044443118978,7.01872142167317E-18));
#371=DIRECTION('',(-8.26474009869754E-17,3.09175454316191E-16,1.0));
#372=DIRECTION('',(-0.642787609686539,0.766044443118978,4.2112328530039E-17));
#373=DIRECTION('',(0.0,0.0,-1.0));
#374=DIRECTION('',(0.766044443118978,0.64278760968654,0.0));
#375=DIRECTION('',(0.0,0.0,1.0));
#376=DIRECTION('',(-0.766044443118978,-0.64278760968654,6.5703167820938E-16));
#377=DIRECTION('',(0.0,0.0,1.0));
#378=DIRECTION('',(0.766044443118978,0.64278760968654,0.0));
#379=DIRECTION('',(0.0,0.0,-1.0));
#380=DIRECTION('',(-0.766044443118978,-0.642787609686539,0.0));
#381=DIRECTION('',(0.0,0.0,1.0));
#382=DIRECTION('',(-0.766044443118978,-0.642787609686539,0.0));
#383=DIRECTION('',(0.0,0.0,1.0));
#384=DIRECTION('',(-0.766044443118978,-0.64278760968654,0.0));
#385=DIRECTION('',(0.0,0.0,-1.0));
#386=DIRECTION('',(0.766044443118978,0.64278760968654,0.0));
#387=CARTESIAN_POINT('',(0.0,0.0,0.0));
#390=CARTESIAN_POINT('',(12.5522805879757,7.8159700933611E-14,0.0));
#391=CARTESIAN_POINT('',(15.4793727646986,7.54951656745106E-14,2.475164043999E-16));
#392=CARTESIAN_POINT('',(15.5303940312175,0.00204973987188239,2.50931919908588E-16));
#393=CARTESIAN_POINT('',(15.6113657923651,0.0116288538654654,2.53879473927115E-16));
#394=CARTESIAN_POINT('',(15.717704832326,0.0386932046925272,2.52088449926135E-16));
#395=CARTESIAN_POINT('',(15.8488131566483,0.0975702289840141,2.39908716665859E-16));
#396=CARTESIAN_POINT('',(15.9682961014324,0.180671468108121,2.17298738398028E-16));
#397=CARTESIAN_POINT('',(16.0708828416308,0.283908819748559,1.854209667332E-16));
#398=CARTESIAN_POINT('',(16.1516321132229,0.402801426050897,1.45618621897502E-16));
#399=CARTESIAN_POINT('',(16.1967508762517,0.502825261851251,1.10247460095021E-16));
#400=CARTESIAN_POINT('',(16.2202450607453,0.580903484315953,8.16677972948011E-17));
#401=CARTESIAN_POINT('',(16.231123410416,0.630793689558806,6.30643879133973E-17));
#402=CARTESIAN_POINT('',(16.739407632767,3.51341675897694,3.21658191485877E-17));
#403=CARTESIAN_POINT('',(17.2432619801415,6.37091675897692,2.14438794323918E-17));
#404=CARTESIAN_POINT('',(17.7471163275159,9.22841675897691,2.14438794323917E-17));
#405=CARTESIAN_POINT('',(18.2509706748903,12.0859167589769,3.21658191485874E-17));
#406=CARTESIAN_POINT('',(18.7601043416829,14.973357267213,4.65121328738697E-17));
#407=CARTESIAN_POINT('',(18.7677960105244,15.033743807848,3.23362995371697E-17));
#408=CARTESIAN_POINT('',(18.7713797947201,15.1339521113832,9.24432857484992E-18));
#409=CARTESIAN_POINT('',(18.7541435677955,15.269305363469,-2.09073373201282E-17));
#410=CARTESIAN_POINT('',(18.6925025213141,15.4418163291543,-5.74690624435269E-17));
#411=CARTESIAN_POINT('',(18.5895001465563,15.5984427167455,-8.8450330439335E-17));
#412=CARTESIAN_POINT('',(18.4531394404023,15.7270781407654,-1.11458405810292E-16));
#413=CARTESIAN_POINT('',(18.2939531593064,15.8177389360629,-1.2470520741496E-16));
#414=CARTESIAN_POINT('',(18.1636492666534,15.8582171515369,-1.2783183216523E-16));
#415=CARTESIAN_POINT('',(18.0643410348202,15.8720888023718,-1.2633091046728E-16));
#416=CARTESIAN_POINT('',(18.0035362571476,15.875,-1.24134960824563E-16));
#417=CARTESIAN_POINT('',(15.0715523248478,15.875,-7.36224050590429E-17));
#418=CARTESIAN_POINT('',(12.1699707813843,15.875,-4.90816033726952E-17));
#419=CARTESIAN_POINT('',(9.26838923792083,15.875,-4.90816033726952E-17));
#420=CARTESIAN_POINT('',(6.36680769445734,15.875,-7.36224050590428E-17));
#421=CARTESIAN_POINT('',(3.43971551773441,15.875,-1.2951223215854E-16));
#422=CARTESIAN_POINT('',(3.38869425121554,15.8729502601282,-1.42260834649682E-16));
#423=CARTESIAN_POINT('',(3.30772249006794,15.8633711461346,-1.59814679384991E-16));
#424=CARTESIAN_POINT('',(3.20138345010705,15.8363067953075,-1.76735367538744E-16));
#425=CARTESIAN_POINT('',(3.07027512578474,15.777429771016,-1.86797175093729E-16));
#426=CARTESIAN_POINT('',(2.95079218100063,15.6943285318919,-1.83500069523204E-16));
#427=CARTESIAN_POINT('',(2.84820544080218,15.5910911802515,-1.67168257016492E-16));
#428=CARTESIAN_POINT('',(2.76745616921015,15.4721985739492,-1.38380186151113E-16));
#429=CARTESIAN_POINT('',(2.72233740618137,15.3721747381488,-1.08072020966165E-16));
#430=CARTESIAN_POINT('',(2.69884322168771,15.2940965156841,-8.12843472684524E-17));
#431=CARTESIAN_POINT('',(2.68796487201704,15.2442063104413,-6.30643879133977E-17));
#432=CARTESIAN_POINT('',(2.17968064966597,12.3615832410231,-3.2165819148588E-17));
#433=CARTESIAN_POINT('',(1.67582630229154,9.50408324102315,-2.14438794323919E-17));
#434=CARTESIAN_POINT('',(1.1719719549171,6.64658324102317,-2.14438794323917E-17));
#435=CARTESIAN_POINT('',(0.668117607542667,3.78908324102319,-3.21658191485875E-17));
#436=CARTESIAN_POINT('',(0.158983940750087,0.901642732787143,-4.65121328738699E-17));
#437=CARTESIAN_POINT('',(0.151292271908602,0.841256192152049,-3.23362995371699E-17));
#438=CARTESIAN_POINT('',(0.147708487712855,0.741047888616862,-9.24432857485018E-18));
#439=CARTESIAN_POINT('',(0.164944714637496,0.605694636531108,2.09073373201279E-17));
#440=CARTESIAN_POINT('',(0.226585761118923,0.433183670845819,5.74690624435264E-17));
#441=CARTESIAN_POINT('',(0.329588135876703,0.276557283254626,8.84503304393345E-17));
#442=CARTESIAN_POINT('',(0.465948842030729,0.147921859234705,1.11458405810292E-16));
#443=CARTESIAN_POINT('',(0.625135123126583,0.0572610639372337,1.2470520741496E-16));
#444=CARTESIAN_POINT('',(0.755439015779551,0.0167828484631753,1.27831832165229E-16));
#445=CARTESIAN_POINT('',(0.854747247612814,0.00291119762828718,1.26330910467279E-16));
#446=CARTESIAN_POINT('',(0.915552025285379,8.88178419700125E-14,1.24134960824563E-16));
#447=CARTESIAN_POINT('',(3.84753595758517,8.61533067109121E-14,7.36224050590428E-17));
#448=CARTESIAN_POINT('',(6.74911750104867,8.34887714518118E-14,3.68112025295214E-17));
#449=CARTESIAN_POINT('',(9.65069904451217,8.08242361927114E-14,1.22704008431738E-17));
#450=CARTESIAN_POINT('',(12.5522805879757,7.8159700933611E-14,0.0));
#451=CARTESIAN_POINT('',(15.4793727646986,7.54951656745106E-14,2.475164043999E-16));
#452=CARTESIAN_POINT('',(0.0,0.0,0.0));
#453=CARTESIAN_POINT('',(9.45954414121654,7.9375,0.0));
#454=CARTESIAN_POINT('',(9.45954414121654,7.9375,-5.55625));
#455=CARTESIAN_POINT('',(7.35292192263936,6.16983407336202,-5.55625));
#456=CARTESIAN_POINT('',(9.4595441412165,15.1927782834832,-5.55625));
#457=CARTESIAN_POINT('',(3.46522615099384,15.1927782834832,-5.55625));
#458=CARTESIAN_POINT('',(17.9731338683113,15.1927782834832,-5.55625));
#459=CARTESIAN_POINT('',(17.9731338683113,15.08125,-5.55625));
#460=CARTESIAN_POINT('',(18.0829677865658,15.0618833168148,-5.55625));
#461=CARTESIAN_POINT('',(16.6045984450519,6.67763414760674,-5.55625));
#462=CARTESIAN_POINT('',(15.5636960496936,0.774383316814886,-5.55625));
#463=CARTESIAN_POINT('',(15.4538621314392,0.793750000000074,-5.55625));
#464=CARTESIAN_POINT('',(15.4538621314392,0.682221716516837,-5.55625));
#465=CARTESIAN_POINT('',(9.4595441412165,0.682221716516844,-5.55625));
#466=CARTESIAN_POINT('',(0.945954414121665,0.682221716516852,-5.55625));
#467=CARTESIAN_POINT('',(0.945954414121666,0.793750000000088,-5.55625));
#468=CARTESIAN_POINT('',(0.836120495867234,0.813116683185264,-5.55625));
#469=CARTESIAN_POINT('',(2.31448983738115,9.19736585239334,-5.55625));
#470=CARTESIAN_POINT('',(3.35539223273941,15.1006166831852,-5.55625));
#471=CARTESIAN_POINT('',(3.46522615099384,15.08125,-5.55625));
#472=CARTESIAN_POINT('',(9.41332282867938,7.40918798019793,-5.55625));
#473=CARTESIAN_POINT('',(9.45954414121653,15.875,-5.38749756651153E-15));
#474=CARTESIAN_POINT('',(17.9731338683113,15.875,-4.68387150249773E-15));
#475=CARTESIAN_POINT('',(3.46522615099384,15.875,-5.8829123690929E-15));
#476=CARTESIAN_POINT('',(17.9731338683113,15.875,-4.36778687270606E-15));
#477=CARTESIAN_POINT('',(3.46522615099384,15.875,-5.10544072477621E-15));
#478=CARTESIAN_POINT('',(9.4595441412165,15.875,-5.38749756651153E-15));
#479=CARTESIAN_POINT('',(0.164263260168227,0.931583241023208,-9.59888910219884E-16));
#480=CARTESIAN_POINT('',(0.164263260168227,0.931583241023208,-1.53559070728126E-15));
#481=CARTESIAN_POINT('',(1.64263260168214,9.31583241023126,-4.00561136949636E-15));
#482=CARTESIAN_POINT('',(2.68353499704041,15.2190832410231,-5.74472374939139E-15));
#483=CARTESIAN_POINT('',(2.68353499704041,15.2190832410231,-5.00915298587335E-15));
#484=CARTESIAN_POINT('',(1.64263260168214,9.31583241023128,-4.00561136949637E-15));
#485=CARTESIAN_POINT('',(15.4538621314392,7.63278329429795E-14,1.97614303459107E-16));
#486=CARTESIAN_POINT('',(15.4538621314392,7.63278329429795E-14,1.60775733393527E-17));
#487=CARTESIAN_POINT('',(9.45954414121653,7.97972798949331E-14,-4.7933722924202E-16));
#488=CARTESIAN_POINT('',(0.945954414121665,9.19403442267708E-14,-1.18296329325583E-15));
#489=CARTESIAN_POINT('',(0.945954414121665,9.19403442267708E-14,-8.62875756781536E-16));
#490=CARTESIAN_POINT('',(9.4595441412165,8.15320033709099E-14,-4.79337229242024E-16));
#491=CARTESIAN_POINT('',(18.7548250222648,14.9434167589769,-4.5797011029379E-15));
#492=CARTESIAN_POINT('',(18.7548250222648,14.9434167589769,-4.3312440884723E-15));
#493=CARTESIAN_POINT('',(17.2764556807509,6.55916758976878,-1.86122342625719E-15));
#494=CARTESIAN_POINT('',(16.2355532853926,0.655916758976948,-1.22111046362164E-16));
#495=CARTESIAN_POINT('',(16.2355532853926,0.655916758976948,-4.96599211537621E-17));
#496=CARTESIAN_POINT('',(17.2764556807509,6.5591675897688,-1.86122342625719E-15));
#497=CARTESIAN_POINT('',(9.45954414121654,7.9375,-6.93889390390723E-15));
#498=CARTESIAN_POINT('',(6.33697828891199,5.31735614500448,-6.93889390390723E-15));
#499=CARTESIAN_POINT('',(17.9731338683113,15.08125,-4.43846348563426E-15));
#500=CARTESIAN_POINT('',(3.46522615099384,15.08125,-5.63750435222943E-15));
#501=CARTESIAN_POINT('',(0.945954414121666,0.793750000000086,-1.4283713101193E-15));
#502=CARTESIAN_POINT('',(15.4538621314392,0.793750000000073,-2.29330443524123E-16));
#503=CARTESIAN_POINT('',(9.45954414121654,7.9375,-2.93341739787676E-15));
#504=CARTESIAN_POINT('',(17.9731338683113,15.08125,-4.33680868994202E-15));
#505=CARTESIAN_POINT('',(15.4538621314392,0.793750000000073,0.0));
#506=CARTESIAN_POINT('',(0.945954414121666,0.793750000000086,-8.67361737988404E-16));
#507=CARTESIAN_POINT('',(3.46522615099384,15.08125,-5.20417042793042E-15));
#508=CARTESIAN_POINT('',(9.45954414121654,7.9375,-0.990314667048527));
#509=CARTESIAN_POINT('',(12.5290617624665,10.513131103883,-0.990314667048527));
#510=CARTESIAN_POINT('',(9.45954414121654,7.9375,-1.0900000000234));
#511=CARTESIAN_POINT('',(9.45954414121654,7.9375,-1.16341422004711));
#512=CARTESIAN_POINT('',(12.475086375267,10.4678403763913,-1.16341422004711));
#513=CARTESIAN_POINT('',(9.45954414121654,7.9375,-4.39718913883075));
#514=CARTESIAN_POINT('',(7.35292192263935,6.16983407336202,-4.39718913883075));
#515=CARTESIAN_POINT('',(9.45954414121654,7.9375,-4.39718913883074));
#516=CARTESIAN_POINT('',(9.45954414121654,7.9375,-33.3676978394524));
#517=CARTESIAN_POINT('',(9.45954414121654,7.9375,-0.969387724920097));
#518=MECHANICAL_DESIGN_GEOMETRIC_PRESENTATION_REPRESENTATION('',(#265,#266,#267,
     #268),#519);
#519=(GEOMETRIC_REPRESENTATION_CONTEXT(3)GLOBAL_UNCERTAINTY_ASSIGNED_CONTEXT((#520))
     GLOBAL_UNIT_ASSIGNED_CONTEXT((#526,#522,#521))REPRESENTATION_CONTEXT('CCMT160508',
     'TOP_LEVEL_ASSEMBLY_PART'));
#520=UNCERTAINTY_MEASURE_WITH_UNIT(LENGTH_MEASURE(2.0E-5),#526,'DISTANCE_ACCURACY_VALUE',
     'Maximum Tolerance applied to model');
#521=(NAMED_UNIT(*)SI_UNIT($,.STERADIAN.)SOLID_ANGLE_UNIT());
#522=(CONVERSION_BASED_UNIT('DEGREE',#524)NAMED_UNIT(#523)PLANE_ANGLE_UNIT());
#523=DIMENSIONAL_EXPONENTS(0.0,0.0,0.0,0.0,0.0,0.0,0.0);
#524=PLANE_ANGLE_MEASURE_WITH_UNIT(PLANE_ANGLE_MEASURE(0.0174532925),#525);
#525=(NAMED_UNIT(*)PLANE_ANGLE_UNIT()SI_UNIT($,.RADIAN.));
#526=(LENGTH_UNIT()NAMED_UNIT(*)SI_UNIT(.MILLI.,.METRE.));
#527=CONSTRUCTIVE_GEOMETRY_REPRESENTATION('supplemental geometry',(#282,#283),#519);
#528=CONSTRUCTIVE_GEOMETRY_REPRESENTATION_RELATIONSHIP('supplemental geometry','contains PCS and MCS coordinate systems',
     #24,#527);
ENDSEC;
END-ISO-10303-21;
