ISO-10303-21;
HEADER;
FILE_DESCRIPTION(
/* description */ (''),
/* implementation_level */ '2;1');
FILE_NAME(
/* name */ 'CCGW09T312.stp',
/* time_stamp */ '2017-03-21T10:53:50',
/* author */ ('Sandvik Coromant R&D'),
/* organization */ ('Sandvik Machining Solutions'),
/* preprocessor_version */ 'ST-DEVELOPER v15',
/* originating_system */ 'SIEMENS PLM Software NX v8.5.3.3(64 bits)',
/* authorization */ '');
FILE_SCHEMA(('AUTOMOTIVE_DESIGN'));
ENDSEC;
DATA;
#10=GEOMETRICALLY_BOUNDED_WIREFRAME_SHAPE_REPRESENTATION('IsoTurningInsert-None',
     (#25),#519);
#11=SHAPE_REPRESENTATION_RELATIONSHIP('None','relationship between IsoTurningInsert-None and IsoTurningInsert-None',
     #24,#13);
#12=SHAPE_REPRESENTATION_RELATIONSHIP('None','relationship between IsoTurningInsert-None and IsoTurningInsert-None',
     #24,#10);
#13=ADVANCED_BREP_SHAPE_REPRESENTATION('IsoTurningInsert-None',(#31),#519);
#14=SHAPE_DEFINITION_REPRESENTATION(#15,#24);
#15=PRODUCT_DEFINITION_SHAPE('','',#16);
#16=PRODUCT_DEFINITION(' ','',#18,#17);
#17=PRODUCT_DEFINITION_CONTEXT('part definition',#23,'design');
#18=PRODUCT_DEFINITION_FORMATION_WITH_SPECIFIED_SOURCE(' ',' ',#20,.NOT_KNOWN.);
#19=PRODUCT_RELATED_PRODUCT_CATEGORY('part','',(#20));
#20=PRODUCT('IsoTurningInsert','IsoTurningInsert',' ',(#21));
#21=PRODUCT_CONTEXT(' ',#23,'mechanical');
#22=APPLICATION_PROTOCOL_DEFINITION('international standard','automotive_design',
     2010,#23);
#23=APPLICATION_CONTEXT('core data for automotive mechanical design processes');
#24=SHAPE_REPRESENTATION('IsoTurningInsert-None',(#281),#519);
#25=GEOMETRIC_CURVE_SET('geometric curve set',(#261));
#26=SURFACE_STYLE_USAGE(.BOTH.,#27);
#27=SURFACE_SIDE_STYLE('',(#28));
#28=SURFACE_STYLE_FILL_AREA(#29);
#29=FILL_AREA_STYLE('',(#30));
#30=FILL_AREA_STYLE_COLOUR('',#280);
#31=MANIFOLD_SOLID_BREP('CUT',#32);
#32=CLOSED_SHELL('',(#49,#50,#51,#52,#53,#54,#55,#56,#57,#58,#59,#60,#61,#62));
#33=CYLINDRICAL_SURFACE('',#309,2.2);
#34=TOROIDAL_SURFACE('',#308,6.19999999999999,4.0);
#35=TOROIDAL_SURFACE('',#310,2.70678285826048,0.3);
#36=CONICAL_SURFACE('',#300,1.190625,7.0);
#37=CONICAL_SURFACE('',#301,1.190625,7.0);
#38=CONICAL_SURFACE('',#302,1.190625,7.0);
#39=CONICAL_SURFACE('',#303,1.190625,7.0);
#40=CONICAL_SURFACE('',#305,2.99999999999613,4.00000000019606);
#41=FACE_OUTER_BOUND('',#115,.T.);
#42=FACE_OUTER_BOUND('',#116,.T.);
#43=FACE_OUTER_BOUND('',#117,.T.);
#44=FACE_OUTER_BOUND('',#118,.T.);
#45=FACE_OUTER_BOUND('',#121,.T.);
#46=FACE_OUTER_BOUND('',#122,.T.);
#47=FACE_OUTER_BOUND('',#123,.T.);
#48=FACE_OUTER_BOUND('',#124,.T.);
#49=ADVANCED_FACE('',(#101,#102),#63,.F.);
#50=ADVANCED_FACE('',(#41),#64,.F.);
#51=ADVANCED_FACE('',(#42),#65,.F.);
#52=ADVANCED_FACE('',(#43),#66,.F.);
#53=ADVANCED_FACE('',(#44),#67,.F.);
#54=ADVANCED_FACE('',(#103,#104),#68,.T.);
#55=ADVANCED_FACE('',(#45),#36,.T.);
#56=ADVANCED_FACE('',(#46),#37,.T.);
#57=ADVANCED_FACE('',(#47),#38,.T.);
#58=ADVANCED_FACE('',(#48),#39,.T.);
#59=ADVANCED_FACE('',(#105,#106),#40,.F.);
#60=ADVANCED_FACE('',(#107,#108),#34,.T.);
#61=ADVANCED_FACE('',(#109,#110),#33,.F.);
#62=ADVANCED_FACE('',(#111,#112),#35,.F.);
#63=PLANE('',#289);
#64=PLANE('',#290);
#65=PLANE('',#291);
#66=PLANE('',#292);
#67=PLANE('',#293);
#68=PLANE('',#299);
#69=LINE('',#456,#85);
#70=LINE('',#461,#86);
#71=LINE('',#465,#87);
#72=LINE('',#469,#88);
#73=LINE('',#473,#89);
#74=LINE('',#476,#90);
#75=LINE('',#477,#91);
#76=LINE('',#479,#92);
#77=LINE('',#481,#93);
#78=LINE('',#483,#94);
#79=LINE('',#485,#95);
#80=LINE('',#487,#96);
#81=LINE('',#489,#97);
#82=LINE('',#491,#98);
#83=LINE('',#493,#99);
#84=LINE('',#495,#100);
#85=VECTOR('',#319,1.0);
#86=VECTOR('',#322,1.0);
#87=VECTOR('',#325,1.0);
#88=VECTOR('',#328,1.0);
#89=VECTOR('',#333,1.0);
#90=VECTOR('',#334,1.0);
#91=VECTOR('',#335,1.0);
#92=VECTOR('',#338,1.0);
#93=VECTOR('',#339,1.0);
#94=VECTOR('',#340,1.0);
#95=VECTOR('',#343,1.0);
#96=VECTOR('',#344,1.0);
#97=VECTOR('',#345,1.0);
#98=VECTOR('',#348,1.0);
#99=VECTOR('',#349,1.0);
#100=VECTOR('',#350,1.0);
#101=FACE_BOUND('',#113,.T.);
#102=FACE_BOUND('',#114,.T.);
#103=FACE_BOUND('',#119,.T.);
#104=FACE_BOUND('',#120,.T.);
#105=FACE_BOUND('',#125,.T.);
#106=FACE_BOUND('',#126,.T.);
#107=FACE_BOUND('',#127,.T.);
#108=FACE_BOUND('',#128,.T.);
#109=FACE_BOUND('',#129,.T.);
#110=FACE_BOUND('',#130,.T.);
#111=FACE_BOUND('',#131,.T.);
#112=FACE_BOUND('',#132,.T.);
#113=EDGE_LOOP('',(#133));
#114=EDGE_LOOP('',(#134,#135,#136,#137,#138,#139,#140,#141));
#115=EDGE_LOOP('',(#142,#143,#144,#145));
#116=EDGE_LOOP('',(#146,#147,#148,#149));
#117=EDGE_LOOP('',(#150,#151,#152,#153));
#118=EDGE_LOOP('',(#154,#155,#156,#157));
#119=EDGE_LOOP('',(#158));
#120=EDGE_LOOP('',(#159,#160,#161,#162,#163,#164,#165,#166));
#121=EDGE_LOOP('',(#167,#168,#169,#170));
#122=EDGE_LOOP('',(#171,#172,#173,#174));
#123=EDGE_LOOP('',(#175,#176,#177,#178));
#124=EDGE_LOOP('',(#179,#180,#181,#182));
#125=EDGE_LOOP('',(#183));
#126=EDGE_LOOP('',(#184));
#127=EDGE_LOOP('',(#185));
#128=EDGE_LOOP('',(#186));
#129=EDGE_LOOP('',(#187));
#130=EDGE_LOOP('',(#188));
#131=EDGE_LOOP('',(#189));
#132=EDGE_LOOP('',(#190));
#133=ORIENTED_EDGE('',*,*,#212,.T.);
#134=ORIENTED_EDGE('',*,*,#213,.T.);
#135=ORIENTED_EDGE('',*,*,#214,.T.);
#136=ORIENTED_EDGE('',*,*,#215,.T.);
#137=ORIENTED_EDGE('',*,*,#216,.T.);
#138=ORIENTED_EDGE('',*,*,#217,.T.);
#139=ORIENTED_EDGE('',*,*,#218,.T.);
#140=ORIENTED_EDGE('',*,*,#219,.T.);
#141=ORIENTED_EDGE('',*,*,#220,.T.);
#142=ORIENTED_EDGE('',*,*,#221,.F.);
#143=ORIENTED_EDGE('',*,*,#222,.T.);
#144=ORIENTED_EDGE('',*,*,#213,.F.);
#145=ORIENTED_EDGE('',*,*,#223,.T.);
#146=ORIENTED_EDGE('',*,*,#219,.F.);
#147=ORIENTED_EDGE('',*,*,#224,.T.);
#148=ORIENTED_EDGE('',*,*,#225,.F.);
#149=ORIENTED_EDGE('',*,*,#226,.T.);
#150=ORIENTED_EDGE('',*,*,#217,.F.);
#151=ORIENTED_EDGE('',*,*,#227,.T.);
#152=ORIENTED_EDGE('',*,*,#228,.F.);
#153=ORIENTED_EDGE('',*,*,#229,.T.);
#154=ORIENTED_EDGE('',*,*,#215,.F.);
#155=ORIENTED_EDGE('',*,*,#230,.T.);
#156=ORIENTED_EDGE('',*,*,#231,.F.);
#157=ORIENTED_EDGE('',*,*,#232,.T.);
#158=ORIENTED_EDGE('',*,*,#233,.F.);
#159=ORIENTED_EDGE('',*,*,#231,.T.);
#160=ORIENTED_EDGE('',*,*,#234,.T.);
#161=ORIENTED_EDGE('',*,*,#221,.T.);
#162=ORIENTED_EDGE('',*,*,#235,.T.);
#163=ORIENTED_EDGE('',*,*,#225,.T.);
#164=ORIENTED_EDGE('',*,*,#236,.T.);
#165=ORIENTED_EDGE('',*,*,#228,.T.);
#166=ORIENTED_EDGE('',*,*,#237,.T.);
#167=ORIENTED_EDGE('',*,*,#214,.F.);
#168=ORIENTED_EDGE('',*,*,#222,.F.);
#169=ORIENTED_EDGE('',*,*,#234,.F.);
#170=ORIENTED_EDGE('',*,*,#230,.F.);
#171=ORIENTED_EDGE('',*,*,#216,.F.);
#172=ORIENTED_EDGE('',*,*,#232,.F.);
#173=ORIENTED_EDGE('',*,*,#237,.F.);
#174=ORIENTED_EDGE('',*,*,#227,.F.);
#175=ORIENTED_EDGE('',*,*,#218,.F.);
#176=ORIENTED_EDGE('',*,*,#229,.F.);
#177=ORIENTED_EDGE('',*,*,#236,.F.);
#178=ORIENTED_EDGE('',*,*,#224,.F.);
#179=ORIENTED_EDGE('',*,*,#220,.F.);
#180=ORIENTED_EDGE('',*,*,#226,.F.);
#181=ORIENTED_EDGE('',*,*,#235,.F.);
#182=ORIENTED_EDGE('',*,*,#223,.F.);
#183=ORIENTED_EDGE('',*,*,#238,.T.);
#184=ORIENTED_EDGE('',*,*,#233,.T.);
#185=ORIENTED_EDGE('',*,*,#239,.T.);
#186=ORIENTED_EDGE('',*,*,#240,.T.);
#187=ORIENTED_EDGE('',*,*,#240,.F.);
#188=ORIENTED_EDGE('',*,*,#212,.F.);
#189=ORIENTED_EDGE('',*,*,#239,.F.);
#190=ORIENTED_EDGE('',*,*,#238,.F.);
#191=VERTEX_POINT('',#455);
#192=VERTEX_POINT('',#457);
#193=VERTEX_POINT('',#458);
#194=VERTEX_POINT('',#460);
#195=VERTEX_POINT('',#462);
#196=VERTEX_POINT('',#464);
#197=VERTEX_POINT('',#466);
#198=VERTEX_POINT('',#468);
#199=VERTEX_POINT('',#470);
#200=VERTEX_POINT('',#474);
#201=VERTEX_POINT('',#475);
#202=VERTEX_POINT('',#480);
#203=VERTEX_POINT('',#482);
#204=VERTEX_POINT('',#486);
#205=VERTEX_POINT('',#488);
#206=VERTEX_POINT('',#492);
#207=VERTEX_POINT('',#494);
#208=VERTEX_POINT('',#498);
#209=VERTEX_POINT('',#509);
#210=VERTEX_POINT('',#512);
#211=VERTEX_POINT('',#514);
#212=EDGE_CURVE('',#191,#191,#241,.T.);
#213=EDGE_CURVE('',#192,#193,#69,.T.);
#214=EDGE_CURVE('',#193,#194,#242,.T.);
#215=EDGE_CURVE('',#194,#195,#70,.T.);
#216=EDGE_CURVE('',#195,#196,#243,.T.);
#217=EDGE_CURVE('',#196,#197,#71,.T.);
#218=EDGE_CURVE('',#197,#198,#244,.T.);
#219=EDGE_CURVE('',#198,#199,#72,.T.);
#220=EDGE_CURVE('',#199,#192,#245,.T.);
#221=EDGE_CURVE('',#200,#201,#73,.T.);
#222=EDGE_CURVE('',#200,#193,#74,.T.);
#223=EDGE_CURVE('',#192,#201,#75,.T.);
#224=EDGE_CURVE('',#198,#202,#76,.T.);
#225=EDGE_CURVE('',#203,#202,#77,.T.);
#226=EDGE_CURVE('',#203,#199,#78,.T.);
#227=EDGE_CURVE('',#196,#204,#79,.T.);
#228=EDGE_CURVE('',#205,#204,#80,.T.);
#229=EDGE_CURVE('',#205,#197,#81,.T.);
#230=EDGE_CURVE('',#194,#206,#82,.T.);
#231=EDGE_CURVE('',#207,#206,#83,.T.);
#232=EDGE_CURVE('',#207,#195,#84,.T.);
#233=EDGE_CURVE('',#208,#208,#246,.T.);
#234=EDGE_CURVE('',#206,#200,#247,.T.);
#235=EDGE_CURVE('',#201,#203,#248,.T.);
#236=EDGE_CURVE('',#202,#205,#249,.T.);
#237=EDGE_CURVE('',#204,#207,#250,.T.);
#238=EDGE_CURVE('',#209,#209,#251,.T.);
#239=EDGE_CURVE('',#210,#210,#252,.T.);
#240=EDGE_CURVE('',#211,#211,#253,.T.);
#241=CIRCLE('',#284,2.2);
#242=CIRCLE('',#285,0.7033237739166);
#243=CIRCLE('',#286,0.703323773916599);
#244=CIRCLE('',#287,0.7033237739166);
#245=CIRCLE('',#288,0.7033237739166);
#246=CIRCLE('',#294,3.07132534818238);
#247=CIRCLE('',#295,1.190625);
#248=CIRCLE('',#296,1.190625);
#249=CIRCLE('',#297,1.190625);
#250=CIRCLE('',#298,1.190625);
#251=CIRCLE('',#304,3.00605207333835);
#252=CIRCLE('',#306,2.95049568210277);
#253=CIRCLE('',#307,2.19999999999999);
#254=CURVE_STYLE('',#258,POSITIVE_LENGTH_MEASURE(0.18),#257);
#255=CURVE_STYLE('',#259,POSITIVE_LENGTH_MEASURE(0.18),#279);
#256=CURVE_STYLE('',#260,POSITIVE_LENGTH_MEASURE(0.18),#279);
#257=DRAUGHTING_PRE_DEFINED_COLOUR('blue');
#258=DRAUGHTING_PRE_DEFINED_CURVE_FONT('continuous');
#259=DRAUGHTING_PRE_DEFINED_CURVE_FONT('continuous');
#260=DRAUGHTING_PRE_DEFINED_CURVE_FONT('continuous');
#261=B_SPLINE_CURVE_WITH_KNOTS('CUTTING EDGE LINE',5,(#390,#391,#392,#393,#394,#395,
     #396,#397,#398,#399,#400,#401,#402,#403,#404,#405,#406,#407,#408,#409,#410,
     #411,#412,#413,#414,#415,#416,#417,#418,#419,#420,#421,#422,#423,#424,#425,
     #426,#427,#428,#429,#430,#431,#432,#433,#434,#435,#436,#437,#438,#439,#440,
     #441,#442,#443,#444,#445,#446,#447,#448,#449,#450,#451),.UNSPECIFIED.,.T.,.F.,
     (2,4,1,1,1,1,1,1,1,4,4,1,1,1,1,1,1,1,4,4,1,1,1,1,1,1,1,4,4,1,1,1,1,1,1,1,4,
     4,1,1),(-0.1987562523,0.0,0.00569374975000003,0.0113874995,0.01708124925,0.022774999,
     0.0284687487500001,0.0341624985,0.03985624825,0.045549998,0.2443062502,0.2514234373875,
     0.258540624575,0.2656578117625,0.27277499895,0.2798921861375,0.287009373325,
     0.2941265605125,0.3012437477,0.5,0.50569374975,0.5113874995,0.51708124925,0.522774999,
     0.52846874875,0.5341624985,0.53985624825,0.545549998,0.7443062502,0.7514234373875,
     0.758540624575,0.7656578117625,0.77277499895,0.7798921861375,0.787009373325,
     0.7941265605125,0.8012437477,1.0,1.00569374975,1.0113874995),.UNSPECIFIED.);
#262=PRESENTATION_LAYER_ASSIGNMENT('1','Layer 1',(#261,#282,#283,#31));
#265=STYLED_ITEM('',(#271),#261);
#266=STYLED_ITEM('',(#272),#282);
#267=STYLED_ITEM('',(#273),#283);
#268=STYLED_ITEM('',(#274),#31);
#269=PRESENTATION_STYLE_ASSIGNMENT((#275));
#270=PRESENTATION_STYLE_ASSIGNMENT((#276));
#271=PRESENTATION_STYLE_ASSIGNMENT((#254));
#272=PRESENTATION_STYLE_ASSIGNMENT((#255));
#273=PRESENTATION_STYLE_ASSIGNMENT((#256));
#274=PRESENTATION_STYLE_ASSIGNMENT((#26));
#275=POINT_STYLE('',#277,POSITIVE_LENGTH_MEASURE(3.0),#279);
#276=POINT_STYLE('',#278,POSITIVE_LENGTH_MEASURE(3.0),#279);
#277=PRE_DEFINED_POINT_MARKER_SYMBOL('plus');
#278=PRE_DEFINED_POINT_MARKER_SYMBOL('plus');
#279=COLOUR_RGB('Medium Maroon',0.6,0.4,0.4);
#280=COLOUR_RGB('IsoInsertColor',0.8,0.8,0.8);
#281=AXIS2_PLACEMENT_3D('',#387,#311,#312);
#282=AXIS2_PLACEMENT_3D('PCS',#452,#313,#314);
#283=AXIS2_PLACEMENT_3D('MCS',#453,#315,#316);
#284=AXIS2_PLACEMENT_3D('',#454,#317,#318);
#285=AXIS2_PLACEMENT_3D('',#459,#320,#321);
#286=AXIS2_PLACEMENT_3D('',#463,#323,#324);
#287=AXIS2_PLACEMENT_3D('',#467,#326,#327);
#288=AXIS2_PLACEMENT_3D('',#471,#329,#330);
#289=AXIS2_PLACEMENT_3D('',#472,#331,#332);
#290=AXIS2_PLACEMENT_3D('',#478,#336,#337);
#291=AXIS2_PLACEMENT_3D('',#484,#341,#342);
#292=AXIS2_PLACEMENT_3D('',#490,#346,#347);
#293=AXIS2_PLACEMENT_3D('',#496,#351,#352);
#294=AXIS2_PLACEMENT_3D('',#497,#353,#354);
#295=AXIS2_PLACEMENT_3D('',#499,#355,#356);
#296=AXIS2_PLACEMENT_3D('',#500,#357,#358);
#297=AXIS2_PLACEMENT_3D('',#501,#359,#360);
#298=AXIS2_PLACEMENT_3D('',#502,#361,#362);
#299=AXIS2_PLACEMENT_3D('',#503,#363,#364);
#300=AXIS2_PLACEMENT_3D('',#504,#365,#366);
#301=AXIS2_PLACEMENT_3D('',#505,#367,#368);
#302=AXIS2_PLACEMENT_3D('',#506,#369,#370);
#303=AXIS2_PLACEMENT_3D('',#507,#371,#372);
#304=AXIS2_PLACEMENT_3D('',#508,#373,#374);
#305=AXIS2_PLACEMENT_3D('',#510,#375,#376);
#306=AXIS2_PLACEMENT_3D('',#511,#377,#378);
#307=AXIS2_PLACEMENT_3D('',#513,#379,#380);
#308=AXIS2_PLACEMENT_3D('',#515,#381,#382);
#309=AXIS2_PLACEMENT_3D('',#516,#383,#384);
#310=AXIS2_PLACEMENT_3D('',#517,#385,#386);
#311=DIRECTION('',(0.0,0.0,1.0));
#312=DIRECTION('',(1.0,0.0,0.0));
#313=DIRECTION('',(0.0,0.0,1.0));
#314=DIRECTION('',(1.0,0.0,0.0));
#315=DIRECTION('',(0.0,0.0,1.0));
#316=DIRECTION('',(1.0,0.0,0.0));
#317=DIRECTION('',(0.0,0.0,1.0));
#318=DIRECTION('',(-0.766044443118978,-0.642787609686539,0.0));
#319=DIRECTION('',(1.0,6.66133814775094E-16,0.0));
#320=DIRECTION('',(0.0,0.0,-1.0));
#321=DIRECTION('',(-0.766044443118978,-0.64278760968654,0.0));
#322=DIRECTION('',(-0.173648177666929,-0.984807753012208,0.0));
#323=DIRECTION('',(0.0,0.0,-1.0));
#324=DIRECTION('',(-0.766044443118978,-0.642787609686539,0.0));
#325=DIRECTION('',(-1.0,1.27675647831893E-15,0.0));
#326=DIRECTION('',(0.0,0.0,-1.0));
#327=DIRECTION('',(-0.766044443118978,-0.642787609686539,0.0));
#328=DIRECTION('',(0.17364817766693,0.984807753012208,0.0));
#329=DIRECTION('',(0.0,0.0,-1.0));
#330=DIRECTION('',(-0.766044443118978,-0.642787609686539,0.0));
#331=DIRECTION('',(0.0,0.0,1.0));
#332=DIRECTION('',(-0.766044443118978,-0.642787609686539,0.0));
#333=DIRECTION('',(-1.0,-5.55111512312578E-16,-1.49331675452002E-16));
#334=DIRECTION('',(2.22044604925031E-16,-0.121869343405148,-0.992546151641322));
#335=DIRECTION('',(-2.22044604925031E-16,0.121869343405148,0.992546151641322));
#336=DIRECTION('',(6.10622663543836E-16,-0.992546151641322,0.121869343405148));
#337=DIRECTION('',(1.0,6.66133814775094E-16,0.0));
#338=DIRECTION('',(-0.120017874239897,0.0211623893957697,0.992546151641322));
#339=DIRECTION('',(-0.17364817766693,-0.984807753012208,4.8999484254872E-16));
#340=DIRECTION('',(0.120017874239897,-0.0211623893957697,-0.992546151641322));
#341=DIRECTION('',(0.977467145358805,-0.17235383048284,0.121869343405148));
#342=DIRECTION('',(0.17364817766693,0.984807753012208,0.0));
#343=DIRECTION('',(-3.05311331771918E-16,-0.121869343405147,0.992546151641322));
#344=DIRECTION('',(1.0,-1.27675647831893E-15,1.42515763122859E-16));
#345=DIRECTION('',(3.05311331771918E-16,0.121869343405147,-0.992546151641322));
#346=DIRECTION('',(1.22124532708767E-15,0.992546151641322,0.121869343405147));
#347=DIRECTION('',(-1.0,1.27675647831893E-15,0.0));
#348=DIRECTION('',(0.120017874239896,-0.0211623893957685,0.992546151641322));
#349=DIRECTION('',(0.173648177666929,0.984807753012208,-4.83178930219575E-16));
#350=DIRECTION('',(-0.120017874239896,0.0211623893957685,-0.992546151641322));
#351=DIRECTION('',(-0.977467145358805,0.172353830482839,0.121869343405147));
#352=DIRECTION('',(-0.173648177666929,-0.984807753012208,0.0));
#353=DIRECTION('',(0.0,0.0,1.0));
#354=DIRECTION('',(-0.766044443118978,-0.642787609686539,0.0));
#355=DIRECTION('',(-1.37745668311625E-16,5.15292423860319E-16,1.0));
#356=DIRECTION('',(-0.64278760968654,0.766044443118978,-4.83278106758211E-16));
#357=DIRECTION('',(-1.37745668311625E-16,5.15292423860319E-16,1.0));
#358=DIRECTION('',(-0.642787609686539,0.766044443118978,-4.83278106758211E-16));
#359=DIRECTION('',(-1.37745668311625E-16,5.15292423860319E-16,1.0));
#360=DIRECTION('',(-0.642787609686539,0.766044443118978,-4.83278106758211E-16));
#361=DIRECTION('',(-1.37745668311625E-16,5.15292423860319E-16,1.0));
#362=DIRECTION('',(-0.64278760968654,0.766044443118978,-4.83278106758211E-16));
#363=DIRECTION('',(-1.37745668311625E-16,5.15292423860319E-16,1.0));
#364=DIRECTION('',(-0.642787609686539,0.766044443118978,-4.83278106758211E-16));
#365=DIRECTION('',(-1.37745668311625E-16,5.15292423860319E-16,1.0));
#366=DIRECTION('',(-0.642787609686539,0.766044443118978,-8.67535343683984E-16));
#367=DIRECTION('',(-1.37745668311625E-16,5.15292423860319E-16,1.0));
#368=DIRECTION('',(-0.642787609686539,0.766044443118978,-8.95520354770564E-16));
#369=DIRECTION('',(-1.37745668311625E-16,5.15292423860319E-16,1.0));
#370=DIRECTION('',(-0.642787609686539,0.766044443118978,-8.81527849227274E-16));
#371=DIRECTION('',(-1.37745668311625E-16,5.15292423860319E-16,1.0));
#372=DIRECTION('',(-0.642787609686539,0.766044443118978,-8.53542838140694E-16));
#373=DIRECTION('',(0.0,0.0,-1.0));
#374=DIRECTION('',(0.766044443118978,0.642787609686539,0.0));
#375=DIRECTION('',(0.0,0.0,1.0));
#376=DIRECTION('',(-0.766044443118978,-0.642787609686539,5.70892409964829E-16));
#377=DIRECTION('',(0.0,0.0,1.0));
#378=DIRECTION('',(0.766044443118978,0.642787609686539,0.0));
#379=DIRECTION('',(0.0,0.0,-1.0));
#380=DIRECTION('',(-0.766044443118978,-0.642787609686539,0.0));
#381=DIRECTION('',(0.0,0.0,1.0));
#382=DIRECTION('',(-0.766044443118978,-0.642787609686539,0.0));
#383=DIRECTION('',(0.0,0.0,1.0));
#384=DIRECTION('',(-0.766044443118978,-0.642787609686539,0.0));
#385=DIRECTION('',(0.0,0.0,-1.0));
#386=DIRECTION('',(0.766044443118978,0.642787609686539,0.0));
#387=CARTESIAN_POINT('',(0.0,0.0,0.0));
#390=CARTESIAN_POINT('',(7.22209470810948,3.64153152077051E-14,0.0));
#391=CARTESIAN_POINT('',(8.71115142973038,3.28626015289046E-14,6.18791010999753E-16));
#392=CARTESIAN_POINT('',(8.78768332950868,0.00307460980773389,6.27329799771474E-16));
#393=CARTESIAN_POINT('',(8.90914097123008,0.0174432807981333,6.3469868481779E-16));
#394=CARTESIAN_POINT('',(9.06864953117142,0.0580398070386998,6.30221124815341E-16));
#395=CARTESIAN_POINT('',(9.26531201765488,0.146355343475939,5.99771791664651E-16));
#396=CARTESIAN_POINT('',(9.44453643483106,0.271007202162102,5.43246845995073E-16));
#397=CARTESIAN_POINT('',(9.59841654512873,0.425863229622766,4.63552416833002E-16));
#398=CARTESIAN_POINT('',(9.71954045251679,0.604202139076248,3.64046554743758E-16));
#399=CARTESIAN_POINT('',(9.78721859705994,0.754237892776811,2.75618650237553E-16));
#400=CARTESIAN_POINT('',(9.82245987380044,0.871355226473851,2.04169493237004E-16));
#401=CARTESIAN_POINT('',(9.83877739830645,0.946190534338134,1.57660969783494E-16));
#402=CARTESIAN_POINT('',(10.0973493844586,2.41262513846534,8.04145478714695E-17));
#403=CARTESIAN_POINT('',(10.3492765581458,3.84137513846533,5.36096985809797E-17));
#404=CARTESIAN_POINT('',(10.601203731833,5.27012513846532,5.36096985809797E-17));
#405=CARTESIAN_POINT('',(10.8531309055203,6.69887513846531,8.04145478714696E-17));
#406=CARTESIAN_POINT('',(11.1129770583347,8.1725359008194,1.16280332184676E-16));
#407=CARTESIAN_POINT('',(11.1245145615969,8.26311571177204,8.0840748842926E-17));
#408=CARTESIAN_POINT('',(11.1298902378905,8.41342816707481,2.31108214371266E-17));
#409=CARTESIAN_POINT('',(11.1040358975036,8.61645804520345,-5.22683433003192E-17));
#410=CARTESIAN_POINT('',(11.0115743277814,8.87522449373139,-1.43672656108816E-16));
#411=CARTESIAN_POINT('',(10.8570707656448,9.11016407511817,-2.21125826098337E-16));
#412=CARTESIAN_POINT('',(10.6525297064137,9.30311721114807,-2.7864601452573E-16));
#413=CARTESIAN_POINT('',(10.4137502847699,9.43910840409427,-3.11763018537401E-16));
#414=CARTESIAN_POINT('',(10.2182944457905,9.49982572730536,-3.19579580413075E-16));
#415=CARTESIAN_POINT('',(10.0693320980406,9.5206332035577,-3.158272761682E-16));
#416=CARTESIAN_POINT('',(9.97812493153173,9.52499999999999,-3.1033740206141E-16));
#417=CARTESIAN_POINT('',(8.48173057654556,9.52499999999999,-1.84056012647608E-16));
#418=CARTESIAN_POINT('',(7.03093980481381,9.52499999999999,-1.22704008431739E-16));
#419=CARTESIAN_POINT('',(5.58014903308207,9.52499999999999,-1.22704008431739E-16));
#420=CARTESIAN_POINT('',(4.12935826135032,9.52499999999999,-1.84056012647608E-16));
#421=CARTESIAN_POINT('',(2.64030153972942,9.52499999999999,-3.23780580396352E-16));
#422=CARTESIAN_POINT('',(2.56376963995112,9.52192539019228,-3.55652086624207E-16));
#423=CARTESIAN_POINT('',(2.44231199822972,9.50755671920188,-3.9953669846248E-16));
#424=CARTESIAN_POINT('',(2.28280343828838,9.46696019296132,-4.41838418846862E-16));
#425=CARTESIAN_POINT('',(2.08614095180492,9.37864465652408,-4.66992937734324E-16));
#426=CARTESIAN_POINT('',(1.90691653462874,9.25399279783791,-4.5875017380801E-16));
#427=CARTESIAN_POINT('',(1.75303642433107,9.09913677037726,-4.17920642541231E-16));
#428=CARTESIAN_POINT('',(1.63191251694302,8.92079786092377,-3.45950465377783E-16));
#429=CARTESIAN_POINT('',(1.56423437239986,8.77076210722321,-2.70180052415412E-16));
#430=CARTESIAN_POINT('',(1.52899309565936,8.65364477352617,-2.03210868171131E-16));
#431=CARTESIAN_POINT('',(1.51267557115336,8.57880946566188,-1.57660969783494E-16));
#432=CARTESIAN_POINT('',(1.25410358500119,7.11237486153468,-8.04145478714696E-17));
#433=CARTESIAN_POINT('',(1.00217641131398,5.6836248615347,-5.36096985809798E-17));
#434=CARTESIAN_POINT('',(0.75024923762676,4.25487486153471,-5.36096985809798E-17));
#435=CARTESIAN_POINT('',(0.498322063939542,2.82612486153472,-8.04145478714696E-17));
#436=CARTESIAN_POINT('',(0.238475911125112,1.35246409918064,-1.16280332184676E-16));
#437=CARTESIAN_POINT('',(0.226938407862886,1.261884288228,-8.08407488429261E-17));
#438=CARTESIAN_POINT('',(0.221562731569271,1.11157183292522,-2.31108214371266E-17));
#439=CARTESIAN_POINT('',(0.247417071956232,0.908541954796588,5.2268343300319E-17));
#440=CARTESIAN_POINT('',(0.339878641678363,0.649775506268642,1.43672656108816E-16));
#441=CARTESIAN_POINT('',(0.494382203815047,0.414835924881862,2.21125826098337E-16));
#442=CARTESIAN_POINT('',(0.698923263046075,0.221882788851966,2.7864601452573E-16));
#443=CARTESIAN_POINT('',(0.937702684689864,0.0858915959057631,3.11763018537401E-16));
#444=CARTESIAN_POINT('',(1.13315852366932,0.0251742726946755,3.19579580413075E-16));
#445=CARTESIAN_POINT('',(1.2821208714192,0.00436679644233706,3.158272761682E-16));
#446=CARTESIAN_POINT('',(1.37332803792806,4.2632564145606E-14,3.1033740206141E-16));
#447=CARTESIAN_POINT('',(2.86972239291423,4.17443857259059E-14,1.84056012647608E-16));
#448=CARTESIAN_POINT('',(4.32051316464598,3.99680288865056E-14,9.20280063238039E-17));
#449=CARTESIAN_POINT('',(5.77130393637773,3.81916720471054E-14,3.06760021079346E-17));
#450=CARTESIAN_POINT('',(7.22209470810948,3.64153152077051E-14,0.0));
#451=CARTESIAN_POINT('',(8.71115142973038,3.28626015289046E-14,6.18791010999753E-16));
#452=CARTESIAN_POINT('',(0.0,0.0,0.0));
#453=CARTESIAN_POINT('',(5.67572648472992,4.7625,0.0));
#454=CARTESIAN_POINT('',(5.67572648472992,4.7625,-3.96875));
#455=CARTESIAN_POINT('',(3.99042870986817,3.34836725868961,-3.96875));
#456=CARTESIAN_POINT('',(5.6757264847299,9.03769877391658,-3.96875));
#457=CARTESIAN_POINT('',(2.67856748961857,9.03769877391658,-3.96875));
#458=CARTESIAN_POINT('',(9.93252134827731,9.03769877391658,-3.96875));
#459=CARTESIAN_POINT('',(9.93252134827731,8.33437499999999,-3.96875));
#460=CARTESIAN_POINT('',(10.6251600537082,8.21224410834954,-3.96875));
#461=CARTESIAN_POINT('',(9.88597538295123,4.02011952374551,-3.96875));
#462=CARTESIAN_POINT('',(9.3655241852721,1.06849410834959,-3.96875));
#463=CARTESIAN_POINT('',(8.67288547984123,1.19062500000004,-3.96875));
#464=CARTESIAN_POINT('',(8.67288547984123,0.487301226083434,-3.96875));
#465=CARTESIAN_POINT('',(5.6757264847299,0.487301226083438,-3.96875));
#466=CARTESIAN_POINT('',(1.41893162118249,0.487301226083443,-3.96875));
#467=CARTESIAN_POINT('',(1.41893162118249,1.19062500000005,-3.96875));
#468=CARTESIAN_POINT('',(0.726292915751616,1.31275589165049,-3.96875));
#469=CARTESIAN_POINT('',(1.46547758650857,5.50488047625452,-3.96875));
#470=CARTESIAN_POINT('',(1.9859287841877,8.45650589165043,-3.96875));
#471=CARTESIAN_POINT('',(2.67856748961858,8.33437499999999,-3.96875));
#472=CARTESIAN_POINT('',(5.62950517219276,4.23418798019793,-3.96875));
#473=CARTESIAN_POINT('',(5.67572648472992,9.52499999999999,-5.38749756651153E-15));
#474=CARTESIAN_POINT('',(9.93252134827731,9.52499999999999,-4.8011425131667E-15));
#475=CARTESIAN_POINT('',(2.67856748961857,9.52499999999998,-5.80034323532934E-15));
#476=CARTESIAN_POINT('',(9.93252134827731,9.52499999999999,-4.26191340637844E-15));
#477=CARTESIAN_POINT('',(2.67856748961857,9.52499999999998,-5.15837745794002E-15));
#478=CARTESIAN_POINT('',(5.6757264847299,9.52499999999999,-5.38749756651153E-15));
#479=CARTESIAN_POINT('',(0.246394890252326,1.39737486153473,-1.7461329877975E-15));
#480=CARTESIAN_POINT('',(0.246394890252326,1.39737486153473,-1.94726081765045E-15));
#481=CARTESIAN_POINT('',(0.985579561009281,5.58949944613875,-4.00561136949636E-15));
#482=CARTESIAN_POINT('',(1.50603075868841,8.54112486153467,-5.45487168607555E-15));
#483=CARTESIAN_POINT('',(1.50603075868841,8.54112486153467,-5.24867223740742E-15));
#484=CARTESIAN_POINT('',(0.985579561009283,5.58949944613876,-4.00561136949637E-15));
#485=CARTESIAN_POINT('',(8.67288547984123,3.38271077815477E-14,-9.3972379707498E-17));
#486=CARTESIAN_POINT('',(8.67288547984123,3.38271077815477E-14,-6.64915604242107E-17));
#487=CARTESIAN_POINT('',(5.67572648472992,3.90312782094782E-14,-4.7933722924202E-16));
#488=CARTESIAN_POINT('',(1.41893162118249,4.33680868994202E-14,-1.06569228258686E-15));
#489=CARTESIAN_POINT('',(1.41893162118249,4.33680868994202E-14,-9.06250173101383E-16));
#490=CARTESIAN_POINT('',(5.6757264847299,3.72965547335014E-14,-4.79337229242023E-16));
#491=CARTESIAN_POINT('',(11.1050580792075,8.1276251384653,-3.52790405800995E-15));
#492=CARTESIAN_POINT('',(11.1050580792075,8.1276251384653,-3.91957397810311E-15));
#493=CARTESIAN_POINT('',(10.3658734084505,3.93550055386126,-1.86122342625719E-15));
#494=CARTESIAN_POINT('',(9.84542221077139,0.983875138465348,-4.11963109678005E-16));
#495=CARTESIAN_POINT('',(9.84542221077139,0.983875138465348,-5.48757303413797E-17));
#496=CARTESIAN_POINT('',(10.3658734084505,3.93550055386127,-1.86122342625719E-15));
#497=CARTESIAN_POINT('',(5.67572648472992,4.7625,0.0));
#498=CARTESIAN_POINT('',(3.32295476874435,2.78829012087217,0.0));
#499=CARTESIAN_POINT('',(9.93252134827731,8.33437499999999,-4.18762247100801E-15));
#500=CARTESIAN_POINT('',(2.67856748961857,8.33437499999998,-5.18682319317065E-15));
#501=CARTESIAN_POINT('',(1.41893162118249,1.19062500000004,-1.67921232474555E-15));
#502=CARTESIAN_POINT('',(8.67288547984123,1.19062500000004,-6.80011602582903E-16));
#503=CARTESIAN_POINT('',(5.67572648472992,4.7625,-2.93341739787677E-15));
#504=CARTESIAN_POINT('',(9.93252134827731,8.33437499999999,-3.46944695195361E-15));
#505=CARTESIAN_POINT('',(8.67288547984123,1.19062500000004,0.0));
#506=CARTESIAN_POINT('',(1.41893162118249,1.19062500000004,-1.73472347597681E-15));
#507=CARTESIAN_POINT('',(2.67856748961857,8.33437499999998,-5.20417042793042E-15));
#508=CARTESIAN_POINT('',(5.67572648472992,4.7625,-0.933451318981107));
#509=CARTESIAN_POINT('',(7.97849597123705,6.69475302681442,-0.933451318981107));
#510=CARTESIAN_POINT('',(5.67572648472992,4.7625,-1.02000000000517));
#511=CARTESIAN_POINT('',(5.67572648472992,4.7625,-1.08746453661102));
#512=CARTESIAN_POINT('',(7.93593730645129,6.65904206688929,-1.08746453661102));
#513=CARTESIAN_POINT('',(5.67572648472992,4.7625,-3.42000000000001));
#514=CARTESIAN_POINT('',(3.99042870986817,3.34836725868961,-3.42000000000001));
#515=CARTESIAN_POINT('',(5.67572648472992,4.7625,-3.42000000000001));
#516=CARTESIAN_POINT('',(5.67572648472992,4.7625,-33.3676978394524));
#517=CARTESIAN_POINT('',(5.67572648472992,4.7625,-0.912524376856847));
#518=MECHANICAL_DESIGN_GEOMETRIC_PRESENTATION_REPRESENTATION('',(#265,#266,#267,
     #268),#519);
#519=(GEOMETRIC_REPRESENTATION_CONTEXT(3)GLOBAL_UNCERTAINTY_ASSIGNED_CONTEXT((#520))
     GLOBAL_UNIT_ASSIGNED_CONTEXT((#526,#522,#521))REPRESENTATION_CONTEXT('CCGW09T312',
     'TOP_LEVEL_ASSEMBLY_PART'));
#520=UNCERTAINTY_MEASURE_WITH_UNIT(LENGTH_MEASURE(2.0E-5),#526,'DISTANCE_ACCURACY_VALUE',
     'Maximum Tolerance applied to model');
#521=(NAMED_UNIT(*)SI_UNIT($,.STERADIAN.)SOLID_ANGLE_UNIT());
#522=(CONVERSION_BASED_UNIT('DEGREE',#524)NAMED_UNIT(#523)PLANE_ANGLE_UNIT());
#523=DIMENSIONAL_EXPONENTS(0.0,0.0,0.0,0.0,0.0,0.0,0.0);
#524=PLANE_ANGLE_MEASURE_WITH_UNIT(PLANE_ANGLE_MEASURE(0.0174532925),#525);
#525=(NAMED_UNIT(*)PLANE_ANGLE_UNIT()SI_UNIT($,.RADIAN.));
#526=(LENGTH_UNIT()NAMED_UNIT(*)SI_UNIT(.MILLI.,.METRE.));
#527=CONSTRUCTIVE_GEOMETRY_REPRESENTATION('supplemental geometry',(#282,#283),#519);
#528=CONSTRUCTIVE_GEOMETRY_REPRESENTATION_RELATIONSHIP('supplemental geometry','contains PCS and MCS coordinate systems',
     #24,#527);
ENDSEC;
END-ISO-10303-21;
