ISO-10303-21;
HEADER;
FILE_DESCRIPTION(
/* description */ (''),
/* implementation_level */ '2;1');
FILE_NAME(
/* name */ 'DNGA150416.stp',
/* time_stamp */ '2017-03-21T10:54:05',
/* author */ ('Sandvik Coromant R&D'),
/* organization */ ('Sandvik Machining Solutions'),
/* preprocessor_version */ 'ST-DEVELOPER v15',
/* originating_system */ 'SIEMENS PLM Software NX v8.5.3.3(64 bits)',
/* authorization */ '');
FILE_SCHEMA(('AUTOMOTIVE_DESIGN'));
ENDSEC;
DATA;
#10=GEOMETRICALLY_BOUNDED_WIREFRAME_SHAPE_REPRESENTATION('IsoTurningInsert-None',
     (#25),#467);
#11=SHAPE_REPRESENTATION_RELATIONSHIP('None','relationship between IsoTurningInsert-None and IsoTurningInsert-None',
     #24,#13);
#12=SHAPE_REPRESENTATION_RELATIONSHIP('None','relationship between IsoTurningInsert-None and IsoTurningInsert-None',
     #24,#10);
#13=ADVANCED_BREP_SHAPE_REPRESENTATION('IsoTurningInsert-None',(#31),#467);
#14=SHAPE_DEFINITION_REPRESENTATION(#15,#24);
#15=PRODUCT_DEFINITION_SHAPE('','',#16);
#16=PRODUCT_DEFINITION(' ','',#18,#17);
#17=PRODUCT_DEFINITION_CONTEXT('part definition',#23,'design');
#18=PRODUCT_DEFINITION_FORMATION_WITH_SPECIFIED_SOURCE(' ',' ',#20,.NOT_KNOWN.);
#19=PRODUCT_RELATED_PRODUCT_CATEGORY('part','',(#20));
#20=PRODUCT('IsoTurningInsert','IsoTurningInsert',' ',(#21));
#21=PRODUCT_CONTEXT(' ',#23,'mechanical');
#22=APPLICATION_PROTOCOL_DEFINITION('international standard','automotive_design',
     2010,#23);
#23=APPLICATION_CONTEXT('core data for automotive mechanical design processes');
#24=SHAPE_REPRESENTATION('IsoTurningInsert-None',(#248),#467);
#25=GEOMETRIC_CURVE_SET('geometric curve set',(#228));
#26=SURFACE_STYLE_USAGE(.BOTH.,#27);
#27=SURFACE_SIDE_STYLE('',(#28));
#28=SURFACE_STYLE_FILL_AREA(#29);
#29=FILL_AREA_STYLE('',(#30));
#30=FILL_AREA_STYLE_COLOUR('',#247);
#31=MANIFOLD_SOLID_BREP('CUT',#32);
#32=CLOSED_SHELL('',(#46,#47,#48,#49,#50,#51,#52,#53,#54,#55,#56));
#33=CYLINDRICAL_SURFACE('',#267,1.5875);
#34=CYLINDRICAL_SURFACE('',#268,1.5875);
#35=CYLINDRICAL_SURFACE('',#269,1.5875);
#36=CYLINDRICAL_SURFACE('',#270,1.5875);
#37=CYLINDRICAL_SURFACE('',#271,2.578);
#38=FACE_OUTER_BOUND('',#103,.T.);
#39=FACE_OUTER_BOUND('',#104,.T.);
#40=FACE_OUTER_BOUND('',#105,.T.);
#41=FACE_OUTER_BOUND('',#106,.T.);
#42=FACE_OUTER_BOUND('',#109,.T.);
#43=FACE_OUTER_BOUND('',#110,.T.);
#44=FACE_OUTER_BOUND('',#111,.T.);
#45=FACE_OUTER_BOUND('',#112,.T.);
#46=ADVANCED_FACE('',(#95,#96),#57,.F.);
#47=ADVANCED_FACE('',(#38),#58,.T.);
#48=ADVANCED_FACE('',(#39),#59,.T.);
#49=ADVANCED_FACE('',(#40),#60,.T.);
#50=ADVANCED_FACE('',(#41),#61,.T.);
#51=ADVANCED_FACE('',(#97,#98),#62,.T.);
#52=ADVANCED_FACE('',(#42),#33,.T.);
#53=ADVANCED_FACE('',(#43),#34,.T.);
#54=ADVANCED_FACE('',(#44),#35,.T.);
#55=ADVANCED_FACE('',(#45),#36,.T.);
#56=ADVANCED_FACE('',(#99,#100),#37,.F.);
#57=PLANE('',#256);
#58=PLANE('',#257);
#59=PLANE('',#258);
#60=PLANE('',#259);
#61=PLANE('',#260);
#62=PLANE('',#266);
#63=LINE('',#413,#79);
#64=LINE('',#418,#80);
#65=LINE('',#422,#81);
#66=LINE('',#426,#82);
#67=LINE('',#430,#83);
#68=LINE('',#433,#84);
#69=LINE('',#434,#85);
#70=LINE('',#436,#86);
#71=LINE('',#438,#87);
#72=LINE('',#440,#88);
#73=LINE('',#442,#89);
#74=LINE('',#444,#90);
#75=LINE('',#446,#91);
#76=LINE('',#448,#92);
#77=LINE('',#450,#93);
#78=LINE('',#452,#94);
#79=VECTOR('',#280,1.0);
#80=VECTOR('',#283,1.0);
#81=VECTOR('',#286,1.0);
#82=VECTOR('',#289,1.0);
#83=VECTOR('',#294,1.0);
#84=VECTOR('',#295,1.0);
#85=VECTOR('',#296,1.0);
#86=VECTOR('',#299,1.0);
#87=VECTOR('',#300,1.0);
#88=VECTOR('',#301,1.0);
#89=VECTOR('',#304,1.0);
#90=VECTOR('',#305,1.0);
#91=VECTOR('',#306,1.0);
#92=VECTOR('',#309,1.0);
#93=VECTOR('',#310,1.0);
#94=VECTOR('',#311,1.0);
#95=FACE_BOUND('',#101,.T.);
#96=FACE_BOUND('',#102,.T.);
#97=FACE_BOUND('',#107,.T.);
#98=FACE_BOUND('',#108,.T.);
#99=FACE_BOUND('',#113,.T.);
#100=FACE_BOUND('',#114,.T.);
#101=EDGE_LOOP('',(#115));
#102=EDGE_LOOP('',(#116,#117,#118,#119,#120,#121,#122,#123));
#103=EDGE_LOOP('',(#124,#125,#126,#127));
#104=EDGE_LOOP('',(#128,#129,#130,#131));
#105=EDGE_LOOP('',(#132,#133,#134,#135));
#106=EDGE_LOOP('',(#136,#137,#138,#139));
#107=EDGE_LOOP('',(#140));
#108=EDGE_LOOP('',(#141,#142,#143,#144,#145,#146,#147,#148));
#109=EDGE_LOOP('',(#149,#150,#151,#152));
#110=EDGE_LOOP('',(#153,#154,#155,#156));
#111=EDGE_LOOP('',(#157,#158,#159,#160));
#112=EDGE_LOOP('',(#161,#162,#163,#164));
#113=EDGE_LOOP('',(#165));
#114=EDGE_LOOP('',(#166));
#115=ORIENTED_EDGE('',*,*,#185,.T.);
#116=ORIENTED_EDGE('',*,*,#186,.T.);
#117=ORIENTED_EDGE('',*,*,#187,.T.);
#118=ORIENTED_EDGE('',*,*,#188,.T.);
#119=ORIENTED_EDGE('',*,*,#189,.T.);
#120=ORIENTED_EDGE('',*,*,#190,.T.);
#121=ORIENTED_EDGE('',*,*,#191,.T.);
#122=ORIENTED_EDGE('',*,*,#192,.T.);
#123=ORIENTED_EDGE('',*,*,#193,.T.);
#124=ORIENTED_EDGE('',*,*,#194,.F.);
#125=ORIENTED_EDGE('',*,*,#195,.T.);
#126=ORIENTED_EDGE('',*,*,#186,.F.);
#127=ORIENTED_EDGE('',*,*,#196,.T.);
#128=ORIENTED_EDGE('',*,*,#192,.F.);
#129=ORIENTED_EDGE('',*,*,#197,.T.);
#130=ORIENTED_EDGE('',*,*,#198,.F.);
#131=ORIENTED_EDGE('',*,*,#199,.T.);
#132=ORIENTED_EDGE('',*,*,#190,.F.);
#133=ORIENTED_EDGE('',*,*,#200,.T.);
#134=ORIENTED_EDGE('',*,*,#201,.F.);
#135=ORIENTED_EDGE('',*,*,#202,.T.);
#136=ORIENTED_EDGE('',*,*,#188,.F.);
#137=ORIENTED_EDGE('',*,*,#203,.T.);
#138=ORIENTED_EDGE('',*,*,#204,.F.);
#139=ORIENTED_EDGE('',*,*,#205,.T.);
#140=ORIENTED_EDGE('',*,*,#206,.F.);
#141=ORIENTED_EDGE('',*,*,#204,.T.);
#142=ORIENTED_EDGE('',*,*,#207,.T.);
#143=ORIENTED_EDGE('',*,*,#194,.T.);
#144=ORIENTED_EDGE('',*,*,#208,.T.);
#145=ORIENTED_EDGE('',*,*,#198,.T.);
#146=ORIENTED_EDGE('',*,*,#209,.T.);
#147=ORIENTED_EDGE('',*,*,#201,.T.);
#148=ORIENTED_EDGE('',*,*,#210,.T.);
#149=ORIENTED_EDGE('',*,*,#187,.F.);
#150=ORIENTED_EDGE('',*,*,#195,.F.);
#151=ORIENTED_EDGE('',*,*,#207,.F.);
#152=ORIENTED_EDGE('',*,*,#203,.F.);
#153=ORIENTED_EDGE('',*,*,#189,.F.);
#154=ORIENTED_EDGE('',*,*,#205,.F.);
#155=ORIENTED_EDGE('',*,*,#210,.F.);
#156=ORIENTED_EDGE('',*,*,#200,.F.);
#157=ORIENTED_EDGE('',*,*,#191,.F.);
#158=ORIENTED_EDGE('',*,*,#202,.F.);
#159=ORIENTED_EDGE('',*,*,#209,.F.);
#160=ORIENTED_EDGE('',*,*,#197,.F.);
#161=ORIENTED_EDGE('',*,*,#193,.F.);
#162=ORIENTED_EDGE('',*,*,#199,.F.);
#163=ORIENTED_EDGE('',*,*,#208,.F.);
#164=ORIENTED_EDGE('',*,*,#196,.F.);
#165=ORIENTED_EDGE('',*,*,#185,.F.);
#166=ORIENTED_EDGE('',*,*,#206,.T.);
#167=VERTEX_POINT('',#412);
#168=VERTEX_POINT('',#414);
#169=VERTEX_POINT('',#415);
#170=VERTEX_POINT('',#417);
#171=VERTEX_POINT('',#419);
#172=VERTEX_POINT('',#421);
#173=VERTEX_POINT('',#423);
#174=VERTEX_POINT('',#425);
#175=VERTEX_POINT('',#427);
#176=VERTEX_POINT('',#431);
#177=VERTEX_POINT('',#432);
#178=VERTEX_POINT('',#437);
#179=VERTEX_POINT('',#439);
#180=VERTEX_POINT('',#443);
#181=VERTEX_POINT('',#445);
#182=VERTEX_POINT('',#449);
#183=VERTEX_POINT('',#451);
#184=VERTEX_POINT('',#455);
#185=EDGE_CURVE('',#167,#167,#211,.T.);
#186=EDGE_CURVE('',#168,#169,#63,.T.);
#187=EDGE_CURVE('',#169,#170,#212,.T.);
#188=EDGE_CURVE('',#170,#171,#64,.T.);
#189=EDGE_CURVE('',#171,#172,#213,.T.);
#190=EDGE_CURVE('',#172,#173,#65,.T.);
#191=EDGE_CURVE('',#173,#174,#214,.T.);
#192=EDGE_CURVE('',#174,#175,#66,.T.);
#193=EDGE_CURVE('',#175,#168,#215,.T.);
#194=EDGE_CURVE('',#176,#177,#67,.T.);
#195=EDGE_CURVE('',#176,#169,#68,.T.);
#196=EDGE_CURVE('',#168,#177,#69,.T.);
#197=EDGE_CURVE('',#174,#178,#70,.T.);
#198=EDGE_CURVE('',#179,#178,#71,.T.);
#199=EDGE_CURVE('',#179,#175,#72,.T.);
#200=EDGE_CURVE('',#172,#180,#73,.T.);
#201=EDGE_CURVE('',#181,#180,#74,.T.);
#202=EDGE_CURVE('',#181,#173,#75,.T.);
#203=EDGE_CURVE('',#170,#182,#76,.T.);
#204=EDGE_CURVE('',#183,#182,#77,.T.);
#205=EDGE_CURVE('',#183,#171,#78,.T.);
#206=EDGE_CURVE('',#184,#184,#216,.T.);
#207=EDGE_CURVE('',#182,#176,#217,.T.);
#208=EDGE_CURVE('',#177,#179,#218,.T.);
#209=EDGE_CURVE('',#178,#181,#219,.T.);
#210=EDGE_CURVE('',#180,#183,#220,.T.);
#211=CIRCLE('',#251,2.578);
#212=CIRCLE('',#252,1.5875);
#213=CIRCLE('',#253,1.5875);
#214=CIRCLE('',#254,1.5875);
#215=CIRCLE('',#255,1.5875);
#216=CIRCLE('',#261,2.578);
#217=CIRCLE('',#262,1.5875);
#218=CIRCLE('',#263,1.5875);
#219=CIRCLE('',#264,1.5875);
#220=CIRCLE('',#265,1.5875);
#221=CURVE_STYLE('',#225,POSITIVE_LENGTH_MEASURE(0.18),#224);
#222=CURVE_STYLE('',#226,POSITIVE_LENGTH_MEASURE(0.18),#246);
#223=CURVE_STYLE('',#227,POSITIVE_LENGTH_MEASURE(0.18),#246);
#224=DRAUGHTING_PRE_DEFINED_COLOUR('blue');
#225=DRAUGHTING_PRE_DEFINED_CURVE_FONT('continuous');
#226=DRAUGHTING_PRE_DEFINED_CURVE_FONT('continuous');
#227=DRAUGHTING_PRE_DEFINED_CURVE_FONT('continuous');
#228=B_SPLINE_CURVE_WITH_KNOTS('CUTTING EDGE LINE',5,(#339,#340,#341,#342,#343,#344,
     #345,#346,#347,#348,#349,#350,#351,#352,#353,#354,#355,#356,#357,#358,#359,
     #360,#361,#362,#363,#364,#365,#366,#367,#368,#369,#370,#371,#372,#373,#374,
     #375,#376,#377,#378,#379,#380,#381,#382,#383,#384,#385,#386,#387,#388,#389,
     #390,#391,#392,#393,#394,#395,#396,#397,#398,#399,#400,#401,#402,#403,#404,
     #405,#406,#407,#408),.UNSPECIFIED.,.T.,.F.,(2,4,1,1,1,4,4,1,1,1,1,1,1,1,1,1,
     1,1,1,1,1,1,4,4,1,1,1,4,4,1,1,1,1,1,1,1,1,1,1,1,1,1,1,1,4,4,1,1),(-0.2058539082,
     0.0,0.00674454179999995,0.0134890836000096,0.0202336254,0.0269781672,0.2328320753,
     0.23666420133125,0.2404963273625,0.24432845339375,0.248160579425,0.25199270545625,
     0.2558248314875,0.25965695751875,0.26348908355,0.26732120958125,0.2711533356125,
     0.27498546164375,0.278817587675,0.28264971370625,0.2864818397375,0.29031396576875,
     0.2941460918,0.5,0.5067445418,0.513489083600003,0.5202336254,0.5269781672,0.7328320753,
     0.73666420133125,0.7404963273625,0.74432845339375,0.748160579425,0.75199270545625,
     0.7558248314875,0.75965695751875,0.76348908355,0.76732120958125,0.7711533356125,
     0.77498546164375,0.778817587675,0.78264971370625,0.7864818397375,0.79031396576875,
     0.7941460918,1.0,1.0067445418,1.01348908360001),.UNSPECIFIED.);
#229=PRESENTATION_LAYER_ASSIGNMENT('1','Layer 1',(#228,#249,#250,#31));
#232=STYLED_ITEM('',(#238),#228);
#233=STYLED_ITEM('',(#239),#249);
#234=STYLED_ITEM('',(#240),#250);
#235=STYLED_ITEM('',(#241),#31);
#236=PRESENTATION_STYLE_ASSIGNMENT((#242));
#237=PRESENTATION_STYLE_ASSIGNMENT((#243));
#238=PRESENTATION_STYLE_ASSIGNMENT((#221));
#239=PRESENTATION_STYLE_ASSIGNMENT((#222));
#240=PRESENTATION_STYLE_ASSIGNMENT((#223));
#241=PRESENTATION_STYLE_ASSIGNMENT((#26));
#242=POINT_STYLE('',#244,POSITIVE_LENGTH_MEASURE(3.0),#246);
#243=POINT_STYLE('',#245,POSITIVE_LENGTH_MEASURE(3.0),#246);
#244=PRE_DEFINED_POINT_MARKER_SYMBOL('plus');
#245=PRE_DEFINED_POINT_MARKER_SYMBOL('plus');
#246=COLOUR_RGB('Medium Maroon',0.6,0.4,0.4);
#247=COLOUR_RGB('IsoInsertColor',0.8,0.8,0.8);
#248=AXIS2_PLACEMENT_3D('',#336,#272,#273);
#249=AXIS2_PLACEMENT_3D('PCS',#409,#274,#275);
#250=AXIS2_PLACEMENT_3D('MCS',#410,#276,#277);
#251=AXIS2_PLACEMENT_3D('',#411,#278,#279);
#252=AXIS2_PLACEMENT_3D('',#416,#281,#282);
#253=AXIS2_PLACEMENT_3D('',#420,#284,#285);
#254=AXIS2_PLACEMENT_3D('',#424,#287,#288);
#255=AXIS2_PLACEMENT_3D('',#428,#290,#291);
#256=AXIS2_PLACEMENT_3D('',#429,#292,#293);
#257=AXIS2_PLACEMENT_3D('',#435,#297,#298);
#258=AXIS2_PLACEMENT_3D('',#441,#302,#303);
#259=AXIS2_PLACEMENT_3D('',#447,#307,#308);
#260=AXIS2_PLACEMENT_3D('',#453,#312,#313);
#261=AXIS2_PLACEMENT_3D('',#454,#314,#315);
#262=AXIS2_PLACEMENT_3D('',#456,#316,#317);
#263=AXIS2_PLACEMENT_3D('',#457,#318,#319);
#264=AXIS2_PLACEMENT_3D('',#458,#320,#321);
#265=AXIS2_PLACEMENT_3D('',#459,#322,#323);
#266=AXIS2_PLACEMENT_3D('',#460,#324,#325);
#267=AXIS2_PLACEMENT_3D('',#461,#326,#327);
#268=AXIS2_PLACEMENT_3D('',#462,#328,#329);
#269=AXIS2_PLACEMENT_3D('',#463,#330,#331);
#270=AXIS2_PLACEMENT_3D('',#464,#332,#333);
#271=AXIS2_PLACEMENT_3D('',#465,#334,#335);
#272=DIRECTION('',(0.0,0.0,1.0));
#273=DIRECTION('',(1.0,0.0,0.0));
#274=DIRECTION('',(0.0,0.0,1.0));
#275=DIRECTION('',(1.0,0.0,0.0));
#276=DIRECTION('',(0.0,0.0,1.0));
#277=DIRECTION('',(1.0,0.0,0.0));
#278=DIRECTION('',(0.0,0.0,1.0));
#279=DIRECTION('',(-0.887010833178221,-0.461748613235034,0.0));
#280=DIRECTION('',(1.0,-2.22044604925031E-16,0.0));
#281=DIRECTION('',(0.0,0.0,-1.0));
#282=DIRECTION('',(-0.887010833178221,-0.461748613235034,0.0));
#283=DIRECTION('',(-0.573576436351046,-0.819152044288992,0.0));
#284=DIRECTION('',(0.0,0.0,-1.0));
#285=DIRECTION('',(-0.887010833178222,-0.461748613235034,0.0));
#286=DIRECTION('',(-1.0,2.22044604925031E-16,0.0));
#287=DIRECTION('',(0.0,0.0,-1.0));
#288=DIRECTION('',(-0.887010833178222,-0.461748613235034,0.0));
#289=DIRECTION('',(0.573576436351046,0.819152044288992,0.0));
#290=DIRECTION('',(0.0,0.0,-1.0));
#291=DIRECTION('',(-0.887010833178222,-0.461748613235034,0.0));
#292=DIRECTION('',(0.0,0.0,1.0));
#293=DIRECTION('',(-0.887010833178222,-0.461748613235034,0.0));
#294=DIRECTION('',(-1.0,2.22044604925031E-16,-8.59314765579595E-17));
#295=DIRECTION('',(8.59314765579594E-17,-4.28422977201317E-16,-1.0));
#296=DIRECTION('',(-8.59314765579594E-17,4.28422977201317E-16,1.0));
#297=DIRECTION('',(2.22044604925031E-16,1.0,-4.28422977201317E-16));
#298=DIRECTION('',(-1.0,2.22044604925031E-16,0.0));
#299=DIRECTION('',(-8.59314765579594E-17,4.28422977201317E-16,1.0));
#300=DIRECTION('',(-0.573576436351046,-0.819152044288992,3.01655287500337E-16));
#301=DIRECTION('',(8.59314765579594E-17,-4.28422977201317E-16,-1.0));
#302=DIRECTION('',(-0.819152044288992,0.573576436351046,-3.16124269205261E-16));
#303=DIRECTION('',(-0.573576436351046,-0.819152044288992,0.0));
#304=DIRECTION('',(-8.59314765579594E-17,4.28422977201317E-16,1.0));
#305=DIRECTION('',(1.0,-2.22044604925031E-16,8.59314765579595E-17));
#306=DIRECTION('',(8.59314765579594E-17,-4.28422977201317E-16,-1.0));
#307=DIRECTION('',(-2.22044604925031E-16,-1.0,4.28422977201317E-16));
#308=DIRECTION('',(1.0,-2.22044604925031E-16,0.0));
#309=DIRECTION('',(-8.59314765579594E-17,4.28422977201317E-16,1.0));
#310=DIRECTION('',(0.573576436351046,0.819152044288992,-3.01655287500337E-16));
#311=DIRECTION('',(8.59314765579594E-17,-4.28422977201317E-16,-1.0));
#312=DIRECTION('',(0.819152044288992,-0.573576436351046,3.16124269205261E-16));
#313=DIRECTION('',(0.573576436351046,0.819152044288992,0.0));
#314=DIRECTION('',(0.0,0.0,1.0));
#315=DIRECTION('',(-0.887010833178222,-0.461748613235034,0.0));
#316=DIRECTION('',(-8.59314765579594E-17,4.28422977201317E-16,1.0));
#317=DIRECTION('',(-0.461748613235034,0.887010833178222,-4.19694562093911E-16));
#318=DIRECTION('',(-8.59314765579594E-17,4.28422977201317E-16,1.0));
#319=DIRECTION('',(-0.461748613235034,0.887010833178222,-4.19694562093911E-16));
#320=DIRECTION('',(-8.59314765579594E-17,4.28422977201317E-16,1.0));
#321=DIRECTION('',(-0.461748613235034,0.887010833178222,-4.19694562093911E-16));
#322=DIRECTION('',(-8.59314765579594E-17,4.28422977201317E-16,1.0));
#323=DIRECTION('',(-0.461748613235034,0.887010833178222,-4.19694562093911E-16));
#324=DIRECTION('',(-8.59314765579594E-17,4.28422977201317E-16,1.0));
#325=DIRECTION('',(-0.461748613235034,0.887010833178222,-4.19694562093911E-16));
#326=DIRECTION('',(-8.59314765579594E-17,4.28422977201317E-16,1.0));
#327=DIRECTION('',(-0.461748613235034,0.887010833178222,-4.19694562093911E-16));
#328=DIRECTION('',(-8.59314765579594E-17,4.28422977201317E-16,1.0));
#329=DIRECTION('',(-0.461748613235034,0.887010833178222,-4.19694562093911E-16));
#330=DIRECTION('',(-8.59314765579594E-17,4.28422977201317E-16,1.0));
#331=DIRECTION('',(-0.461748613235034,0.887010833178222,-4.19694562093911E-16));
#332=DIRECTION('',(-8.59314765579594E-17,4.28422977201317E-16,1.0));
#333=DIRECTION('',(-0.461748613235034,0.887010833178222,-4.19694562093911E-16));
#334=DIRECTION('',(0.0,0.0,1.0));
#335=DIRECTION('',(-0.887010833178222,-0.461748613235034,0.0));
#336=CARTESIAN_POINT('',(0.0,0.0,0.0));
#339=CARTESIAN_POINT('',(12.351861492929,-6.21724893790088E-15,8.87468518373638E-32));
#340=CARTESIAN_POINT('',(14.7507396768707,-3.5527136788005E-15,6.86420476303344E-16));
#341=CARTESIAN_POINT('',(14.8973448615729,0.00846184259116445,6.95393228500343E-16));
#342=CARTESIAN_POINT('',(15.1280687274426,0.0476840358067712,6.98654208723446E-16));
#343=CARTESIAN_POINT('',(15.4210665359128,0.159001114784591,6.70087160933937E-16));
#344=CARTESIAN_POINT('',(15.6803087875626,0.335162015100022,5.77302585758362E-16));
#345=CARTESIAN_POINT('',(15.8447755000834,0.501663015683025,4.39860691257984E-16));
#346=CARTESIAN_POINT('',(15.9357963151324,0.616901438916655,3.20385315701137E-16));
#347=CARTESIAN_POINT('',(17.3117363151179,2.58194740729271,5.01847277363352E-17));
#348=CARTESIAN_POINT('',(18.6456316754074,4.48694740729271,-2.95822839457879E-32));
#349=CARTESIAN_POINT('',(19.9795270356969,6.39194740729271,1.57772181044202E-31));
#350=CARTESIAN_POINT('',(21.3134223959864,8.29694740729271,5.01847277363352E-17));
#351=CARTESIAN_POINT('',(22.6709362730381,10.2356781449289,2.63594553528023E-16));
#352=CARTESIAN_POINT('',(22.7159859809797,10.3046712020631,2.82866338445176E-16));
#353=CARTESIAN_POINT('',(22.7793380110353,10.4166059211082,2.96469866963627E-16));
#354=CARTESIAN_POINT('',(22.848185998792,10.5741354849225,2.86223090214825E-16));
#355=CARTESIAN_POINT('',(22.9087589299243,10.7873459002392,2.39739335301557E-16));
#356=CARTESIAN_POINT('',(22.9387746036676,11.0080318954464,1.68621419441133E-16));
#357=CARTESIAN_POINT('',(22.937723429672,11.2313809965328,8.2428482227536E-17));
#358=CARTESIAN_POINT('',(22.9059400026436,11.4495639811991,-1.07379144040416E-17));
#359=CARTESIAN_POINT('',(22.8451781156945,11.6584876587359,-1.05105061329223E-16));
#360=CARTESIAN_POINT('',(22.7608083087945,11.8486083276984,-1.93862896727156E-16));
#361=CARTESIAN_POINT('',(22.6536201049792,12.0264753084338,-2.79357100476714E-16));
#362=CARTESIAN_POINT('',(22.5171879159197,12.1963600655378,-3.63392823863147E-16));
#363=CARTESIAN_POINT('',(22.3567590812613,12.3473623929041,-4.37714517764205E-16));
#364=CARTESIAN_POINT('',(22.1744232465888,12.4764268832585,-4.95752265529073E-16));
#365=CARTESIAN_POINT('',(21.9763049989672,12.5783723704931,-5.28066562674086E-16));
#366=CARTESIAN_POINT('',(21.7671837189063,12.6510731542654,-5.2368134294955E-16));
#367=CARTESIAN_POINT('',(21.5982940975691,12.6850184933153,-4.82874257671662E-16));
#368=CARTESIAN_POINT('',(21.4704467680665,12.697329768511,-4.23237253683601E-16));
#369=CARTESIAN_POINT('',(21.3880915133336,12.7,-3.70528357648143E-16));
#370=CARTESIAN_POINT('',(19.0213382943765,12.7,-6.80121476307091E-17));
#371=CARTESIAN_POINT('',(16.6957627027859,12.7,-1.28189897098414E-31));
#372=CARTESIAN_POINT('',(14.3701871111953,12.7,7.88860905221012E-32));
#373=CARTESIAN_POINT('',(12.0446115196048,12.7,-6.80121476307091E-17));
#374=CARTESIAN_POINT('',(9.64573333566314,12.7,-4.10529567833231E-16));
#375=CARTESIAN_POINT('',(9.49912815096098,12.6915381574088,-5.25110627420177E-16));
#376=CARTESIAN_POINT('',(9.26840428509123,12.6523159641932,-6.37118326223475E-16));
#377=CARTESIAN_POINT('',(8.97540647662109,12.5409988852154,-6.62205432267638E-16));
#378=CARTESIAN_POINT('',(8.71616422497122,12.3648379849,-5.77625438933936E-16));
#379=CARTESIAN_POINT('',(8.55169751245045,12.198336984317,-4.39860691258037E-16));
#380=CARTESIAN_POINT('',(8.46067669740144,12.0830985610833,-3.20385315701138E-16));
#381=CARTESIAN_POINT('',(7.08473669741593,10.1180525927073,-5.01847277363352E-17));
#382=CARTESIAN_POINT('',(5.75084133712644,8.21305259270728,6.90253292068385E-32));
#383=CARTESIAN_POINT('',(4.41694597683694,6.30805259270728,-1.18329135783152E-31));
#384=CARTESIAN_POINT('',(3.08305061654744,4.40305259270728,-5.01847277363352E-17));
#385=CARTESIAN_POINT('',(1.72553673949568,2.46432185507105,-2.63594553528023E-16));
#386=CARTESIAN_POINT('',(1.68048703155412,2.39532879793688,-2.82866338445176E-16));
#387=CARTESIAN_POINT('',(1.61713500149846,2.28339407889175,-2.96469866963627E-16));
#388=CARTESIAN_POINT('',(1.54828701374175,2.12586451507747,-2.86223090214826E-16));
#389=CARTESIAN_POINT('',(1.48771408260949,1.91265409976079,-2.39739335301557E-16));
#390=CARTESIAN_POINT('',(1.45769840886617,1.69196810455357,-1.68621419441135E-16));
#391=CARTESIAN_POINT('',(1.4587495828618,1.46861900346723,-8.24284822275357E-17));
#392=CARTESIAN_POINT('',(1.49053300989021,1.25043601880088,1.07379144040389E-17));
#393=CARTESIAN_POINT('',(1.55129489683931,1.04151234126404,1.05105061329225E-16));
#394=CARTESIAN_POINT('',(1.63566470373929,0.851391672301602,1.93862896727145E-16));
#395=CARTESIAN_POINT('',(1.74285290755465,0.673524691566167,2.79357100476737E-16));
#396=CARTESIAN_POINT('',(1.879285096614,0.503639934462261,3.63392823863095E-16));
#397=CARTESIAN_POINT('',(2.03971393127254,0.352637607095805,4.37714517764229E-16));
#398=CARTESIAN_POINT('',(2.22204976594497,0.223573116741481,4.95752265529061E-16));
#399=CARTESIAN_POINT('',(2.42016801356658,0.121627629506843,5.28066562674092E-16));
#400=CARTESIAN_POINT('',(2.62928929362744,0.0489268457346208,5.23681342949548E-16));
#401=CARTESIAN_POINT('',(2.79817891496469,0.0149815066846575,4.82874257671664E-16));
#402=CARTESIAN_POINT('',(2.92602624446724,0.00267023148902279,4.23237253683602E-16));
#403=CARTESIAN_POINT('',(3.00838149920022,-5.32907051820075E-15,3.70528357648144E-16));
#404=CARTESIAN_POINT('',(5.37513471815729,-3.5527136788005E-15,6.80121476307091E-17));
#405=CARTESIAN_POINT('',(7.70071030974787,-3.5527136788005E-15,1.67632942359465E-31));
#406=CARTESIAN_POINT('',(10.0262859013384,-4.44089209850063E-15,1.28189897098414E-31));
#407=CARTESIAN_POINT('',(12.351861492929,-6.21724893790088E-15,8.87468518373638E-32));
#408=CARTESIAN_POINT('',(14.7507396768707,-3.5527136788005E-15,6.86420476303344E-16));
#409=CARTESIAN_POINT('',(0.0,0.0,0.0));
#410=CARTESIAN_POINT('',(12.1982365062669,6.35,0.0));
#411=CARTESIAN_POINT('',(12.1982365062669,6.35,-4.7625));
#412=CARTESIAN_POINT('',(9.91152257833345,5.15961207508008,-4.7625));
#413=CARTESIAN_POINT('',(12.1982365062669,12.7,-4.7625));
#414=CARTESIAN_POINT('',(9.7190359280142,12.7,-4.7625));
#415=CARTESIAN_POINT('',(21.3469138859671,12.7,-4.7625));
#416=CARTESIAN_POINT('',(21.3469138859671,11.1125,-4.7625));
#417=CARTESIAN_POINT('',(22.6473177562758,10.2019474072927,-4.7625));
#418=CARTESIAN_POINT('',(17.399851987502,2.70778962917085,-4.7625));
#419=CARTESIAN_POINT('',(15.9778409548284,0.67694740729271,-4.7625));
#420=CARTESIAN_POINT('',(14.6774370845196,1.5875,-4.7625));
#421=CARTESIAN_POINT('',(14.6774370845196,-6.93889390390723E-15,-4.7625));
#422=CARTESIAN_POINT('',(12.1982365062669,-6.93889390390723E-15,-4.7625));
#423=CARTESIAN_POINT('',(3.04955912656672,-3.46944695195361E-15,-4.7625));
#424=CARTESIAN_POINT('',(3.04955912656672,1.5875,-4.7625));
#425=CARTESIAN_POINT('',(1.74915525625795,2.49805259270728,-4.7625));
#426=CARTESIAN_POINT('',(6.9966210250318,9.99221037082914,-4.7625));
#427=CARTESIAN_POINT('',(8.41863205770543,12.0230525927073,-4.7625));
#428=CARTESIAN_POINT('',(9.7190359280142,11.1125,-4.7625));
#429=CARTESIAN_POINT('',(12.0387631737882,5.84421520759503,-4.7625));
#430=CARTESIAN_POINT('',(12.1982365062669,12.7,-5.65390330310514E-15));
#431=CARTESIAN_POINT('',(21.3469138859671,12.7,-4.8677439473151E-15));
#432=CARTESIAN_POINT('',(9.7190359280142,12.7,-5.86694466947774E-15));
#433=CARTESIAN_POINT('',(21.3469138859671,12.7,-4.33680868994202E-15));
#434=CARTESIAN_POINT('',(9.7190359280142,12.7,-5.20417042793042E-15));
#435=CARTESIAN_POINT('',(12.1982365062669,12.7,-5.65390330310514E-15));
#436=CARTESIAN_POINT('',(1.74915525625795,2.49805259270729,-1.7347234759768E-15));
#437=CARTESIAN_POINT('',(1.74915525625795,2.49805259270729,-2.1810596021089E-15));
#438=CARTESIAN_POINT('',(6.9966210250318,9.99221037082914,-4.94080650733019E-15));
#439=CARTESIAN_POINT('',(8.41863205770543,12.0230525927073,-5.688670470534E-15));
#440=CARTESIAN_POINT('',(8.41863205770543,12.0230525927073,-5.20417042793042E-15));
#441=CARTESIAN_POINT('',(6.9966210250318,9.99221037082914,-4.94080650733019E-15));
#442=CARTESIAN_POINT('',(14.6774370845196,-4.33680868994202E-15,1.92592994438724E-31));
#443=CARTESIAN_POINT('',(14.6774370845196,-4.33680868994202E-15,1.09873724182246E-19));
#444=CARTESIAN_POINT('',(12.1982365062669,-5.20417042793042E-15,-2.12931492648418E-16));
#445=CARTESIAN_POINT('',(3.04955912656672,-1.73472347597681E-15,-9.99090848438459E-16));
#446=CARTESIAN_POINT('',(3.04955912656672,-1.73472347597681E-15,-8.67361737988403E-16));
#447=CARTESIAN_POINT('',(12.1982365062669,-4.33680868994202E-15,-2.12931492648419E-16));
#448=CARTESIAN_POINT('',(22.6473177562758,10.2019474072927,-3.46944695195361E-15));
#449=CARTESIAN_POINT('',(22.6473177562758,10.2019474072927,-3.68577519364466E-15));
#450=CARTESIAN_POINT('',(17.399851987502,2.70778962917086,-9.26028288423377E-16));
#451=CARTESIAN_POINT('',(15.9778409548284,0.676947407292712,-1.78164325219558E-16));
#452=CARTESIAN_POINT('',(15.9778409548284,0.676947407292712,0.0));
#453=CARTESIAN_POINT('',(17.399851987502,2.70778962917086,-9.26028288423375E-16));
#454=CARTESIAN_POINT('',(12.1982365062669,6.35,-6.93889390390723E-15));
#455=CARTESIAN_POINT('',(9.91152257833345,5.15961207508008,-6.93889390390723E-15));
#456=CARTESIAN_POINT('',(21.3469138859671,11.1125,-4.18762247100801E-15));
#457=CARTESIAN_POINT('',(9.7190359280142,11.1125,-5.18682319317065E-15));
#458=CARTESIAN_POINT('',(3.04955912656672,1.5875,-1.67921232474555E-15));
#459=CARTESIAN_POINT('',(14.6774370845196,1.5875,-6.80011602582909E-16));
#460=CARTESIAN_POINT('',(12.1982365062669,6.35,-2.93341739787678E-15));
#461=CARTESIAN_POINT('',(21.3469138859671,11.1125,-3.46944695195361E-15));
#462=CARTESIAN_POINT('',(14.6774370845196,1.5875,0.0));
#463=CARTESIAN_POINT('',(3.04955912656672,1.5875,-1.73472347597681E-15));
#464=CARTESIAN_POINT('',(9.7190359280142,11.1125,-5.20417042793042E-15));
#465=CARTESIAN_POINT('',(12.1982365062669,6.35,-33.3676978394524));
#466=MECHANICAL_DESIGN_GEOMETRIC_PRESENTATION_REPRESENTATION('',(#232,#233,#234,
     #235),#467);
#467=(GEOMETRIC_REPRESENTATION_CONTEXT(3)GLOBAL_UNCERTAINTY_ASSIGNED_CONTEXT((#468))
     GLOBAL_UNIT_ASSIGNED_CONTEXT((#474,#470,#469))REPRESENTATION_CONTEXT('DNGA150416',
     'TOP_LEVEL_ASSEMBLY_PART'));
#468=UNCERTAINTY_MEASURE_WITH_UNIT(LENGTH_MEASURE(2.0E-5),#474,'DISTANCE_ACCURACY_VALUE',
     'Maximum Tolerance applied to model');
#469=(NAMED_UNIT(*)SI_UNIT($,.STERADIAN.)SOLID_ANGLE_UNIT());
#470=(CONVERSION_BASED_UNIT('DEGREE',#472)NAMED_UNIT(#471)PLANE_ANGLE_UNIT());
#471=DIMENSIONAL_EXPONENTS(0.0,0.0,0.0,0.0,0.0,0.0,0.0);
#472=PLANE_ANGLE_MEASURE_WITH_UNIT(PLANE_ANGLE_MEASURE(0.0174532925),#473);
#473=(NAMED_UNIT(*)PLANE_ANGLE_UNIT()SI_UNIT($,.RADIAN.));
#474=(LENGTH_UNIT()NAMED_UNIT(*)SI_UNIT(.MILLI.,.METRE.));
#475=CONSTRUCTIVE_GEOMETRY_REPRESENTATION('supplemental geometry',(#249,#250),#467);
#476=CONSTRUCTIVE_GEOMETRY_REPRESENTATION_RELATIONSHIP('supplemental geometry','contains PCS and MCS coordinate systems',
     #24,#475);
ENDSEC;
END-ISO-10303-21;
