ISO-10303-21;
HEADER;
FILE_DESCRIPTION(
/* description */ (''),
/* implementation_level */ '2;1');
FILE_NAME(
/* name */ 'SCMT120404.stp',
/* time_stamp */ '2017-03-21T10:54:17',
/* author */ ('Sandvik Coromant R&D'),
/* organization */ ('Sandvik Machining Solutions'),
/* preprocessor_version */ 'ST-DEVELOPER v15',
/* originating_system */ 'SIEMENS PLM Software NX v8.5.3.3(64 bits)',
/* authorization */ '');
FILE_SCHEMA(('AUTOMOTIVE_DESIGN'));
ENDSEC;
DATA;
#10=GEOMETRICALLY_BOUNDED_WIREFRAME_SHAPE_REPRESENTATION('IsoTurningInsert-None',
     (#25),#499);
#11=SHAPE_REPRESENTATION_RELATIONSHIP('None','relationship between IsoTurningInsert-None and IsoTurningInsert-None',
     #24,#13);
#12=SHAPE_REPRESENTATION_RELATIONSHIP('None','relationship between IsoTurningInsert-None and IsoTurningInsert-None',
     #24,#10);
#13=ADVANCED_BREP_SHAPE_REPRESENTATION('IsoTurningInsert-None',(#31),#499);
#14=SHAPE_DEFINITION_REPRESENTATION(#15,#24);
#15=PRODUCT_DEFINITION_SHAPE('','',#16);
#16=PRODUCT_DEFINITION(' ','',#18,#17);
#17=PRODUCT_DEFINITION_CONTEXT('part definition',#23,'design');
#18=PRODUCT_DEFINITION_FORMATION_WITH_SPECIFIED_SOURCE(' ',' ',#20,.NOT_KNOWN.);
#19=PRODUCT_RELATED_PRODUCT_CATEGORY('part','',(#20));
#20=PRODUCT('IsoTurningInsert','IsoTurningInsert',' ',(#21));
#21=PRODUCT_CONTEXT(' ',#23,'mechanical');
#22=APPLICATION_PROTOCOL_DEFINITION('international standard','automotive_design',
     2010,#23);
#23=APPLICATION_CONTEXT('core data for automotive mechanical design processes');
#24=SHAPE_REPRESENTATION('IsoTurningInsert-None',(#285),#499);
#25=GEOMETRIC_CURVE_SET('geometric curve set',(#265));
#26=SURFACE_STYLE_USAGE(.BOTH.,#27);
#27=SURFACE_SIDE_STYLE('',(#28));
#28=SURFACE_STYLE_FILL_AREA(#29);
#29=FILL_AREA_STYLE('',(#30));
#30=FILL_AREA_STYLE_COLOUR('',#284);
#31=MANIFOLD_SOLID_BREP('CUT',#32);
#32=CLOSED_SHELL('',(#49,#50,#51,#52,#53,#54,#55,#56,#57,#58,#59,#60,#61,#62));
#33=CYLINDRICAL_SURFACE('',#309,2.75);
#34=TOROIDAL_SURFACE('',#308,7.74999999999999,5.0);
#35=TOROIDAL_SURFACE('',#310,3.45392842109238,0.3);
#36=CONICAL_SURFACE('',#300,0.396875,7.0);
#37=CONICAL_SURFACE('',#301,0.396875,7.0);
#38=CONICAL_SURFACE('',#302,0.396875,7.0);
#39=CONICAL_SURFACE('',#303,0.396875,7.0);
#40=CONICAL_SURFACE('',#305,3.74999999999569,2.30000000025907);
#41=FACE_OUTER_BOUND('',#123,.T.);
#42=FACE_OUTER_BOUND('',#124,.T.);
#43=FACE_OUTER_BOUND('',#125,.T.);
#44=FACE_OUTER_BOUND('',#126,.T.);
#45=FACE_OUTER_BOUND('',#129,.T.);
#46=FACE_OUTER_BOUND('',#130,.T.);
#47=FACE_OUTER_BOUND('',#131,.T.);
#48=FACE_OUTER_BOUND('',#132,.T.);
#49=ADVANCED_FACE('',(#109,#110),#63,.F.);
#50=ADVANCED_FACE('',(#41),#64,.F.);
#51=ADVANCED_FACE('',(#42),#65,.F.);
#52=ADVANCED_FACE('',(#43),#66,.F.);
#53=ADVANCED_FACE('',(#44),#67,.F.);
#54=ADVANCED_FACE('',(#111,#112),#68,.T.);
#55=ADVANCED_FACE('',(#45),#36,.T.);
#56=ADVANCED_FACE('',(#46),#37,.T.);
#57=ADVANCED_FACE('',(#47),#38,.T.);
#58=ADVANCED_FACE('',(#48),#39,.T.);
#59=ADVANCED_FACE('',(#113,#114),#40,.F.);
#60=ADVANCED_FACE('',(#115,#116),#34,.T.);
#61=ADVANCED_FACE('',(#117,#118),#33,.F.);
#62=ADVANCED_FACE('',(#119,#120),#35,.F.);
#63=PLANE('',#289);
#64=PLANE('',#290);
#65=PLANE('',#291);
#66=PLANE('',#292);
#67=PLANE('',#293);
#68=PLANE('',#299);
#69=LINE('',#436,#89);
#70=LINE('',#439,#90);
#71=LINE('',#441,#91);
#72=LINE('',#443,#92);
#73=LINE('',#445,#93);
#74=LINE('',#448,#94);
#75=LINE('',#450,#95);
#76=LINE('',#451,#96);
#77=LINE('',#453,#97);
#78=LINE('',#455,#98);
#79=LINE('',#457,#99);
#80=LINE('',#459,#100);
#81=LINE('',#461,#101);
#82=LINE('',#463,#102);
#83=LINE('',#465,#103);
#84=LINE('',#467,#104);
#85=LINE('',#469,#105);
#86=LINE('',#471,#106);
#87=LINE('',#473,#107);
#88=LINE('',#475,#108);
#89=VECTOR('',#319,1.0);
#90=VECTOR('',#320,1.0);
#91=VECTOR('',#321,1.0);
#92=VECTOR('',#322,1.0);
#93=VECTOR('',#325,1.0);
#94=VECTOR('',#326,1.0);
#95=VECTOR('',#327,1.0);
#96=VECTOR('',#328,1.0);
#97=VECTOR('',#329,1.0);
#98=VECTOR('',#332,1.0);
#99=VECTOR('',#333,1.0);
#100=VECTOR('',#334,1.0);
#101=VECTOR('',#335,1.0);
#102=VECTOR('',#338,1.0);
#103=VECTOR('',#339,1.0);
#104=VECTOR('',#340,1.0);
#105=VECTOR('',#341,1.0);
#106=VECTOR('',#344,1.0);
#107=VECTOR('',#345,1.0);
#108=VECTOR('',#346,1.0);
#109=FACE_BOUND('',#121,.T.);
#110=FACE_BOUND('',#122,.T.);
#111=FACE_BOUND('',#127,.T.);
#112=FACE_BOUND('',#128,.T.);
#113=FACE_BOUND('',#133,.T.);
#114=FACE_BOUND('',#134,.T.);
#115=FACE_BOUND('',#135,.T.);
#116=FACE_BOUND('',#136,.T.);
#117=FACE_BOUND('',#137,.T.);
#118=FACE_BOUND('',#138,.T.);
#119=FACE_BOUND('',#139,.T.);
#120=FACE_BOUND('',#140,.T.);
#121=EDGE_LOOP('',(#141));
#122=EDGE_LOOP('',(#142,#143,#144,#145));
#123=EDGE_LOOP('',(#146,#147,#148,#149,#150,#151));
#124=EDGE_LOOP('',(#152,#153,#154,#155,#156,#157));
#125=EDGE_LOOP('',(#158,#159,#160,#161,#162,#163));
#126=EDGE_LOOP('',(#164,#165,#166,#167,#168,#169));
#127=EDGE_LOOP('',(#170));
#128=EDGE_LOOP('',(#171,#172,#173,#174,#175,#176,#177,#178));
#129=EDGE_LOOP('',(#179,#180,#181));
#130=EDGE_LOOP('',(#182,#183,#184));
#131=EDGE_LOOP('',(#185,#186,#187));
#132=EDGE_LOOP('',(#188,#189,#190));
#133=EDGE_LOOP('',(#191));
#134=EDGE_LOOP('',(#192));
#135=EDGE_LOOP('',(#193));
#136=EDGE_LOOP('',(#194));
#137=EDGE_LOOP('',(#195));
#138=EDGE_LOOP('',(#196));
#139=EDGE_LOOP('',(#197));
#140=EDGE_LOOP('',(#198));
#141=ORIENTED_EDGE('',*,*,#220,.T.);
#142=ORIENTED_EDGE('',*,*,#221,.T.);
#143=ORIENTED_EDGE('',*,*,#222,.T.);
#144=ORIENTED_EDGE('',*,*,#223,.T.);
#145=ORIENTED_EDGE('',*,*,#224,.T.);
#146=ORIENTED_EDGE('',*,*,#225,.F.);
#147=ORIENTED_EDGE('',*,*,#226,.T.);
#148=ORIENTED_EDGE('',*,*,#227,.F.);
#149=ORIENTED_EDGE('',*,*,#221,.F.);
#150=ORIENTED_EDGE('',*,*,#228,.T.);
#151=ORIENTED_EDGE('',*,*,#229,.T.);
#152=ORIENTED_EDGE('',*,*,#224,.F.);
#153=ORIENTED_EDGE('',*,*,#230,.T.);
#154=ORIENTED_EDGE('',*,*,#231,.T.);
#155=ORIENTED_EDGE('',*,*,#232,.F.);
#156=ORIENTED_EDGE('',*,*,#233,.T.);
#157=ORIENTED_EDGE('',*,*,#228,.F.);
#158=ORIENTED_EDGE('',*,*,#223,.F.);
#159=ORIENTED_EDGE('',*,*,#234,.T.);
#160=ORIENTED_EDGE('',*,*,#235,.T.);
#161=ORIENTED_EDGE('',*,*,#236,.F.);
#162=ORIENTED_EDGE('',*,*,#237,.T.);
#163=ORIENTED_EDGE('',*,*,#230,.F.);
#164=ORIENTED_EDGE('',*,*,#222,.F.);
#165=ORIENTED_EDGE('',*,*,#227,.T.);
#166=ORIENTED_EDGE('',*,*,#238,.T.);
#167=ORIENTED_EDGE('',*,*,#239,.F.);
#168=ORIENTED_EDGE('',*,*,#240,.T.);
#169=ORIENTED_EDGE('',*,*,#234,.F.);
#170=ORIENTED_EDGE('',*,*,#241,.F.);
#171=ORIENTED_EDGE('',*,*,#239,.T.);
#172=ORIENTED_EDGE('',*,*,#242,.T.);
#173=ORIENTED_EDGE('',*,*,#225,.T.);
#174=ORIENTED_EDGE('',*,*,#243,.T.);
#175=ORIENTED_EDGE('',*,*,#232,.T.);
#176=ORIENTED_EDGE('',*,*,#244,.T.);
#177=ORIENTED_EDGE('',*,*,#236,.T.);
#178=ORIENTED_EDGE('',*,*,#245,.T.);
#179=ORIENTED_EDGE('',*,*,#238,.F.);
#180=ORIENTED_EDGE('',*,*,#226,.F.);
#181=ORIENTED_EDGE('',*,*,#242,.F.);
#182=ORIENTED_EDGE('',*,*,#235,.F.);
#183=ORIENTED_EDGE('',*,*,#240,.F.);
#184=ORIENTED_EDGE('',*,*,#245,.F.);
#185=ORIENTED_EDGE('',*,*,#231,.F.);
#186=ORIENTED_EDGE('',*,*,#237,.F.);
#187=ORIENTED_EDGE('',*,*,#244,.F.);
#188=ORIENTED_EDGE('',*,*,#229,.F.);
#189=ORIENTED_EDGE('',*,*,#233,.F.);
#190=ORIENTED_EDGE('',*,*,#243,.F.);
#191=ORIENTED_EDGE('',*,*,#246,.T.);
#192=ORIENTED_EDGE('',*,*,#241,.T.);
#193=ORIENTED_EDGE('',*,*,#247,.T.);
#194=ORIENTED_EDGE('',*,*,#248,.T.);
#195=ORIENTED_EDGE('',*,*,#248,.F.);
#196=ORIENTED_EDGE('',*,*,#220,.F.);
#197=ORIENTED_EDGE('',*,*,#247,.F.);
#198=ORIENTED_EDGE('',*,*,#246,.F.);
#199=VERTEX_POINT('',#435);
#200=VERTEX_POINT('',#437);
#201=VERTEX_POINT('',#438);
#202=VERTEX_POINT('',#440);
#203=VERTEX_POINT('',#442);
#204=VERTEX_POINT('',#446);
#205=VERTEX_POINT('',#447);
#206=VERTEX_POINT('',#449);
#207=VERTEX_POINT('',#452);
#208=VERTEX_POINT('',#456);
#209=VERTEX_POINT('',#458);
#210=VERTEX_POINT('',#460);
#211=VERTEX_POINT('',#464);
#212=VERTEX_POINT('',#466);
#213=VERTEX_POINT('',#468);
#214=VERTEX_POINT('',#472);
#215=VERTEX_POINT('',#474);
#216=VERTEX_POINT('',#478);
#217=VERTEX_POINT('',#489);
#218=VERTEX_POINT('',#492);
#219=VERTEX_POINT('',#494);
#220=EDGE_CURVE('',#199,#199,#249,.T.);
#221=EDGE_CURVE('',#200,#201,#69,.T.);
#222=EDGE_CURVE('',#201,#202,#70,.T.);
#223=EDGE_CURVE('',#202,#203,#71,.T.);
#224=EDGE_CURVE('',#203,#200,#72,.T.);
#225=EDGE_CURVE('',#204,#205,#73,.T.);
#226=EDGE_CURVE('',#204,#206,#74,.T.);
#227=EDGE_CURVE('INSERT_CORNER_EDGE3',#201,#206,#75,.T.);
#228=EDGE_CURVE('INSERT_CORNER_EDGE4',#200,#207,#76,.T.);
#229=EDGE_CURVE('',#207,#205,#77,.T.);
#230=EDGE_CURVE('INSERT_CORNER_EDGE1',#203,#208,#78,.T.);
#231=EDGE_CURVE('',#208,#209,#79,.T.);
#232=EDGE_CURVE('',#210,#209,#80,.T.);
#233=EDGE_CURVE('',#210,#207,#81,.T.);
#234=EDGE_CURVE('INSERT_CORNER_EDGE2',#202,#211,#82,.T.);
#235=EDGE_CURVE('',#211,#212,#83,.T.);
#236=EDGE_CURVE('',#213,#212,#84,.T.);
#237=EDGE_CURVE('',#213,#208,#85,.T.);
#238=EDGE_CURVE('',#206,#214,#86,.T.);
#239=EDGE_CURVE('',#215,#214,#87,.T.);
#240=EDGE_CURVE('',#215,#211,#88,.T.);
#241=EDGE_CURVE('',#216,#216,#250,.T.);
#242=EDGE_CURVE('',#214,#204,#251,.T.);
#243=EDGE_CURVE('',#205,#210,#252,.T.);
#244=EDGE_CURVE('',#209,#213,#253,.T.);
#245=EDGE_CURVE('',#212,#215,#254,.T.);
#246=EDGE_CURVE('',#217,#217,#255,.T.);
#247=EDGE_CURVE('',#218,#218,#256,.T.);
#248=EDGE_CURVE('',#219,#219,#257,.T.);
#249=CIRCLE('',#288,2.75);
#250=CIRCLE('',#294,3.78614773407047);
#251=CIRCLE('',#295,0.396875);
#252=CIRCLE('',#296,0.396875);
#253=CIRCLE('',#297,0.396875);
#254=CIRCLE('',#298,0.396875);
#255=CIRCLE('',#304,3.75368673962666);
#256=CIRCLE('',#306,3.69710228404942);
#257=CIRCLE('',#307,2.75);
#258=CURVE_STYLE('',#262,POSITIVE_LENGTH_MEASURE(0.18),#261);
#259=CURVE_STYLE('',#263,POSITIVE_LENGTH_MEASURE(0.18),#283);
#260=CURVE_STYLE('',#264,POSITIVE_LENGTH_MEASURE(0.18),#283);
#261=DRAUGHTING_PRE_DEFINED_COLOUR('blue');
#262=DRAUGHTING_PRE_DEFINED_CURVE_FONT('continuous');
#263=DRAUGHTING_PRE_DEFINED_CURVE_FONT('continuous');
#264=DRAUGHTING_PRE_DEFINED_CURVE_FONT('continuous');
#265=B_SPLINE_CURVE_WITH_KNOTS('CUTTING EDGE LINE',5,(#386,#387,#388,#389,#390,#391,
     #392,#393,#394,#395,#396,#397,#398,#399,#400,#401,#402,#403,#404,#405,#406,
     #407,#408,#409,#410,#411,#412,#413,#414,#415,#416,#417,#418,#419,#420,#421,
     #422,#423,#424,#425,#426,#427,#428,#429,#430,#431),.UNSPECIFIED.,.T.,.F.,(1,
     1,4,4,1,1,1,4,4,1,1,1,4,4,1,1,1,4,4,1,1,1,4,2),(-0.00621934074999997,-0.00310967037499998,
     0.0,0.2375613185,0.240670988875,0.24378065925,0.246890329625,0.25,0.4875613185,
     0.490670988875,0.49378065925,0.496890329625,0.5,0.7375613185,0.740670988875,
     0.74378065925,0.746890329625,0.75,0.9875613185,0.990670988875,0.99378065925,
     0.996890329625,1.0,1.2375613185),.UNSPECIFIED.);
#266=PRESENTATION_LAYER_ASSIGNMENT('1','Layer 1',(#265,#286,#287,#31));
#269=STYLED_ITEM('',(#275),#265);
#270=STYLED_ITEM('',(#276),#286);
#271=STYLED_ITEM('',(#277),#287);
#272=STYLED_ITEM('',(#278),#31);
#273=PRESENTATION_STYLE_ASSIGNMENT((#279));
#274=PRESENTATION_STYLE_ASSIGNMENT((#280));
#275=PRESENTATION_STYLE_ASSIGNMENT((#258));
#276=PRESENTATION_STYLE_ASSIGNMENT((#259));
#277=PRESENTATION_STYLE_ASSIGNMENT((#260));
#278=PRESENTATION_STYLE_ASSIGNMENT((#26));
#279=POINT_STYLE('',#281,POSITIVE_LENGTH_MEASURE(3.0),#283);
#280=POINT_STYLE('',#282,POSITIVE_LENGTH_MEASURE(3.0),#283);
#281=PRE_DEFINED_POINT_MARKER_SYMBOL('plus');
#282=PRE_DEFINED_POINT_MARKER_SYMBOL('plus');
#283=COLOUR_RGB('Medium Maroon',0.6,0.4,0.4);
#284=COLOUR_RGB('IsoInsertColor',0.8,0.8,0.8);
#285=AXIS2_PLACEMENT_3D('',#383,#311,#312);
#286=AXIS2_PLACEMENT_3D('PCS',#432,#313,#314);
#287=AXIS2_PLACEMENT_3D('MCS',#433,#315,#316);
#288=AXIS2_PLACEMENT_3D('',#434,#317,#318);
#289=AXIS2_PLACEMENT_3D('',#444,#323,#324);
#290=AXIS2_PLACEMENT_3D('',#454,#330,#331);
#291=AXIS2_PLACEMENT_3D('',#462,#336,#337);
#292=AXIS2_PLACEMENT_3D('',#470,#342,#343);
#293=AXIS2_PLACEMENT_3D('',#476,#347,#348);
#294=AXIS2_PLACEMENT_3D('',#477,#349,#350);
#295=AXIS2_PLACEMENT_3D('',#479,#351,#352);
#296=AXIS2_PLACEMENT_3D('',#480,#353,#354);
#297=AXIS2_PLACEMENT_3D('',#481,#355,#356);
#298=AXIS2_PLACEMENT_3D('',#482,#357,#358);
#299=AXIS2_PLACEMENT_3D('',#483,#359,#360);
#300=AXIS2_PLACEMENT_3D('',#484,#361,#362);
#301=AXIS2_PLACEMENT_3D('',#485,#363,#364);
#302=AXIS2_PLACEMENT_3D('',#486,#365,#366);
#303=AXIS2_PLACEMENT_3D('',#487,#367,#368);
#304=AXIS2_PLACEMENT_3D('',#488,#369,#370);
#305=AXIS2_PLACEMENT_3D('',#490,#371,#372);
#306=AXIS2_PLACEMENT_3D('',#491,#373,#374);
#307=AXIS2_PLACEMENT_3D('',#493,#375,#376);
#308=AXIS2_PLACEMENT_3D('',#495,#377,#378);
#309=AXIS2_PLACEMENT_3D('',#496,#379,#380);
#310=AXIS2_PLACEMENT_3D('',#497,#381,#382);
#311=DIRECTION('',(0.0,0.0,1.0));
#312=DIRECTION('',(1.0,0.0,0.0));
#313=DIRECTION('',(0.0,0.0,1.0));
#314=DIRECTION('',(1.0,0.0,0.0));
#315=DIRECTION('',(0.0,0.0,1.0));
#316=DIRECTION('',(1.0,0.0,0.0));
#317=DIRECTION('',(0.0,0.0,1.0));
#318=DIRECTION('',(-0.707106781186548,-0.707106781186548,0.0));
#319=DIRECTION('',(1.0,-7.21644966006352E-16,0.0));
#320=DIRECTION('',(-4.44089209850063E-16,-1.0,0.0));
#321=DIRECTION('',(-1.0,1.11022302462516E-16,0.0));
#322=DIRECTION('',(1.11022302462516E-16,1.0,0.0));
#323=DIRECTION('',(0.0,0.0,1.0));
#324=DIRECTION('',(-0.707106781186548,-0.707106781186547,0.0));
#325=DIRECTION('',(-1.0,7.21644966006352E-16,-1.03344929793645E-16));
#326=DIRECTION('',(2.08166817117217E-17,-0.121869343405148,-0.992546151641322));
#327=DIRECTION('',(0.120974291151355,0.120974291151355,0.985256536015293));
#328=DIRECTION('',(-0.120974291151355,0.120974291151355,0.985256536015293));
#329=DIRECTION('',(-2.08166817117217E-17,0.121869343405148,0.992546151641322));
#330=DIRECTION('',(-7.21644966006352E-16,-0.992546151641322,0.121869343405148));
#331=DIRECTION('',(1.0,-7.21644966006352E-16,0.0));
#332=DIRECTION('',(-0.120974291151355,-0.120974291151354,0.985256536015293));
#333=DIRECTION('',(-0.121869343405148,3.60822483003176E-16,0.992546151641322));
#334=DIRECTION('',(-1.11022302462516E-16,-1.0,3.62783763963108E-16));
#335=DIRECTION('',(0.121869343405148,-3.60822483003176E-16,-0.992546151641322));
#336=DIRECTION('',(0.992546151641322,-5.55111512312578E-17,0.121869343405148));
#337=DIRECTION('',(1.11022302462516E-16,1.0,0.0));
#338=DIRECTION('',(0.120974291151354,-0.120974291151354,0.985256536015293));
#339=DIRECTION('',(-1.2490009027033E-16,-0.121869343405147,0.992546151641322));
#340=DIRECTION('',(1.0,-1.11022302462516E-16,1.03344929793645E-16));
#341=DIRECTION('',(1.2490009027033E-16,0.121869343405147,-0.992546151641322));
#342=DIRECTION('',(5.55111512312578E-17,0.992546151641322,0.121869343405147));
#343=DIRECTION('',(-1.0,1.11022302462516E-16,0.0));
#344=DIRECTION('',(0.121869343405147,3.05311331771918E-16,0.992546151641322));
#345=DIRECTION('',(4.44089209850063E-16,1.0,-3.62783763963108E-16));
#346=DIRECTION('',(-0.121869343405147,-3.05311331771918E-16,-0.992546151641322));
#347=DIRECTION('',(-0.992546151641322,4.44089209850063E-16,0.121869343405147));
#348=DIRECTION('',(-4.44089209850063E-16,-1.0,0.0));
#349=DIRECTION('',(0.0,0.0,1.0));
#350=DIRECTION('',(-0.707106781186548,-0.707106781186547,0.0));
#351=DIRECTION('',(-1.04902962956707E-16,3.68253109545943E-16,1.0));
#352=DIRECTION('',(-0.707106781186549,0.707106781186549,-3.34571867426218E-16));
#353=DIRECTION('',(-1.04902962956707E-16,3.68253109545943E-16,1.0));
#354=DIRECTION('',(-0.707106781186547,0.707106781186549,-3.34571867426218E-16));
#355=DIRECTION('',(-1.04902962956707E-16,3.68253109545943E-16,1.0));
#356=DIRECTION('',(-0.707106781186547,0.707106781186548,-3.34571867426217E-16));
#357=DIRECTION('',(-1.04902962956707E-16,3.68253109545943E-16,1.0));
#358=DIRECTION('',(-0.707106781186549,0.707106781186547,-3.34571867426218E-16));
#359=DIRECTION('',(-1.04902962956707E-16,3.68253109545943E-16,1.0));
#360=DIRECTION('',(-0.707106781186547,0.707106781186548,-3.34571867426218E-16));
#361=DIRECTION('',(-1.04902962956707E-16,3.68253109545943E-16,1.0));
#362=DIRECTION('',(-0.707106781186547,0.707106781186547,3.52066742699803E-17));
#363=DIRECTION('',(-1.04902962956707E-16,3.68253109545943E-16,1.0));
#364=DIRECTION('',(-0.707106781186547,0.707106781186548,0.0));
#365=DIRECTION('',(-1.04902962956707E-16,3.68253109545943E-16,1.0));
#366=DIRECTION('',(-0.707106781186547,0.707106781186547,7.04133485399606E-18));
#367=DIRECTION('',(-1.04902962956707E-16,3.68253109545943E-16,1.0));
#368=DIRECTION('',(-0.707106781186547,0.707106781186548,4.22480091239764E-17));
#369=DIRECTION('',(0.0,0.0,-1.0));
#370=DIRECTION('',(0.707106781186547,0.707106781186547,0.0));
#371=DIRECTION('',(0.0,0.0,1.0));
#372=DIRECTION('',(-0.707106781186548,-0.707106781186547,-9.48062626700518E-16));
#373=DIRECTION('',(0.0,0.0,1.0));
#374=DIRECTION('',(0.707106781186548,0.707106781186547,0.0));
#375=DIRECTION('',(0.0,0.0,-1.0));
#376=DIRECTION('',(-0.707106781186547,-0.707106781186547,0.0));
#377=DIRECTION('',(0.0,0.0,1.0));
#378=DIRECTION('',(-0.707106781186548,-0.707106781186547,0.0));
#379=DIRECTION('',(0.0,0.0,1.0));
#380=DIRECTION('',(-0.707106781186548,-0.707106781186548,0.0));
#381=DIRECTION('',(0.0,0.0,-1.0));
#382=DIRECTION('',(0.707106781186548,0.707106781186548,0.0));
#383=CARTESIAN_POINT('',(0.0,0.0,0.0));
#386=CARTESIAN_POINT('',(12.3311883003783,-2.66453525910038E-15,1.49094376211078E-16));
#387=CARTESIAN_POINT('',(9.92187499999999,-2.66453525910038E-15,-4.93038065763132E-33));
#388=CARTESIAN_POINT('',(7.540625,-1.77635683940025E-15,7.3075226425523E-18));
#389=CARTESIAN_POINT('',(5.159375,-3.5527136788005E-15,2.19225679276569E-17));
#390=CARTESIAN_POINT('',(2.778125,-2.66453525910038E-15,4.38451358553139E-17));
#391=CARTESIAN_POINT('',(0.368811699621658,-1.77635683940025E-15,7.5298501879714E-17));
#392=CARTESIAN_POINT('',(0.312685098864976,0.00496093749999815,7.81783806488542E-17));
#393=CARTESIAN_POINT('',(0.21708873690559,0.0290837384929112,7.81338479807323E-17));
#394=CARTESIAN_POINT('',(0.104708629322944,0.104708629323147,6.31545401055075E-17));
#395=CARTESIAN_POINT('',(0.0290837384929912,0.217088736905327,3.36559946509019E-17));
#396=CARTESIAN_POINT('',(0.00496093749999993,0.312685098864979,5.37760284604171E-18));
#397=CARTESIAN_POINT('',(-1.77635683940025E-15,0.36881169962166,-1.19542457632921E-17));
#398=CARTESIAN_POINT('',(-2.66453525910038E-15,2.778125,-1.24900090270332E-17));
#399=CARTESIAN_POINT('',(-1.77635683940025E-15,5.159375,-8.32667268468876E-18));
#400=CARTESIAN_POINT('',(-3.5527136788005E-15,7.540625,-8.32667268468868E-18));
#401=CARTESIAN_POINT('',(-2.66453525910038E-15,9.921875,-1.2490009027033E-17));
#402=CARTESIAN_POINT('',(-2.66453525910038E-15,12.3311883003783,-3.26230410201835E-17));
#403=CARTESIAN_POINT('',(0.00496093749999638,12.387314901135,-5.48019022639954E-17));
#404=CARTESIAN_POINT('',(0.029083738492913,12.4829112630944,-8.80475290882584E-17));
#405=CARTESIAN_POINT('',(0.104708629323131,12.5952913706771,-1.13468530563064E-16));
#406=CARTESIAN_POINT('',(0.217088736905333,12.670916261507,-1.12803101034042E-16));
#407=CARTESIAN_POINT('',(0.312685098864969,12.6950390625,-9.53215037662538E-17));
#408=CARTESIAN_POINT('',(0.368811699621653,12.7,-8.11863485997783E-17));
#409=CARTESIAN_POINT('',(2.77812499999999,12.7,-4.38451358553139E-17));
#410=CARTESIAN_POINT('',(5.159375,12.7,-2.92300905702093E-17));
#411=CARTESIAN_POINT('',(7.540625,12.7,-2.92300905702093E-17));
#412=CARTESIAN_POINT('',(9.921875,12.7,-4.38451358553139E-17));
#413=CARTESIAN_POINT('',(12.3311883003783,12.7,-7.5298501879714E-17));
#414=CARTESIAN_POINT('',(12.387314901135,12.6950390625,-7.81783806488542E-17));
#415=CARTESIAN_POINT('',(12.4829112630944,12.6709162615071,-7.81338479807322E-17));
#416=CARTESIAN_POINT('',(12.5952913706771,12.5952913706769,-6.31545401055076E-17));
#417=CARTESIAN_POINT('',(12.670916261507,12.4829112630947,-3.36559946509019E-17));
#418=CARTESIAN_POINT('',(12.6950390625,12.387314901135,-5.3776028460419E-18));
#419=CARTESIAN_POINT('',(12.7,12.3311883003783,1.1954245763292E-17));
#420=CARTESIAN_POINT('',(12.7,9.92187499999999,1.24900090270331E-17));
#421=CARTESIAN_POINT('',(12.7,7.54062499999999,8.3266726846887E-18));
#422=CARTESIAN_POINT('',(12.7,5.159375,8.32667268468861E-18));
#423=CARTESIAN_POINT('',(12.7,2.778125,1.24900090270328E-17));
#424=CARTESIAN_POINT('',(12.7,0.368811699621659,3.26230410201834E-17));
#425=CARTESIAN_POINT('',(12.6950390625,0.312685098864978,5.57153425943145E-17));
#426=CARTESIAN_POINT('',(12.6709162615071,0.217088736905583,9.34026176568769E-17));
#427=CARTESIAN_POINT('',(12.5952913706768,0.104708629322944,1.32748169735335E-16));
#428=CARTESIAN_POINT('',(12.4829112630947,0.0290837384929885,1.52774902240437E-16));
#429=CARTESIAN_POINT('',(12.387314901135,0.00496093749999993,1.52895133749108E-16));
#430=CARTESIAN_POINT('',(12.3311883003783,-2.66453525910038E-15,1.49094376211078E-16));
#431=CARTESIAN_POINT('',(9.92187499999999,-2.66453525910038E-15,-4.93038065763132E-33));
#432=CARTESIAN_POINT('',(0.0,0.0,0.0));
#433=CARTESIAN_POINT('',(6.35,6.35,0.0));
#434=CARTESIAN_POINT('',(6.35,6.35,-4.7625));
#435=CARTESIAN_POINT('',(4.40545635173699,4.40545635173699,-4.7625));
#436=CARTESIAN_POINT('',(6.35,12.1152385286999,-4.7625));
#437=CARTESIAN_POINT('',(0.584761471300083,12.1152385286999,-4.7625));
#438=CARTESIAN_POINT('',(12.1152385286999,12.1152385286999,-4.7625));
#439=CARTESIAN_POINT('',(12.1152385286999,6.35,-4.7625));
#440=CARTESIAN_POINT('',(12.1152385286999,0.584761471300079,-4.7625));
#441=CARTESIAN_POINT('',(6.35,0.58476147130008,-4.7625));
#442=CARTESIAN_POINT('',(0.584761471300082,0.584761471300081,-4.7625));
#443=CARTESIAN_POINT('',(0.584761471300082,6.35,-4.7625));
#444=CARTESIAN_POINT('',(6.35,5.81966991411009,-4.7625));
#445=CARTESIAN_POINT('',(6.35000000000001,12.7,-5.27182464349352E-15));
#446=CARTESIAN_POINT('',(12.303125,12.7,-4.64732419214187E-15));
#447=CARTESIAN_POINT('',(0.396874999999994,12.7,-5.89632509484517E-15));
#448=CARTESIAN_POINT('',(12.303125,12.7,-4.47024987468976E-15));
#449=CARTESIAN_POINT('',(12.303125,12.303125,-3.23228748860243));
#450=CARTESIAN_POINT('',(12.6070691525907,12.6070691525907,-0.75686101514648));
#451=CARTESIAN_POINT('',(0.0929308474092866,12.6070691525907,-0.756861015146483));
#452=CARTESIAN_POINT('',(0.396874999999995,12.303125,-3.23228748860238));
#453=CARTESIAN_POINT('',(0.396874999999994,12.7,-5.30856138389992E-15));
#454=CARTESIAN_POINT('',(6.35,12.7,-5.27182464349352E-15));
#455=CARTESIAN_POINT('',(0.0929308474092857,0.0929308474092849,-0.756861015146477));
#456=CARTESIAN_POINT('',(0.396875000000002,0.396875000000002,-3.23228748860244));
#457=CARTESIAN_POINT('',(-8.67361737988404E-16,0.396875000000001,-8.42043293018258E-16));
#458=CARTESIAN_POINT('',(-8.67361737988404E-16,0.396875000000001,-1.40729441988619E-15));
#459=CARTESIAN_POINT('',(-1.73472347597681E-15,6.35,-3.59955121265187E-15));
#460=CARTESIAN_POINT('',(8.67361737988404E-16,12.303125,-5.79180800541756E-15));
#461=CARTESIAN_POINT('',(8.67361737988404E-16,12.303125,-5.10479290438952E-15));
#462=CARTESIAN_POINT('',(-8.67361737988404E-16,6.35,-3.59955121265187E-15));
#463=CARTESIAN_POINT('',(12.6070691525907,0.092930847409284,-0.756861015146476));
#464=CARTESIAN_POINT('',(12.303125,0.396874999999998,-3.23228748860243));
#465=CARTESIAN_POINT('',(12.303125,-1.73472347597681E-15,1.35181995232477E-16));
#466=CARTESIAN_POINT('',(12.303125,-1.73472347597681E-15,2.94902990916018E-17));
#467=CARTESIAN_POINT('',(6.35,-1.73472347597681E-15,-5.95010152260046E-16));
#468=CARTESIAN_POINT('',(0.396875,-8.67361737988404E-16,-1.2195106036117E-15));
#469=CARTESIAN_POINT('',(0.396875,-8.67361737988404E-16,-7.04868117040219E-16));
#470=CARTESIAN_POINT('',(6.35,-1.73472347597681E-15,-5.95010152260047E-16));
#471=CARTESIAN_POINT('',(12.7,12.303125,-4.48579978748427E-15));
#472=CARTESIAN_POINT('',(12.7,12.303125,-4.45954037586738E-15));
#473=CARTESIAN_POINT('',(12.7,6.34999999999999,-2.26728358310169E-15));
#474=CARTESIAN_POINT('',(12.7,0.396874999999999,-7.50267903360008E-17));
#475=CARTESIAN_POINT('',(12.7,0.396874999999999,-1.20653915910464E-16));
#476=CARTESIAN_POINT('',(12.7,6.35,-2.26728358310169E-15));
#477=CARTESIAN_POINT('',(6.35,6.35,-6.93889390390723E-15));
#478=CARTESIAN_POINT('',(3.67278926266469,3.67278926266469,-6.93889390390723E-15));
#479=CARTESIAN_POINT('',(12.303125,12.303125,-4.50117373929082E-15));
#480=CARTESIAN_POINT('',(0.396874999999997,12.303125,-5.75017464199412E-15));
#481=CARTESIAN_POINT('',(0.396875,0.396875000000001,-1.36566105646274E-15));
#482=CARTESIAN_POINT('',(12.303125,0.396874999999998,-1.16660153759443E-16));
#483=CARTESIAN_POINT('',(6.35,6.35,-2.93341739787678E-15));
#484=CARTESIAN_POINT('',(12.303125,12.303125,-4.33680868994202E-15));
#485=CARTESIAN_POINT('',(12.303125,0.396874999999998,0.0));
#486=CARTESIAN_POINT('',(0.396875,0.396875000000001,-8.67361737988404E-16));
#487=CARTESIAN_POINT('',(0.396874999999997,12.303125,-5.20417042793042E-15));
#488=CARTESIAN_POINT('',(6.35,6.35,-0.808208197481453));
#489=CARTESIAN_POINT('',(9.00425734804004,9.00425734804003,-0.808208197481453));
#490=CARTESIAN_POINT('',(6.35,6.35,-0.900000000005743));
#491=CARTESIAN_POINT('',(6.35,6.35,-0.971857226151266));
#492=CARTESIAN_POINT('',(8.96424609579162,8.96424609579161,-0.971857226151266));
#493=CARTESIAN_POINT('',(6.35,6.35,-3.90000000000001));
#494=CARTESIAN_POINT('',(4.40545635173699,4.40545635173699,-3.90000000000001));
#495=CARTESIAN_POINT('',(6.35,6.35,-3.90000000000001));
#496=CARTESIAN_POINT('',(6.35,6.35,-33.3676978394524));
#497=CARTESIAN_POINT('',(6.35,6.35,-0.796168659720342));
#498=MECHANICAL_DESIGN_GEOMETRIC_PRESENTATION_REPRESENTATION('',(#269,#270,#271,
     #272),#499);
#499=(GEOMETRIC_REPRESENTATION_CONTEXT(3)GLOBAL_UNCERTAINTY_ASSIGNED_CONTEXT((#500))
     GLOBAL_UNIT_ASSIGNED_CONTEXT((#506,#502,#501))REPRESENTATION_CONTEXT('SCMT120404',
     'TOP_LEVEL_ASSEMBLY_PART'));
#500=UNCERTAINTY_MEASURE_WITH_UNIT(LENGTH_MEASURE(2.0E-5),#506,'DISTANCE_ACCURACY_VALUE',
     'Maximum Tolerance applied to model');
#501=(NAMED_UNIT(*)SI_UNIT($,.STERADIAN.)SOLID_ANGLE_UNIT());
#502=(CONVERSION_BASED_UNIT('DEGREE',#504)NAMED_UNIT(#503)PLANE_ANGLE_UNIT());
#503=DIMENSIONAL_EXPONENTS(0.0,0.0,0.0,0.0,0.0,0.0,0.0);
#504=PLANE_ANGLE_MEASURE_WITH_UNIT(PLANE_ANGLE_MEASURE(0.0174532925),#505);
#505=(NAMED_UNIT(*)PLANE_ANGLE_UNIT()SI_UNIT($,.RADIAN.));
#506=(LENGTH_UNIT()NAMED_UNIT(*)SI_UNIT(.MILLI.,.METRE.));
#507=CONSTRUCTIVE_GEOMETRY_REPRESENTATION('supplemental geometry',(#286,#287),#499);
#508=CONSTRUCTIVE_GEOMETRY_REPRESENTATION_RELATIONSHIP('supplemental geometry','contains PCS and MCS coordinate systems',
     #24,#507);
ENDSEC;
END-ISO-10303-21;
