ISO-10303-21;
HEADER;
FILE_DESCRIPTION(
/* description */ (''),
/* implementation_level */ '2;1');
FILE_NAME(
/* name */ 'DCET11T301.stp',
/* time_stamp */ '2017-03-21T10:54:01',
/* author */ ('Sandvik Coromant R&D'),
/* organization */ ('Sandvik Machining Solutions'),
/* preprocessor_version */ 'ST-DEVELOPER v15',
/* originating_system */ 'SIEMENS PLM Software NX v8.5.3.3(64 bits)',
/* authorization */ '');
FILE_SCHEMA(('AUTOMOTIVE_DESIGN'));
ENDSEC;
DATA;
#10=GEOMETRICALLY_BOUNDED_WIREFRAME_SHAPE_REPRESENTATION('IsoTurningInsert-None',
     (#25),#495);
#11=SHAPE_REPRESENTATION_RELATIONSHIP('None','relationship between IsoTurningInsert-None and IsoTurningInsert-None',
     #24,#13);
#12=SHAPE_REPRESENTATION_RELATIONSHIP('None','relationship between IsoTurningInsert-None and IsoTurningInsert-None',
     #24,#10);
#13=ADVANCED_BREP_SHAPE_REPRESENTATION('IsoTurningInsert-None',(#31),#495);
#14=SHAPE_DEFINITION_REPRESENTATION(#15,#24);
#15=PRODUCT_DEFINITION_SHAPE('','',#16);
#16=PRODUCT_DEFINITION(' ','',#18,#17);
#17=PRODUCT_DEFINITION_CONTEXT('part definition',#23,'design');
#18=PRODUCT_DEFINITION_FORMATION_WITH_SPECIFIED_SOURCE(' ',' ',#20,.NOT_KNOWN.);
#19=PRODUCT_RELATED_PRODUCT_CATEGORY('part','',(#20));
#20=PRODUCT('IsoTurningInsert','IsoTurningInsert',' ',(#21));
#21=PRODUCT_CONTEXT(' ',#23,'mechanical');
#22=APPLICATION_PROTOCOL_DEFINITION('international standard','automotive_design',
     2010,#23);
#23=APPLICATION_CONTEXT('core data for automotive mechanical design processes');
#24=SHAPE_REPRESENTATION('IsoTurningInsert-None',(#285),#495);
#25=GEOMETRIC_CURVE_SET('geometric curve set',(#265));
#26=SURFACE_STYLE_USAGE(.BOTH.,#27);
#27=SURFACE_SIDE_STYLE('',(#28));
#28=SURFACE_STYLE_FILL_AREA(#29);
#29=FILL_AREA_STYLE('',(#30));
#30=FILL_AREA_STYLE_COLOUR('',#284);
#31=MANIFOLD_SOLID_BREP('CUT',#32);
#32=CLOSED_SHELL('',(#49,#50,#51,#52,#53,#54,#55,#56,#57,#58,#59,#60,#61,#62));
#33=CYLINDRICAL_SURFACE('',#309,2.2);
#34=TOROIDAL_SURFACE('',#308,6.2,4.0);
#35=TOROIDAL_SURFACE('',#310,2.70678285826048,0.3);
#36=CONICAL_SURFACE('',#300,0.0992187500000004,7.0);
#37=CONICAL_SURFACE('',#301,0.0992187500000004,7.0);
#38=CONICAL_SURFACE('',#302,0.0992187500000004,7.0);
#39=CONICAL_SURFACE('',#303,0.0992187500000004,7.0);
#40=CONICAL_SURFACE('',#305,2.99999999999613,4.00000000019623);
#41=FACE_OUTER_BOUND('',#123,.T.);
#42=FACE_OUTER_BOUND('',#124,.T.);
#43=FACE_OUTER_BOUND('',#125,.T.);
#44=FACE_OUTER_BOUND('',#126,.T.);
#45=FACE_OUTER_BOUND('',#129,.T.);
#46=FACE_OUTER_BOUND('',#130,.T.);
#47=FACE_OUTER_BOUND('',#131,.T.);
#48=FACE_OUTER_BOUND('',#132,.T.);
#49=ADVANCED_FACE('',(#109,#110),#63,.F.);
#50=ADVANCED_FACE('',(#41),#64,.F.);
#51=ADVANCED_FACE('',(#42),#65,.F.);
#52=ADVANCED_FACE('',(#43),#66,.F.);
#53=ADVANCED_FACE('',(#44),#67,.F.);
#54=ADVANCED_FACE('',(#111,#112),#68,.T.);
#55=ADVANCED_FACE('',(#45),#36,.T.);
#56=ADVANCED_FACE('',(#46),#37,.T.);
#57=ADVANCED_FACE('',(#47),#38,.T.);
#58=ADVANCED_FACE('',(#48),#39,.T.);
#59=ADVANCED_FACE('',(#113,#114),#40,.F.);
#60=ADVANCED_FACE('',(#115,#116),#34,.T.);
#61=ADVANCED_FACE('',(#117,#118),#33,.F.);
#62=ADVANCED_FACE('',(#119,#120),#35,.F.);
#63=PLANE('',#289);
#64=PLANE('',#290);
#65=PLANE('',#291);
#66=PLANE('',#292);
#67=PLANE('',#293);
#68=PLANE('',#299);
#69=LINE('',#432,#89);
#70=LINE('',#435,#90);
#71=LINE('',#437,#91);
#72=LINE('',#439,#92);
#73=LINE('',#441,#93);
#74=LINE('',#444,#94);
#75=LINE('',#446,#95);
#76=LINE('',#447,#96);
#77=LINE('',#449,#97);
#78=LINE('',#451,#98);
#79=LINE('',#453,#99);
#80=LINE('',#455,#100);
#81=LINE('',#457,#101);
#82=LINE('',#459,#102);
#83=LINE('',#461,#103);
#84=LINE('',#463,#104);
#85=LINE('',#465,#105);
#86=LINE('',#467,#106);
#87=LINE('',#469,#107);
#88=LINE('',#471,#108);
#89=VECTOR('',#319,1.0);
#90=VECTOR('',#320,1.0);
#91=VECTOR('',#321,1.0);
#92=VECTOR('',#322,1.0);
#93=VECTOR('',#325,1.0);
#94=VECTOR('',#326,1.0);
#95=VECTOR('',#327,1.0);
#96=VECTOR('',#328,1.0);
#97=VECTOR('',#329,1.0);
#98=VECTOR('',#332,1.0);
#99=VECTOR('',#333,1.0);
#100=VECTOR('',#334,1.0);
#101=VECTOR('',#335,1.0);
#102=VECTOR('',#338,1.0);
#103=VECTOR('',#339,1.0);
#104=VECTOR('',#340,1.0);
#105=VECTOR('',#341,1.0);
#106=VECTOR('',#344,1.0);
#107=VECTOR('',#345,1.0);
#108=VECTOR('',#346,1.0);
#109=FACE_BOUND('',#121,.T.);
#110=FACE_BOUND('',#122,.T.);
#111=FACE_BOUND('',#127,.T.);
#112=FACE_BOUND('',#128,.T.);
#113=FACE_BOUND('',#133,.T.);
#114=FACE_BOUND('',#134,.T.);
#115=FACE_BOUND('',#135,.T.);
#116=FACE_BOUND('',#136,.T.);
#117=FACE_BOUND('',#137,.T.);
#118=FACE_BOUND('',#138,.T.);
#119=FACE_BOUND('',#139,.T.);
#120=FACE_BOUND('',#140,.T.);
#121=EDGE_LOOP('',(#141));
#122=EDGE_LOOP('',(#142,#143,#144,#145));
#123=EDGE_LOOP('',(#146,#147,#148,#149,#150,#151));
#124=EDGE_LOOP('',(#152,#153,#154,#155,#156,#157));
#125=EDGE_LOOP('',(#158,#159,#160,#161,#162,#163));
#126=EDGE_LOOP('',(#164,#165,#166,#167,#168,#169));
#127=EDGE_LOOP('',(#170));
#128=EDGE_LOOP('',(#171,#172,#173,#174,#175,#176,#177,#178));
#129=EDGE_LOOP('',(#179,#180,#181));
#130=EDGE_LOOP('',(#182,#183,#184));
#131=EDGE_LOOP('',(#185,#186,#187));
#132=EDGE_LOOP('',(#188,#189,#190));
#133=EDGE_LOOP('',(#191));
#134=EDGE_LOOP('',(#192));
#135=EDGE_LOOP('',(#193));
#136=EDGE_LOOP('',(#194));
#137=EDGE_LOOP('',(#195));
#138=EDGE_LOOP('',(#196));
#139=EDGE_LOOP('',(#197));
#140=EDGE_LOOP('',(#198));
#141=ORIENTED_EDGE('',*,*,#220,.T.);
#142=ORIENTED_EDGE('',*,*,#221,.T.);
#143=ORIENTED_EDGE('',*,*,#222,.T.);
#144=ORIENTED_EDGE('',*,*,#223,.T.);
#145=ORIENTED_EDGE('',*,*,#224,.T.);
#146=ORIENTED_EDGE('',*,*,#225,.F.);
#147=ORIENTED_EDGE('',*,*,#226,.T.);
#148=ORIENTED_EDGE('',*,*,#227,.F.);
#149=ORIENTED_EDGE('',*,*,#221,.F.);
#150=ORIENTED_EDGE('',*,*,#228,.T.);
#151=ORIENTED_EDGE('',*,*,#229,.T.);
#152=ORIENTED_EDGE('',*,*,#224,.F.);
#153=ORIENTED_EDGE('',*,*,#230,.T.);
#154=ORIENTED_EDGE('',*,*,#231,.T.);
#155=ORIENTED_EDGE('',*,*,#232,.F.);
#156=ORIENTED_EDGE('',*,*,#233,.T.);
#157=ORIENTED_EDGE('',*,*,#228,.F.);
#158=ORIENTED_EDGE('',*,*,#223,.F.);
#159=ORIENTED_EDGE('',*,*,#234,.T.);
#160=ORIENTED_EDGE('',*,*,#235,.T.);
#161=ORIENTED_EDGE('',*,*,#236,.F.);
#162=ORIENTED_EDGE('',*,*,#237,.T.);
#163=ORIENTED_EDGE('',*,*,#230,.F.);
#164=ORIENTED_EDGE('',*,*,#222,.F.);
#165=ORIENTED_EDGE('',*,*,#227,.T.);
#166=ORIENTED_EDGE('',*,*,#238,.T.);
#167=ORIENTED_EDGE('',*,*,#239,.F.);
#168=ORIENTED_EDGE('',*,*,#240,.T.);
#169=ORIENTED_EDGE('',*,*,#234,.F.);
#170=ORIENTED_EDGE('',*,*,#241,.F.);
#171=ORIENTED_EDGE('',*,*,#239,.T.);
#172=ORIENTED_EDGE('',*,*,#242,.T.);
#173=ORIENTED_EDGE('',*,*,#225,.T.);
#174=ORIENTED_EDGE('',*,*,#243,.T.);
#175=ORIENTED_EDGE('',*,*,#232,.T.);
#176=ORIENTED_EDGE('',*,*,#244,.T.);
#177=ORIENTED_EDGE('',*,*,#236,.T.);
#178=ORIENTED_EDGE('',*,*,#245,.T.);
#179=ORIENTED_EDGE('',*,*,#238,.F.);
#180=ORIENTED_EDGE('',*,*,#226,.F.);
#181=ORIENTED_EDGE('',*,*,#242,.F.);
#182=ORIENTED_EDGE('',*,*,#235,.F.);
#183=ORIENTED_EDGE('',*,*,#240,.F.);
#184=ORIENTED_EDGE('',*,*,#245,.F.);
#185=ORIENTED_EDGE('',*,*,#231,.F.);
#186=ORIENTED_EDGE('',*,*,#237,.F.);
#187=ORIENTED_EDGE('',*,*,#244,.F.);
#188=ORIENTED_EDGE('',*,*,#229,.F.);
#189=ORIENTED_EDGE('',*,*,#233,.F.);
#190=ORIENTED_EDGE('',*,*,#243,.F.);
#191=ORIENTED_EDGE('',*,*,#246,.T.);
#192=ORIENTED_EDGE('',*,*,#241,.T.);
#193=ORIENTED_EDGE('',*,*,#247,.T.);
#194=ORIENTED_EDGE('',*,*,#248,.T.);
#195=ORIENTED_EDGE('',*,*,#248,.F.);
#196=ORIENTED_EDGE('',*,*,#220,.F.);
#197=ORIENTED_EDGE('',*,*,#247,.F.);
#198=ORIENTED_EDGE('',*,*,#246,.F.);
#199=VERTEX_POINT('',#431);
#200=VERTEX_POINT('',#433);
#201=VERTEX_POINT('',#434);
#202=VERTEX_POINT('',#436);
#203=VERTEX_POINT('',#438);
#204=VERTEX_POINT('',#442);
#205=VERTEX_POINT('',#443);
#206=VERTEX_POINT('',#445);
#207=VERTEX_POINT('',#448);
#208=VERTEX_POINT('',#452);
#209=VERTEX_POINT('',#454);
#210=VERTEX_POINT('',#456);
#211=VERTEX_POINT('',#460);
#212=VERTEX_POINT('',#462);
#213=VERTEX_POINT('',#464);
#214=VERTEX_POINT('',#468);
#215=VERTEX_POINT('',#470);
#216=VERTEX_POINT('',#474);
#217=VERTEX_POINT('',#485);
#218=VERTEX_POINT('',#488);
#219=VERTEX_POINT('',#490);
#220=EDGE_CURVE('',#199,#199,#249,.T.);
#221=EDGE_CURVE('',#200,#201,#69,.T.);
#222=EDGE_CURVE('',#201,#202,#70,.T.);
#223=EDGE_CURVE('',#202,#203,#71,.T.);
#224=EDGE_CURVE('',#203,#200,#72,.T.);
#225=EDGE_CURVE('',#204,#205,#73,.T.);
#226=EDGE_CURVE('',#204,#206,#74,.T.);
#227=EDGE_CURVE('INSERT_CORNER_EDGE3',#201,#206,#75,.T.);
#228=EDGE_CURVE('INSERT_CORNER_EDGE4',#200,#207,#76,.T.);
#229=EDGE_CURVE('',#207,#205,#77,.T.);
#230=EDGE_CURVE('INSERT_CORNER_EDGE1',#203,#208,#78,.T.);
#231=EDGE_CURVE('',#208,#209,#79,.T.);
#232=EDGE_CURVE('',#210,#209,#80,.T.);
#233=EDGE_CURVE('',#210,#207,#81,.T.);
#234=EDGE_CURVE('INSERT_CORNER_EDGE2',#202,#211,#82,.T.);
#235=EDGE_CURVE('',#211,#212,#83,.T.);
#236=EDGE_CURVE('',#213,#212,#84,.T.);
#237=EDGE_CURVE('',#213,#208,#85,.T.);
#238=EDGE_CURVE('',#206,#214,#86,.T.);
#239=EDGE_CURVE('',#215,#214,#87,.T.);
#240=EDGE_CURVE('',#215,#211,#88,.T.);
#241=EDGE_CURVE('',#216,#216,#250,.T.);
#242=EDGE_CURVE('',#214,#204,#251,.T.);
#243=EDGE_CURVE('',#205,#210,#252,.T.);
#244=EDGE_CURVE('',#209,#213,#253,.T.);
#245=EDGE_CURVE('',#212,#215,#254,.T.);
#246=EDGE_CURVE('',#217,#217,#255,.T.);
#247=EDGE_CURVE('',#218,#218,#256,.T.);
#248=EDGE_CURVE('',#219,#219,#257,.T.);
#249=CIRCLE('',#288,2.2);
#250=CIRCLE('',#294,3.07132534818238);
#251=CIRCLE('',#295,0.0992187500000004);
#252=CIRCLE('',#296,0.0992187500000003);
#253=CIRCLE('',#297,0.0992187500000004);
#254=CIRCLE('',#298,0.0992187500000004);
#255=CIRCLE('',#304,3.00605207333835);
#256=CIRCLE('',#306,2.95049568210277);
#257=CIRCLE('',#307,2.2);
#258=CURVE_STYLE('',#262,POSITIVE_LENGTH_MEASURE(0.18),#261);
#259=CURVE_STYLE('',#263,POSITIVE_LENGTH_MEASURE(0.18),#283);
#260=CURVE_STYLE('',#264,POSITIVE_LENGTH_MEASURE(0.18),#283);
#261=DRAUGHTING_PRE_DEFINED_COLOUR('blue');
#262=DRAUGHTING_PRE_DEFINED_CURVE_FONT('continuous');
#263=DRAUGHTING_PRE_DEFINED_CURVE_FONT('continuous');
#264=DRAUGHTING_PRE_DEFINED_CURVE_FONT('continuous');
#265=B_SPLINE_CURVE_WITH_KNOTS('CUTTING EDGE LINE',5,(#386,#387,#388,#389,#390,#391,
     #392,#393,#394,#395,#396,#397,#398,#399,#400,#401,#402,#403,#404,#405,#406,
     #407,#408,#409,#410,#411,#412,#413,#414,#415,#416,#417,#418,#419,#420,#421,
     #422,#423,#424,#425,#426,#427),.UNSPECIFIED.,.T.,.F.,(2,4,1,4,4,1,1,1,4,4,1,
     4,4,1,1,1,4,4,1,1),(-0.246624081,0.0,0.0010315308,0.0020630616,0.2486871425,
     0.249859336625,0.251031530750008,0.252203724875,0.253375919,0.5,0.5010315308,
     0.5020630616,0.7486871425,0.749859336625,0.751031530750006,0.752203724875,0.753375919,
     1.0,1.0010315308,1.0020630616),.UNSPECIFIED.);
#266=PRESENTATION_LAYER_ASSIGNMENT('1','Layer 1',(#265,#286,#287,#31));
#269=STYLED_ITEM('',(#275),#265);
#270=STYLED_ITEM('',(#276),#286);
#271=STYLED_ITEM('',(#277),#287);
#272=STYLED_ITEM('',(#278),#31);
#273=PRESENTATION_STYLE_ASSIGNMENT((#279));
#274=PRESENTATION_STYLE_ASSIGNMENT((#280));
#275=PRESENTATION_STYLE_ASSIGNMENT((#258));
#276=PRESENTATION_STYLE_ASSIGNMENT((#259));
#277=PRESENTATION_STYLE_ASSIGNMENT((#260));
#278=PRESENTATION_STYLE_ASSIGNMENT((#26));
#279=POINT_STYLE('',#281,POSITIVE_LENGTH_MEASURE(3.0),#283);
#280=POINT_STYLE('',#282,POSITIVE_LENGTH_MEASURE(3.0),#283);
#281=PRE_DEFINED_POINT_MARKER_SYMBOL('plus');
#282=PRE_DEFINED_POINT_MARKER_SYMBOL('plus');
#283=COLOUR_RGB('Medium Maroon',0.6,0.4,0.4);
#284=COLOUR_RGB('IsoInsertColor',0.8,0.8,0.8);
#285=AXIS2_PLACEMENT_3D('',#383,#311,#312);
#286=AXIS2_PLACEMENT_3D('PCS',#428,#313,#314);
#287=AXIS2_PLACEMENT_3D('MCS',#429,#315,#316);
#288=AXIS2_PLACEMENT_3D('',#430,#317,#318);
#289=AXIS2_PLACEMENT_3D('',#440,#323,#324);
#290=AXIS2_PLACEMENT_3D('',#450,#330,#331);
#291=AXIS2_PLACEMENT_3D('',#458,#336,#337);
#292=AXIS2_PLACEMENT_3D('',#466,#342,#343);
#293=AXIS2_PLACEMENT_3D('',#472,#347,#348);
#294=AXIS2_PLACEMENT_3D('',#473,#349,#350);
#295=AXIS2_PLACEMENT_3D('',#475,#351,#352);
#296=AXIS2_PLACEMENT_3D('',#476,#353,#354);
#297=AXIS2_PLACEMENT_3D('',#477,#355,#356);
#298=AXIS2_PLACEMENT_3D('',#478,#357,#358);
#299=AXIS2_PLACEMENT_3D('',#479,#359,#360);
#300=AXIS2_PLACEMENT_3D('',#480,#361,#362);
#301=AXIS2_PLACEMENT_3D('',#481,#363,#364);
#302=AXIS2_PLACEMENT_3D('',#482,#365,#366);
#303=AXIS2_PLACEMENT_3D('',#483,#367,#368);
#304=AXIS2_PLACEMENT_3D('',#484,#369,#370);
#305=AXIS2_PLACEMENT_3D('',#486,#371,#372);
#306=AXIS2_PLACEMENT_3D('',#487,#373,#374);
#307=AXIS2_PLACEMENT_3D('',#489,#375,#376);
#308=AXIS2_PLACEMENT_3D('',#491,#377,#378);
#309=AXIS2_PLACEMENT_3D('',#492,#379,#380);
#310=AXIS2_PLACEMENT_3D('',#493,#381,#382);
#311=DIRECTION('',(0.0,0.0,1.0));
#312=DIRECTION('',(1.0,0.0,0.0));
#313=DIRECTION('',(0.0,0.0,1.0));
#314=DIRECTION('',(1.0,0.0,0.0));
#315=DIRECTION('',(0.0,0.0,1.0));
#316=DIRECTION('',(1.0,0.0,0.0));
#317=DIRECTION('',(0.0,0.0,1.0));
#318=DIRECTION('',(-0.887010833178222,-0.461748613235034,0.0));
#319=DIRECTION('',(1.0,6.10622663543836E-16,0.0));
#320=DIRECTION('',(-0.573576436351046,-0.819152044288992,0.0));
#321=DIRECTION('',(-1.0,1.66533453693773E-16,0.0));
#322=DIRECTION('',(0.573576436351046,0.819152044288991,0.0));
#323=DIRECTION('',(0.0,0.0,1.0));
#324=DIRECTION('',(-0.887010833178222,-0.461748613235034,0.0));
#325=DIRECTION('',(-1.0,-6.10622663543836E-16,-1.19689526338967E-16));
#326=DIRECTION('',(1.87350135405495E-16,-0.121869343405148,-0.992546151641322));
#327=DIRECTION('',(0.227945648159466,0.11866099374848,0.966416240575346));
#328=DIRECTION('',(-0.0633138803303044,0.121624832503706,0.990554770154566));
#329=DIRECTION('',(-1.87350135405495E-16,0.121869343405148,0.992546151641322));
#330=DIRECTION('',(6.10622663543836E-16,-0.992546151641322,0.121869343405148));
#331=DIRECTION('',(1.0,6.10622663543836E-16,0.0));
#332=DIRECTION('',(-0.227945648159467,-0.118660993748479,0.966416240575346));
#333=DIRECTION('',(-0.0998295217864837,0.0699013836907669,0.992546151641322));
#334=DIRECTION('',(-0.573576436351046,-0.819152044288991,4.03049328176126E-16));
#335=DIRECTION('',(0.0998295217864837,-0.0699013836907669,-0.992546151641322));
#336=DIRECTION('',(0.81304620916816,-0.569301084572375,0.121869343405148));
#337=DIRECTION('',(0.573576436351046,0.819152044288991,0.0));
#338=DIRECTION('',(0.0633138803303042,-0.121624832503705,0.990554770154566));
#339=DIRECTION('',(-1.2490009027033E-16,-0.121869343405147,0.992546151641322));
#340=DIRECTION('',(1.0,-1.66533453693773E-16,1.19689526338968E-16));
#341=DIRECTION('',(1.2490009027033E-16,0.121869343405147,-0.992546151641322));
#342=DIRECTION('',(1.11022302462516E-16,0.992546151641322,0.121869343405147));
#343=DIRECTION('',(-1.0,1.66533453693773E-16,0.0));
#344=DIRECTION('',(0.0998295217864836,-0.0699013836907657,0.992546151641322));
#345=DIRECTION('',(0.573576436351046,0.819152044288992,-4.03049328176126E-16));
#346=DIRECTION('',(-0.0998295217864836,0.0699013836907657,-0.992546151641322));
#347=DIRECTION('',(-0.813046209168161,0.569301084572374,0.121869343405147));
#348=DIRECTION('',(-0.573576436351046,-0.819152044288992,0.0));
#349=DIRECTION('',(0.0,0.0,1.0));
#350=DIRECTION('',(-0.887010833178222,-0.461748613235034,0.0));
#351=DIRECTION('',(-1.1457530207728E-16,5.71230636268423E-16,1.0));
#352=DIRECTION('',(-0.461748613235022,0.88701083317822,-5.59592749458549E-16));
#353=DIRECTION('',(-1.1457530207728E-16,5.71230636268423E-16,1.0));
#354=DIRECTION('',(-0.461748613235031,0.88701083317822,-5.5959274945855E-16));
#355=DIRECTION('',(-1.1457530207728E-16,5.71230636268423E-16,1.0));
#356=DIRECTION('',(-0.461748613235034,0.887010833178222,-5.5959274945855E-16));
#357=DIRECTION('',(-1.1457530207728E-16,5.71230636268423E-16,1.0));
#358=DIRECTION('',(-0.461748613235039,0.887010833178222,-5.59592749458549E-16));
#359=DIRECTION('',(-1.1457530207728E-16,5.71230636268423E-16,1.0));
#360=DIRECTION('',(-0.461748613235034,0.887010833178222,-5.59592749458549E-16));
#361=DIRECTION('',(-1.1457530207728E-16,5.71230636268423E-16,1.0));
#362=DIRECTION('',(-0.461748613235034,0.887010833178222,-8.68182066615429E-16));
#363=DIRECTION('',(-1.1457530207728E-16,5.71230636268423E-16,1.0));
#364=DIRECTION('',(-0.461748613235034,0.887010833178222,-9.03474020542886E-16));
#365=DIRECTION('',(-1.1457530207728E-16,5.71230636268423E-16,1.0));
#366=DIRECTION('',(-0.461748613235034,0.887010833178222,-8.96415629757394E-16));
#367=DIRECTION('',(-1.1457530207728E-16,5.71230636268423E-16,1.0));
#368=DIRECTION('',(-0.461748613235034,0.887010833178222,-8.61123675829938E-16));
#369=DIRECTION('',(0.0,0.0,-1.0));
#370=DIRECTION('',(0.887010833178222,0.461748613235034,0.0));
#371=DIRECTION('',(0.0,0.0,1.0));
#372=DIRECTION('',(-0.887010833178222,-0.461748613235034,4.7574367497067E-16));
#373=DIRECTION('',(0.0,0.0,1.0));
#374=DIRECTION('',(0.887010833178221,0.461748613235034,0.0));
#375=DIRECTION('',(0.0,0.0,-1.0));
#376=DIRECTION('',(-0.887010833178222,-0.461748613235034,0.0));
#377=DIRECTION('',(0.0,0.0,1.0));
#378=DIRECTION('',(-0.887010833178222,-0.461748613235034,0.0));
#379=DIRECTION('',(0.0,0.0,1.0));
#380=DIRECTION('',(-0.887010833178222,-0.461748613235034,0.0));
#381=DIRECTION('',(0.0,0.0,-1.0));
#382=DIRECTION('',(0.887010833178222,0.461748613235034,0.0));
#383=CARTESIAN_POINT('',(0.0,0.0,0.0));
#386=CARTESIAN_POINT('',(9.29910184580683,-2.66453525910038E-15,0.0));
#387=CARTESIAN_POINT('',(11.5853907699498,-4.44089209850063E-15,5.77266230249667E-17));
#388=CARTESIAN_POINT('',(11.6037164180376,0.00211546064778467,5.86178737585466E-17));
#389=CARTESIAN_POINT('',(11.6233591253445,0.00868059667535093,5.74786395075733E-17));
#390=CARTESIAN_POINT('',(11.640003564,0.0210053531943704,4.91584822392068E-17));
#391=CARTESIAN_POINT('',(11.6522476078382,0.0348034669087838,3.24872493933835E-17));
#392=CARTESIAN_POINT('',(12.963609061417,1.90762171295579,4.18206064469463E-18));
#393=CARTESIAN_POINT('',(14.2697149350338,3.77293421295579,3.69778549322349E-33));
#394=CARTESIAN_POINT('',(15.5758208086506,5.63824671295579,9.86076131526265E-33));
#395=CARTESIAN_POINT('',(16.8819266822674,7.50355921295579,4.18206064469463E-18));
#396=CARTESIAN_POINT('',(18.1939371850748,9.37730439736485,2.51339415055886E-17));
#397=CARTESIAN_POINT('',(18.203559117873,9.39570134804474,2.54878250357657E-17));
#398=CARTESIAN_POINT('',(18.2122067000137,9.43182151647491,1.00435325179998E-17));
#399=CARTESIAN_POINT('',(18.1997750133796,9.47420319942027,-1.66366659373584E-17));
#400=CARTESIAN_POINT('',(18.1721884936716,9.50869577561127,-4.19764943261947E-17));
#401=CARTESIAN_POINT('',(18.1376405345147,9.52232976851097,-4.78375570690449E-17));
#402=CARTESIAN_POINT('',(18.1170517208315,9.525,-3.84942680109953E-17));
#403=CARTESIAN_POINT('',(15.8296312138908,9.525,-5.6676789692258E-18));
#404=CARTESIAN_POINT('',(13.5525051137917,9.52499999999999,0.0));
#405=CARTESIAN_POINT('',(11.2753790136926,9.52499999999999,-4.93038065763132E-33));
#406=CARTESIAN_POINT('',(8.99825291359351,9.52499999999999,-5.66767896922577E-18));
#407=CARTESIAN_POINT('',(6.71196398945053,9.52499999999999,-4.00831997927431E-17));
#408=CARTESIAN_POINT('',(6.69363834136276,9.5228845393522,-5.47872764284873E-17));
#409=CARTESIAN_POINT('',(6.6739956340558,9.51631940332463,-5.79670712308687E-17));
#410=CARTESIAN_POINT('',(6.65735119540037,9.50399464680561,-4.91584822392067E-17));
#411=CARTESIAN_POINT('',(6.64510715156212,9.4901965330912,-3.24872493933835E-17));
#412=CARTESIAN_POINT('',(5.33374569798331,7.6173782870442,-4.18206064469464E-18));
#413=CARTESIAN_POINT('',(4.02763982436652,5.7520657870442,-1.84889274661175E-33));
#414=CARTESIAN_POINT('',(2.72153395074972,3.8867532870442,9.86076131526265E-33));
#415=CARTESIAN_POINT('',(1.41542807713292,2.0214407870442,-4.18206064469452E-18));
#416=CARTESIAN_POINT('',(0.103417574325551,0.147695602635146,-2.51339415055883E-17));
#417=CARTESIAN_POINT('',(0.0937956415273611,0.129298651955279,-2.54878250357644E-17));
#418=CARTESIAN_POINT('',(0.085148059386654,0.0931784835251035,-1.0043532518018E-17));
#419=CARTESIAN_POINT('',(0.0975797460207009,0.0507968005797457,1.66366659373684E-17));
#420=CARTESIAN_POINT('',(0.125166265728692,0.0163042243887457,4.19764943261557E-17));
#421=CARTESIAN_POINT('',(0.159714224885603,0.00267023148902545,4.78375570690513E-17));
#422=CARTESIAN_POINT('',(0.180303038568795,0.0,3.84942680109947E-17));
#423=CARTESIAN_POINT('',(2.46772354550952,-1.77635683940025E-15,5.66767896922576E-18));
#424=CARTESIAN_POINT('',(4.74484964560862,-2.66453525910038E-15,1.23259516440783E-32));
#425=CARTESIAN_POINT('',(7.02197574570772,-2.66453525910038E-15,0.0));
#426=CARTESIAN_POINT('',(9.29910184580683,-2.66453525910038E-15,0.0));
#427=CARTESIAN_POINT('',(11.5853907699498,-4.44089209850063E-15,5.77266230249667E-17));
#428=CARTESIAN_POINT('',(0.0,0.0,0.0));
#429=CARTESIAN_POINT('',(9.14867737970017,4.7625,0.0));
#430=CARTESIAN_POINT('',(9.14867737970017,4.7625,-3.96875));
#431=CARTESIAN_POINT('',(7.19725354670809,3.74665305088292,-3.96875));
#432=CARTESIAN_POINT('',(9.14867737970017,9.03769877391659,-3.96875));
#433=CARTESIAN_POINT('',(6.92314976343997,9.03769877391658,-3.96875));
#434=CARTESIAN_POINT('',(17.361257813643,9.03769877391659,-3.96875));
#435=CARTESIAN_POINT('',(12.6507151950957,2.31034672256455,-3.96875));
#436=CARTESIAN_POINT('',(11.3742049959604,0.487301226083396,-3.96875));
#437=CARTESIAN_POINT('',(9.14867737970017,0.487301226083397,-3.96875));
#438=CARTESIAN_POINT('',(0.936096945757345,0.487301226083398,-3.96875));
#439=CARTESIAN_POINT('',(5.6466395643046,7.21465327743544,-3.96875));
#440=CARTESIAN_POINT('',(8.98920404722148,4.25671520759503,-3.96875));
#441=CARTESIAN_POINT('',(9.14867737970017,9.52499999999999,-5.65390330310514E-15));
#442=CARTESIAN_POINT('',(18.1067573139899,9.525,-4.62752858860148E-15));
#443=CARTESIAN_POINT('',(6.72112681349441,9.52499999999999,-5.93204064253604E-15));
#444=CARTESIAN_POINT('',(18.1067573139899,9.525,-4.37564149625983E-15));
#445=CARTESIAN_POINT('',(18.1067573139899,9.42578125,-0.808071872150611));
#446=CARTESIAN_POINT('',(17.8219966323067,9.27754422182307,-2.01536558307689));
#447=CARTESIAN_POINT('',(6.67941504250489,9.50590881655518,-0.155485211694563));
#448=CARTESIAN_POINT('',(6.72112681349441,9.42578124999999,-0.808071872150623));
#449=CARTESIAN_POINT('',(6.72112681349441,9.52499999999999,-5.29640066057515E-15));
#450=CARTESIAN_POINT('',(9.14867737970017,9.52499999999999,-5.65390330310514E-15));
#451=CARTESIAN_POINT('',(0.475358127093603,0.247455778176921,-2.01536558307689));
#452=CARTESIAN_POINT('',(0.190597445410416,0.0992187499999986,-0.808071872150606));
#453=CARTESIAN_POINT('',(0.109322203516117,0.156128287044204,-9.31917273895809E-16));
#454=CARTESIAN_POINT('',(0.109322203516117,0.156128287044204,-1.33780360329129E-15));
#455=CARTESIAN_POINT('',(5.24746576877385,7.49415777812186,-4.94080650733019E-15));
#456=CARTESIAN_POINT('',(6.63985157160011,9.48269078704419,-5.91718445929073E-15));
#457=CARTESIAN_POINT('',(6.63985157160011,9.48269078704419,-5.35347708475851E-15));
#458=CARTESIAN_POINT('',(5.24746576877385,7.49415777812185,-4.94080650733019E-15));
#459=CARTESIAN_POINT('',(11.6179397168955,0.0190911834448085,-0.155485211694558));
#460=CARTESIAN_POINT('',(11.5762279459059,0.0992187499999977,-0.808071872150612));
#461=CARTESIAN_POINT('',(11.5762279459059,-3.46944695195361E-15,1.63375797929026E-16));
#462=CARTESIAN_POINT('',(11.5762279459059,-3.46944695195361E-15,6.52058467824827E-17));
#463=CARTESIAN_POINT('',(9.14867737970017,-3.46944695195361E-15,-2.12931492648413E-16));
#464=CARTESIAN_POINT('',(0.190597445410416,-2.60208521396521E-15,-1.23930620715208E-15));
#465=CARTESIAN_POINT('',(0.190597445410416,-2.60208521396521E-15,-7.43931857712524E-16));
#466=CARTESIAN_POINT('',(9.14867737970017,-2.60208521396521E-15,-2.12931492648414E-16));
#467=CARTESIAN_POINT('',(18.1880325558842,9.36887171295579,-4.44799323823926E-15));
#468=CARTESIAN_POINT('',(18.1880325558842,9.36887171295579,-4.52903119246228E-15));
#469=CARTESIAN_POINT('',(13.0498889906265,2.03084222187815,-9.26028288423373E-16));
#470=CARTESIAN_POINT('',(11.6575031878002,0.0423092129557918,5.03496635371707E-17));
#471=CARTESIAN_POINT('',(11.6575031878002,0.0423092129557918,1.16317358847294E-16));
#472=CARTESIAN_POINT('',(13.0498889906265,2.03084222187814,-9.2602828842337E-16));
#473=CARTESIAN_POINT('',(9.14867737970017,4.7625,-6.93889390390723E-15));
#474=CARTESIAN_POINT('',(6.42437852364753,3.34431977968318,-6.93889390390723E-15));
#475=CARTESIAN_POINT('',(18.1067573139899,9.42578125,-4.57085179890922E-15));
#476=CARTESIAN_POINT('',(6.72112681349441,9.42578124999999,-5.87536385284378E-15));
#477=CARTESIAN_POINT('',(0.190597445410418,0.0992187500000004,-1.29598299684434E-15));
#478=CARTESIAN_POINT('',(11.5762279459059,0.0992187499999969,8.52905709022472E-18));
#479=CARTESIAN_POINT('',(9.14867737970017,4.7625,-2.93341739787678E-15));
#480=CARTESIAN_POINT('',(18.1067573139899,9.42578125,-4.33680868994202E-15));
#481=CARTESIAN_POINT('',(11.5762279459059,0.0992187499999969,0.0));
#482=CARTESIAN_POINT('',(0.190597445410418,0.0992187500000004,-8.67361737988404E-16));
#483=CARTESIAN_POINT('',(6.72112681349441,9.42578124999999,-5.20417042793042E-15));
#484=CARTESIAN_POINT('',(9.14867737970017,4.7625,-0.933451318981114));
#485=CARTESIAN_POINT('',(11.8150781338491,6.15054037617628,-0.933451318981114));
#486=CARTESIAN_POINT('',(9.14867737970017,4.7625,-1.02000000000516));
#487=CARTESIAN_POINT('',(9.14867737970017,4.7625,-1.08746453661102));
#488=CARTESIAN_POINT('',(11.7657990129709,6.12488728956691,-1.08746453661102));
#489=CARTESIAN_POINT('',(9.14867737970017,4.7625,-3.42000000000001));
#490=CARTESIAN_POINT('',(7.19725354670809,3.74665305088292,-3.42000000000001));
#491=CARTESIAN_POINT('',(9.14867737970017,4.7625,-3.42));
#492=CARTESIAN_POINT('',(9.14867737970017,4.7625,-33.3676978394524));
#493=CARTESIAN_POINT('',(9.14867737970017,4.7625,-0.912524376856845));
#494=MECHANICAL_DESIGN_GEOMETRIC_PRESENTATION_REPRESENTATION('',(#269,#270,#271,
     #272),#495);
#495=(GEOMETRIC_REPRESENTATION_CONTEXT(3)GLOBAL_UNCERTAINTY_ASSIGNED_CONTEXT((#496))
     GLOBAL_UNIT_ASSIGNED_CONTEXT((#502,#498,#497))REPRESENTATION_CONTEXT('DCET11T301',
     'TOP_LEVEL_ASSEMBLY_PART'));
#496=UNCERTAINTY_MEASURE_WITH_UNIT(LENGTH_MEASURE(2.0E-5),#502,'DISTANCE_ACCURACY_VALUE',
     'Maximum Tolerance applied to model');
#497=(NAMED_UNIT(*)SI_UNIT($,.STERADIAN.)SOLID_ANGLE_UNIT());
#498=(CONVERSION_BASED_UNIT('DEGREE',#500)NAMED_UNIT(#499)PLANE_ANGLE_UNIT());
#499=DIMENSIONAL_EXPONENTS(0.0,0.0,0.0,0.0,0.0,0.0,0.0);
#500=PLANE_ANGLE_MEASURE_WITH_UNIT(PLANE_ANGLE_MEASURE(0.0174532925),#501);
#501=(NAMED_UNIT(*)PLANE_ANGLE_UNIT()SI_UNIT($,.RADIAN.));
#502=(LENGTH_UNIT()NAMED_UNIT(*)SI_UNIT(.MILLI.,.METRE.));
#503=CONSTRUCTIVE_GEOMETRY_REPRESENTATION('supplemental geometry',(#286,#287),#495);
#504=CONSTRUCTIVE_GEOMETRY_REPRESENTATION_RELATIONSHIP('supplemental geometry','contains PCS and MCS coordinate systems',
     #24,#503);
ENDSEC;
END-ISO-10303-21;
