ISO-10303-21;
HEADER;
FILE_DESCRIPTION(
/* description */ (''),
/* implementation_level */ '2;1');
FILE_NAME(
/* name */ 'VBMT110312.stp',
/* time_stamp */ '2017-03-21T10:54:44',
/* author */ ('Sandvik Coromant R&D'),
/* organization */ ('Sandvik Machining Solutions'),
/* preprocessor_version */ 'ST-DEVELOPER v15',
/* originating_system */ 'SIEMENS PLM Software NX v8.5.3.3(64 bits)',
/* authorization */ '');
FILE_SCHEMA(('AUTOMOTIVE_DESIGN'));
ENDSEC;
DATA;
#10=GEOMETRICALLY_BOUNDED_WIREFRAME_SHAPE_REPRESENTATION('IsoTurningInsert-None',
     (#25),#523);
#11=SHAPE_REPRESENTATION_RELATIONSHIP('None','relationship between IsoTurningInsert-None and IsoTurningInsert-None',
     #24,#13);
#12=SHAPE_REPRESENTATION_RELATIONSHIP('None','relationship between IsoTurningInsert-None and IsoTurningInsert-None',
     #24,#10);
#13=ADVANCED_BREP_SHAPE_REPRESENTATION('IsoTurningInsert-None',(#31),#523);
#14=SHAPE_DEFINITION_REPRESENTATION(#15,#24);
#15=PRODUCT_DEFINITION_SHAPE('','',#16);
#16=PRODUCT_DEFINITION(' ','',#18,#17);
#17=PRODUCT_DEFINITION_CONTEXT('part definition',#23,'design');
#18=PRODUCT_DEFINITION_FORMATION_WITH_SPECIFIED_SOURCE(' ',' ',#20,.NOT_KNOWN.);
#19=PRODUCT_RELATED_PRODUCT_CATEGORY('part','',(#20));
#20=PRODUCT('IsoTurningInsert','IsoTurningInsert',' ',(#21));
#21=PRODUCT_CONTEXT(' ',#23,'mechanical');
#22=APPLICATION_PROTOCOL_DEFINITION('international standard','automotive_design',
     2010,#23);
#23=APPLICATION_CONTEXT('core data for automotive mechanical design processes');
#24=SHAPE_REPRESENTATION('IsoTurningInsert-None',(#281),#523);
#25=GEOMETRIC_CURVE_SET('geometric curve set',(#261));
#26=SURFACE_STYLE_USAGE(.BOTH.,#27);
#27=SURFACE_SIDE_STYLE('',(#28));
#28=SURFACE_STYLE_FILL_AREA(#29);
#29=FILL_AREA_STYLE('',(#30));
#30=FILL_AREA_STYLE_COLOUR('',#280);
#31=MANIFOLD_SOLID_BREP('CUT',#32);
#32=CLOSED_SHELL('',(#49,#50,#51,#52,#53,#54,#55,#56,#57,#58,#59,#60,#61,#62));
#33=CYLINDRICAL_SURFACE('',#309,1.4);
#34=TOROIDAL_SURFACE('',#308,3.9,2.5);
#35=TOROIDAL_SURFACE('',#310,1.38569981785225,0.5);
#36=CONICAL_SURFACE('',#300,1.190625,5.0);
#37=CONICAL_SURFACE('',#301,1.190625,5.0);
#38=CONICAL_SURFACE('',#302,1.190625,5.0);
#39=CONICAL_SURFACE('',#303,1.190625,5.0);
#40=CONICAL_SURFACE('',#305,1.87499999997636,4.0000000017905);
#41=FACE_OUTER_BOUND('',#115,.T.);
#42=FACE_OUTER_BOUND('',#116,.T.);
#43=FACE_OUTER_BOUND('',#117,.T.);
#44=FACE_OUTER_BOUND('',#118,.T.);
#45=FACE_OUTER_BOUND('',#121,.T.);
#46=FACE_OUTER_BOUND('',#122,.T.);
#47=FACE_OUTER_BOUND('',#123,.T.);
#48=FACE_OUTER_BOUND('',#124,.T.);
#49=ADVANCED_FACE('',(#101,#102),#63,.F.);
#50=ADVANCED_FACE('',(#41),#64,.F.);
#51=ADVANCED_FACE('',(#42),#65,.F.);
#52=ADVANCED_FACE('',(#43),#66,.F.);
#53=ADVANCED_FACE('',(#44),#67,.F.);
#54=ADVANCED_FACE('',(#103,#104),#68,.T.);
#55=ADVANCED_FACE('',(#45),#36,.T.);
#56=ADVANCED_FACE('',(#46),#37,.T.);
#57=ADVANCED_FACE('',(#47),#38,.T.);
#58=ADVANCED_FACE('',(#48),#39,.T.);
#59=ADVANCED_FACE('',(#105,#106),#40,.F.);
#60=ADVANCED_FACE('',(#107,#108),#34,.T.);
#61=ADVANCED_FACE('',(#109,#110),#33,.F.);
#62=ADVANCED_FACE('',(#111,#112),#35,.F.);
#63=PLANE('',#289);
#64=PLANE('',#290);
#65=PLANE('',#291);
#66=PLANE('',#292);
#67=PLANE('',#293);
#68=PLANE('',#299);
#69=LINE('',#460,#85);
#70=LINE('',#465,#86);
#71=LINE('',#469,#87);
#72=LINE('',#473,#88);
#73=LINE('',#477,#89);
#74=LINE('',#480,#90);
#75=LINE('',#481,#91);
#76=LINE('',#483,#92);
#77=LINE('',#485,#93);
#78=LINE('',#487,#94);
#79=LINE('',#489,#95);
#80=LINE('',#491,#96);
#81=LINE('',#493,#97);
#82=LINE('',#495,#98);
#83=LINE('',#497,#99);
#84=LINE('',#499,#100);
#85=VECTOR('',#319,1.0);
#86=VECTOR('',#322,1.0);
#87=VECTOR('',#325,1.0);
#88=VECTOR('',#328,1.0);
#89=VECTOR('',#333,1.0);
#90=VECTOR('',#334,1.0);
#91=VECTOR('',#335,1.0);
#92=VECTOR('',#338,1.0);
#93=VECTOR('',#339,1.0);
#94=VECTOR('',#340,1.0);
#95=VECTOR('',#343,1.0);
#96=VECTOR('',#344,1.0);
#97=VECTOR('',#345,1.0);
#98=VECTOR('',#348,1.0);
#99=VECTOR('',#349,1.0);
#100=VECTOR('',#350,1.0);
#101=FACE_BOUND('',#113,.T.);
#102=FACE_BOUND('',#114,.T.);
#103=FACE_BOUND('',#119,.T.);
#104=FACE_BOUND('',#120,.T.);
#105=FACE_BOUND('',#125,.T.);
#106=FACE_BOUND('',#126,.T.);
#107=FACE_BOUND('',#127,.T.);
#108=FACE_BOUND('',#128,.T.);
#109=FACE_BOUND('',#129,.T.);
#110=FACE_BOUND('',#130,.T.);
#111=FACE_BOUND('',#131,.T.);
#112=FACE_BOUND('',#132,.T.);
#113=EDGE_LOOP('',(#133));
#114=EDGE_LOOP('',(#134,#135,#136,#137,#138,#139,#140,#141));
#115=EDGE_LOOP('',(#142,#143,#144,#145));
#116=EDGE_LOOP('',(#146,#147,#148,#149));
#117=EDGE_LOOP('',(#150,#151,#152,#153));
#118=EDGE_LOOP('',(#154,#155,#156,#157));
#119=EDGE_LOOP('',(#158));
#120=EDGE_LOOP('',(#159,#160,#161,#162,#163,#164,#165,#166));
#121=EDGE_LOOP('',(#167,#168,#169,#170));
#122=EDGE_LOOP('',(#171,#172,#173,#174));
#123=EDGE_LOOP('',(#175,#176,#177,#178));
#124=EDGE_LOOP('',(#179,#180,#181,#182));
#125=EDGE_LOOP('',(#183));
#126=EDGE_LOOP('',(#184));
#127=EDGE_LOOP('',(#185));
#128=EDGE_LOOP('',(#186));
#129=EDGE_LOOP('',(#187));
#130=EDGE_LOOP('',(#188));
#131=EDGE_LOOP('',(#189));
#132=EDGE_LOOP('',(#190));
#133=ORIENTED_EDGE('',*,*,#212,.T.);
#134=ORIENTED_EDGE('',*,*,#213,.T.);
#135=ORIENTED_EDGE('',*,*,#214,.T.);
#136=ORIENTED_EDGE('',*,*,#215,.T.);
#137=ORIENTED_EDGE('',*,*,#216,.T.);
#138=ORIENTED_EDGE('',*,*,#217,.T.);
#139=ORIENTED_EDGE('',*,*,#218,.T.);
#140=ORIENTED_EDGE('',*,*,#219,.T.);
#141=ORIENTED_EDGE('',*,*,#220,.T.);
#142=ORIENTED_EDGE('',*,*,#221,.F.);
#143=ORIENTED_EDGE('',*,*,#222,.T.);
#144=ORIENTED_EDGE('',*,*,#213,.F.);
#145=ORIENTED_EDGE('',*,*,#223,.T.);
#146=ORIENTED_EDGE('',*,*,#219,.F.);
#147=ORIENTED_EDGE('',*,*,#224,.T.);
#148=ORIENTED_EDGE('',*,*,#225,.F.);
#149=ORIENTED_EDGE('',*,*,#226,.T.);
#150=ORIENTED_EDGE('',*,*,#217,.F.);
#151=ORIENTED_EDGE('',*,*,#227,.T.);
#152=ORIENTED_EDGE('',*,*,#228,.F.);
#153=ORIENTED_EDGE('',*,*,#229,.T.);
#154=ORIENTED_EDGE('',*,*,#215,.F.);
#155=ORIENTED_EDGE('',*,*,#230,.T.);
#156=ORIENTED_EDGE('',*,*,#231,.F.);
#157=ORIENTED_EDGE('',*,*,#232,.T.);
#158=ORIENTED_EDGE('',*,*,#233,.F.);
#159=ORIENTED_EDGE('',*,*,#231,.T.);
#160=ORIENTED_EDGE('',*,*,#234,.T.);
#161=ORIENTED_EDGE('',*,*,#221,.T.);
#162=ORIENTED_EDGE('',*,*,#235,.T.);
#163=ORIENTED_EDGE('',*,*,#225,.T.);
#164=ORIENTED_EDGE('',*,*,#236,.T.);
#165=ORIENTED_EDGE('',*,*,#228,.T.);
#166=ORIENTED_EDGE('',*,*,#237,.T.);
#167=ORIENTED_EDGE('',*,*,#214,.F.);
#168=ORIENTED_EDGE('',*,*,#222,.F.);
#169=ORIENTED_EDGE('',*,*,#234,.F.);
#170=ORIENTED_EDGE('',*,*,#230,.F.);
#171=ORIENTED_EDGE('',*,*,#216,.F.);
#172=ORIENTED_EDGE('',*,*,#232,.F.);
#173=ORIENTED_EDGE('',*,*,#237,.F.);
#174=ORIENTED_EDGE('',*,*,#227,.F.);
#175=ORIENTED_EDGE('',*,*,#218,.F.);
#176=ORIENTED_EDGE('',*,*,#229,.F.);
#177=ORIENTED_EDGE('',*,*,#236,.F.);
#178=ORIENTED_EDGE('',*,*,#224,.F.);
#179=ORIENTED_EDGE('',*,*,#220,.F.);
#180=ORIENTED_EDGE('',*,*,#226,.F.);
#181=ORIENTED_EDGE('',*,*,#235,.F.);
#182=ORIENTED_EDGE('',*,*,#223,.F.);
#183=ORIENTED_EDGE('',*,*,#238,.T.);
#184=ORIENTED_EDGE('',*,*,#233,.T.);
#185=ORIENTED_EDGE('',*,*,#239,.T.);
#186=ORIENTED_EDGE('',*,*,#240,.T.);
#187=ORIENTED_EDGE('',*,*,#240,.F.);
#188=ORIENTED_EDGE('',*,*,#212,.F.);
#189=ORIENTED_EDGE('',*,*,#239,.F.);
#190=ORIENTED_EDGE('',*,*,#238,.F.);
#191=VERTEX_POINT('',#459);
#192=VERTEX_POINT('',#461);
#193=VERTEX_POINT('',#462);
#194=VERTEX_POINT('',#464);
#195=VERTEX_POINT('',#466);
#196=VERTEX_POINT('',#468);
#197=VERTEX_POINT('',#470);
#198=VERTEX_POINT('',#472);
#199=VERTEX_POINT('',#474);
#200=VERTEX_POINT('',#478);
#201=VERTEX_POINT('',#479);
#202=VERTEX_POINT('',#484);
#203=VERTEX_POINT('',#486);
#204=VERTEX_POINT('',#490);
#205=VERTEX_POINT('',#492);
#206=VERTEX_POINT('',#496);
#207=VERTEX_POINT('',#498);
#208=VERTEX_POINT('',#502);
#209=VERTEX_POINT('',#513);
#210=VERTEX_POINT('',#516);
#211=VERTEX_POINT('',#518);
#212=EDGE_CURVE('',#191,#191,#241,.T.);
#213=EDGE_CURVE('',#192,#193,#69,.T.);
#214=EDGE_CURVE('',#193,#194,#242,.T.);
#215=EDGE_CURVE('',#194,#195,#70,.T.);
#216=EDGE_CURVE('',#195,#196,#243,.T.);
#217=EDGE_CURVE('',#196,#197,#71,.T.);
#218=EDGE_CURVE('',#197,#198,#244,.T.);
#219=EDGE_CURVE('',#198,#199,#72,.T.);
#220=EDGE_CURVE('',#199,#192,#245,.T.);
#221=EDGE_CURVE('',#200,#201,#73,.T.);
#222=EDGE_CURVE('',#200,#193,#74,.T.);
#223=EDGE_CURVE('',#192,#201,#75,.T.);
#224=EDGE_CURVE('',#198,#202,#76,.T.);
#225=EDGE_CURVE('',#203,#202,#77,.T.);
#226=EDGE_CURVE('',#203,#199,#78,.T.);
#227=EDGE_CURVE('',#196,#204,#79,.T.);
#228=EDGE_CURVE('',#205,#204,#80,.T.);
#229=EDGE_CURVE('',#205,#197,#81,.T.);
#230=EDGE_CURVE('',#194,#206,#82,.T.);
#231=EDGE_CURVE('',#207,#206,#83,.T.);
#232=EDGE_CURVE('',#207,#195,#84,.T.);
#233=EDGE_CURVE('',#208,#208,#246,.T.);
#234=EDGE_CURVE('',#206,#200,#247,.T.);
#235=EDGE_CURVE('',#201,#203,#248,.T.);
#236=EDGE_CURVE('',#202,#205,#249,.T.);
#237=EDGE_CURVE('',#204,#207,#250,.T.);
#238=EDGE_CURVE('',#209,#209,#251,.T.);
#239=EDGE_CURVE('',#210,#210,#252,.T.);
#240=EDGE_CURVE('',#211,#211,#253,.T.);
#241=CIRCLE('',#284,1.4);
#242=CIRCLE('',#285,0.912848493305194);
#243=CIRCLE('',#286,0.912848493305194);
#244=CIRCLE('',#287,0.912848493305194);
#245=CIRCLE('',#288,0.912848493305194);
#246=CIRCLE('',#294,1.92255023212159);
#247=CIRCLE('',#295,1.190625);
#248=CIRCLE('',#296,1.190625);
#249=CIRCLE('',#297,1.190625);
#250=CIRCLE('',#298,1.190625);
#251=CIRCLE('',#304,1.88448184298103);
#252=CIRCLE('',#306,1.80474984821024);
#253=CIRCLE('',#307,1.4);
#254=CURVE_STYLE('',#258,POSITIVE_LENGTH_MEASURE(0.18),#257);
#255=CURVE_STYLE('',#259,POSITIVE_LENGTH_MEASURE(0.18),#279);
#256=CURVE_STYLE('',#260,POSITIVE_LENGTH_MEASURE(0.18),#279);
#257=DRAUGHTING_PRE_DEFINED_COLOUR('blue');
#258=DRAUGHTING_PRE_DEFINED_CURVE_FONT('continuous');
#259=DRAUGHTING_PRE_DEFINED_CURVE_FONT('continuous');
#260=DRAUGHTING_PRE_DEFINED_CURVE_FONT('continuous');
#261=B_SPLINE_CURVE_WITH_KNOTS('CUTTING EDGE LINE',5,(#390,#391,#392,#393,#394,#395,
     #396,#397,#398,#399,#400,#401,#402,#403,#404,#405,#406,#407,#408,#409,#410,
     #411,#412,#413,#414,#415,#416,#417,#418,#419,#420,#421,#422,#423,#424,#425,
     #426,#427,#428,#429,#430,#431,#432,#433,#434,#435,#436,#437,#438,#439,#440,
     #441,#442,#443,#444,#445,#446,#447,#448,#449,#450,#451,#452,#453,#454,#455),
     .UNSPECIFIED.,.T.,.F.,(2,4,1,4,4,1,1,1,1,1,1,1,1,1,1,1,1,1,1,1,4,4,1,4,4,1,
     1,1,1,1,1,1,1,1,1,1,1,1,1,1,4,4,1,1),(-0.1968052172,0.0,0.01034342995,0.0206868599,
     0.2174920771,0.22284849620625,0.2282049153125,0.23356133441875,0.238917753525,
     0.24427417263125,0.2496305917375,0.25498701084375,0.26034342995,0.26569984905625,
     0.2710562681625,0.27641268726875,0.281769106375,0.28712552548125,0.2924819445875,
     0.29783836369375,0.3031947828,0.5,0.51034342995,0.5206868599,0.7174920771,0.72284849620625,
     0.7282049153125,0.73356133441875,0.738917753525,0.74427417263125,0.7496305917375,
     0.75498701084375,0.76034342995,0.76569984905625,0.7710562681625,0.77641268726875,
     0.781769106375,0.78712552548125,0.7924819445875,0.79783836369375,0.8031947828,
     1.0,1.01034342995,1.0206868599),.UNSPECIFIED.);
#262=PRESENTATION_LAYER_ASSIGNMENT('1','Layer 1',(#261,#282,#283,#31));
#265=STYLED_ITEM('',(#271),#261);
#266=STYLED_ITEM('',(#272),#282);
#267=STYLED_ITEM('',(#273),#283);
#268=STYLED_ITEM('',(#274),#31);
#269=PRESENTATION_STYLE_ASSIGNMENT((#275));
#270=PRESENTATION_STYLE_ASSIGNMENT((#276));
#271=PRESENTATION_STYLE_ASSIGNMENT((#254));
#272=PRESENTATION_STYLE_ASSIGNMENT((#255));
#273=PRESENTATION_STYLE_ASSIGNMENT((#256));
#274=PRESENTATION_STYLE_ASSIGNMENT((#26));
#275=POINT_STYLE('',#277,POSITIVE_LENGTH_MEASURE(3.0),#279);
#276=POINT_STYLE('',#278,POSITIVE_LENGTH_MEASURE(3.0),#279);
#277=PRE_DEFINED_POINT_MARKER_SYMBOL('plus');
#278=PRE_DEFINED_POINT_MARKER_SYMBOL('plus');
#279=COLOUR_RGB('Medium Maroon',0.6,0.4,0.4);
#280=COLOUR_RGB('IsoInsertColor',0.8,0.8,0.8);
#281=AXIS2_PLACEMENT_3D('',#387,#311,#312);
#282=AXIS2_PLACEMENT_3D('PCS',#456,#313,#314);
#283=AXIS2_PLACEMENT_3D('MCS',#457,#315,#316);
#284=AXIS2_PLACEMENT_3D('',#458,#317,#318);
#285=AXIS2_PLACEMENT_3D('',#463,#320,#321);
#286=AXIS2_PLACEMENT_3D('',#467,#323,#324);
#287=AXIS2_PLACEMENT_3D('',#471,#326,#327);
#288=AXIS2_PLACEMENT_3D('',#475,#329,#330);
#289=AXIS2_PLACEMENT_3D('',#476,#331,#332);
#290=AXIS2_PLACEMENT_3D('',#482,#336,#337);
#291=AXIS2_PLACEMENT_3D('',#488,#341,#342);
#292=AXIS2_PLACEMENT_3D('',#494,#346,#347);
#293=AXIS2_PLACEMENT_3D('',#500,#351,#352);
#294=AXIS2_PLACEMENT_3D('',#501,#353,#354);
#295=AXIS2_PLACEMENT_3D('',#503,#355,#356);
#296=AXIS2_PLACEMENT_3D('',#504,#357,#358);
#297=AXIS2_PLACEMENT_3D('',#505,#359,#360);
#298=AXIS2_PLACEMENT_3D('',#506,#361,#362);
#299=AXIS2_PLACEMENT_3D('',#507,#363,#364);
#300=AXIS2_PLACEMENT_3D('',#508,#365,#366);
#301=AXIS2_PLACEMENT_3D('',#509,#367,#368);
#302=AXIS2_PLACEMENT_3D('',#510,#369,#370);
#303=AXIS2_PLACEMENT_3D('',#511,#371,#372);
#304=AXIS2_PLACEMENT_3D('',#512,#373,#374);
#305=AXIS2_PLACEMENT_3D('',#514,#375,#376);
#306=AXIS2_PLACEMENT_3D('',#515,#377,#378);
#307=AXIS2_PLACEMENT_3D('',#517,#379,#380);
#308=AXIS2_PLACEMENT_3D('',#519,#381,#382);
#309=AXIS2_PLACEMENT_3D('',#520,#383,#384);
#310=AXIS2_PLACEMENT_3D('',#521,#385,#386);
#311=DIRECTION('',(0.0,0.0,1.0));
#312=DIRECTION('',(1.0,0.0,0.0));
#313=DIRECTION('',(0.0,0.0,1.0));
#314=DIRECTION('',(1.0,0.0,0.0));
#315=DIRECTION('',(0.0,0.0,1.0));
#316=DIRECTION('',(1.0,0.0,0.0));
#317=DIRECTION('',(0.0,0.0,1.0));
#318=DIRECTION('',(-0.953716950748227,-0.300705799504273,0.0));
#319=DIRECTION('',(1.0,1.11022302462516E-16,0.0));
#320=DIRECTION('',(0.0,0.0,-1.0));
#321=DIRECTION('',(-0.953716950748228,-0.300705799504274,0.0));
#322=DIRECTION('',(-0.819152044288991,-0.573576436351048,0.0));
#323=DIRECTION('',(0.0,0.0,-1.0));
#324=DIRECTION('',(-0.953716950748226,-0.300705799504273,0.0));
#325=DIRECTION('',(-1.0,-2.22044604925031E-16,0.0));
#326=DIRECTION('',(0.0,0.0,-1.0));
#327=DIRECTION('',(-0.953716950748227,-0.300705799504274,0.0));
#328=DIRECTION('',(0.819152044288991,0.573576436351047,0.0));
#329=DIRECTION('',(0.0,0.0,-1.0));
#330=DIRECTION('',(-0.953716950748228,-0.300705799504274,0.0));
#331=DIRECTION('',(0.0,0.0,1.0));
#332=DIRECTION('',(-0.953716950748227,-0.300705799504274,0.0));
#333=DIRECTION('',(-1.0,-5.55111512312578E-17,-1.24282216252114E-16));
#334=DIRECTION('',(1.2490009027033E-16,-0.087155742747659,-0.996194698091745));
#335=DIRECTION('',(-1.2490009027033E-16,0.087155742747659,0.996194698091745));
#336=DIRECTION('',(5.55111512312578E-17,-0.996194698091746,0.087155742747659));
#337=DIRECTION('',(1.0,1.11022302462516E-16,0.0));
#338=DIRECTION('',(-0.0499904803327305,0.0713938048432704,0.996194698091745));
#339=DIRECTION('',(-0.819152044288991,-0.573576436351047,4.19233686243495E-16));
#340=DIRECTION('',(0.0499904803327305,-0.0713938048432704,-0.996194698091745));
#341=DIRECTION('',(0.571393804843271,-0.816034923451707,0.0871557427476589));
#342=DIRECTION('',(0.819152044288991,0.573576436351047,0.0));
#343=DIRECTION('',(-1.04083408558608E-16,-0.0871557427476572,0.996194698091746));
#344=DIRECTION('',(1.0,1.66533453693773E-16,1.19425619820105E-16));
#345=DIRECTION('',(1.04083408558608E-16,0.0871557427476572,-0.996194698091746));
#346=DIRECTION('',(-1.11022302462516E-16,0.996194698091746,0.0871557427476572));
#347=DIRECTION('',(-1.0,-2.22044604925031E-16,0.0));
#348=DIRECTION('',(0.0499904803327303,-0.0713938048432686,0.996194698091746));
#349=DIRECTION('',(0.819152044288991,0.573576436351048,-4.24090282675503E-16));
#350=DIRECTION('',(-0.0499904803327303,0.0713938048432686,-0.996194698091746));
#351=DIRECTION('',(-0.571393804843271,0.816034923451708,0.0871557427476573));
#352=DIRECTION('',(-0.819152044288991,-0.573576436351048,0.0));
#353=DIRECTION('',(0.0,0.0,1.0));
#354=DIRECTION('',(-0.953716950748227,-0.300705799504274,0.0));
#355=DIRECTION('',(-1.20339735310749E-16,9.08369172207804E-16,1.0));
#356=DIRECTION('',(-0.300705799504272,0.953716950748227,-9.02513933390468E-16));
#357=DIRECTION('',(-1.20339735310749E-16,9.08369172207804E-16,1.0));
#358=DIRECTION('',(-0.300705799504274,0.953716950748227,-9.02513933390468E-16));
#359=DIRECTION('',(-1.20339735310749E-16,9.08369172207804E-16,1.0));
#360=DIRECTION('',(-0.300705799504274,0.953716950748227,-9.02513933390468E-16));
#361=DIRECTION('',(-1.20339735310749E-16,9.08369172207804E-16,1.0));
#362=DIRECTION('',(-0.300705799504274,0.953716950748227,-9.02513933390468E-16));
#363=DIRECTION('',(-1.20339735310749E-16,9.08369172207804E-16,1.0));
#364=DIRECTION('',(-0.300705799504274,0.953716950748227,-9.02513933390468E-16));
#365=DIRECTION('',(-1.20339735310749E-16,9.08369172207804E-16,1.0));
#366=DIRECTION('',(-0.300705799504274,0.953716950748227,-1.20793903990618E-15));
#367=DIRECTION('',(-1.20339735310749E-16,9.08369172207804E-16,1.0));
#368=DIRECTION('',(-0.300705799504273,0.953716950748227,-1.23728168864884E-15));
#369=DIRECTION('',(-1.20339735310749E-16,9.08369172207804E-16,1.0));
#370=DIRECTION('',(-0.300705799504273,0.953716950748227,-1.22750080573462E-15));
#371=DIRECTION('',(-1.20339735310749E-16,9.08369172207804E-16,1.0));
#372=DIRECTION('',(-0.300705799504274,0.953716950748227,-1.19815815699196E-15));
#373=DIRECTION('',(0.0,0.0,-1.0));
#374=DIRECTION('',(0.953716950748227,0.300705799504273,0.0));
#375=DIRECTION('',(0.0,0.0,1.0));
#376=DIRECTION('',(-0.953716950748227,-0.300705799504274,0.0));
#377=DIRECTION('',(0.0,0.0,1.0));
#378=DIRECTION('',(0.953716950748226,0.300705799504274,0.0));
#379=DIRECTION('',(0.0,0.0,-1.0));
#380=DIRECTION('',(-0.953716950748227,-0.300705799504274,0.0));
#381=DIRECTION('',(0.0,0.0,1.0));
#382=DIRECTION('',(-0.953716950748227,-0.300705799504274,0.0));
#383=DIRECTION('',(0.0,0.0,1.0));
#384=DIRECTION('',(-0.953716950748227,-0.300705799504273,0.0));
#385=DIRECTION('',(0.0,0.0,-1.0));
#386=DIRECTION('',(0.953716950748227,0.300705799504274,0.0));
#387=CARTESIAN_POINT('',(0.0,0.0,0.0));
#390=CARTESIAN_POINT('',(9.31162363766068,-3.99680288865056E-15,7.88860905221012E-32));
#391=CARTESIAN_POINT('',(10.7670901001919,-3.10862446895044E-15,1.09014404082082E-15));
#392=CARTESIAN_POINT('',(10.9103012372058,0.0107661048634191,1.09759843337994E-15));
#393=CARTESIAN_POINT('',(11.0571891358986,0.0434445572852171,1.08897623966775E-15));
#394=CARTESIAN_POINT('',(11.1962562486796,0.100927373654985,9.94879823960317E-16));
#395=CARTESIAN_POINT('',(11.3197431283904,0.174250830461305,7.03450287249515E-16));
#396=CARTESIAN_POINT('',(12.5119914565669,1.00907209726842,9.68116833900839E-17));
#397=CARTESIAN_POINT('',(13.6455839369185,1.80282209726842,2.95822839457879E-31));
#398=CARTESIAN_POINT('',(14.77917641727,2.59657209726842,7.88860905221012E-32));
#399=CARTESIAN_POINT('',(15.9127688976216,3.39032209726842,9.6811683390084E-17));
#400=CARTESIAN_POINT('',(17.0751966787963,4.20426279227131,5.17593686208048E-16));
#401=CARTESIAN_POINT('',(17.1313749113472,4.24677550622585,5.72074674963591E-16));
#402=CARTESIAN_POINT('',(17.2151499162452,4.32019212943406,6.24088701638054E-16));
#403=CARTESIAN_POINT('',(17.3148757132332,4.43122228100217,6.33680446139999E-16));
#404=CARTESIAN_POINT('',(17.4205766836738,4.59429443496294,5.75154105103216E-16));
#405=CARTESIAN_POINT('',(17.4984324145072,4.77395728972712,4.61610847337819E-16));
#406=CARTESIAN_POINT('',(17.5460817406236,4.96454863739282,3.12846786580991E-16));
#407=CARTESIAN_POINT('',(17.5617401622905,5.15701311056962,1.45756230800658E-16));
#408=CARTESIAN_POINT('',(17.546582017019,5.34590338442126,-2.69325569751406E-17));
#409=CARTESIAN_POINT('',(17.504969121525,5.51938141337331,-1.89651613183433E-16));
#410=CARTESIAN_POINT('',(17.4396718166062,5.68499651680993,-3.48064578152799E-16));
#411=CARTESIAN_POINT('',(17.3436394940984,5.84875727889296,-5.0762860280252E-16));
#412=CARTESIAN_POINT('',(17.2204584365296,5.9972219337166,-6.50692232241017E-16));
#413=CARTESIAN_POINT('',(17.0721445139804,6.12612770849851,-7.64955202415059E-16));
#414=CARTESIAN_POINT('',(16.9051748539977,6.22858632958544,-8.32852636915868E-16));
#415=CARTESIAN_POINT('',(16.7253550525504,6.30157194906952,-8.35382401129556E-16));
#416=CARTESIAN_POINT('',(16.5795834118809,6.3353062397122,-7.72967746021427E-16));
#417=CARTESIAN_POINT('',(16.4690511409551,6.34739813388293,-6.76219842583922E-16));
#418=CARTESIAN_POINT('',(16.3986483359468,6.35000000000001,-5.90603747653039E-16));
#419=CARTESIAN_POINT('',(14.9795860394184,6.35000000000001,-1.08152704565992E-16));
#420=CARTESIAN_POINT('',(13.5957251453942,6.35000000000001,1.97215226305253E-31));
#421=CARTESIAN_POINT('',(12.2118642513699,6.35000000000001,-3.15544362088405E-31));
#422=CARTESIAN_POINT('',(10.8280033573457,6.35000000000001,-1.08152704565992E-16));
#423=CARTESIAN_POINT('',(9.37253689481449,6.35000000000001,-7.60680290170705E-16));
#424=CARTESIAN_POINT('',(9.22932575780058,6.33923389513658,-1.03589778759794E-15));
#425=CARTESIAN_POINT('',(9.08243785910782,6.30655544271478,-1.09275828349375E-15));
#426=CARTESIAN_POINT('',(8.94337074632677,6.24907262634501,-9.94879823960319E-16));
#427=CARTESIAN_POINT('',(8.81988386661593,6.17574916953869,-7.03450287249515E-16));
#428=CARTESIAN_POINT('',(7.62763553843943,5.34092790273158,-9.68116833900837E-17));
#429=CARTESIAN_POINT('',(6.49404305808788,4.54717790273158,2.95822839457879E-31));
#430=CARTESIAN_POINT('',(5.36045057773632,3.75342790273158,-1.18329135783152E-30));
#431=CARTESIAN_POINT('',(4.22685809738478,2.95967790273158,-9.68116833900836E-17));
#432=CARTESIAN_POINT('',(3.06443031621012,2.14573720772869,-5.17593686208047E-16));
#433=CARTESIAN_POINT('',(3.0082520836592,2.10322449377415,-5.72074674963591E-16));
#434=CARTESIAN_POINT('',(2.92447707876119,2.02980787056595,-6.24088701638053E-16));
#435=CARTESIAN_POINT('',(2.82475128177315,1.91877771899783,-6.33680446139999E-16));
#436=CARTESIAN_POINT('',(2.71905031133253,1.75570556503706,-5.75154105103215E-16));
#437=CARTESIAN_POINT('',(2.64119458049913,1.57604271027288,-4.61610847337816E-16));
#438=CARTESIAN_POINT('',(2.5935452543828,1.38545136260719,-3.12846786580994E-16));
#439=CARTESIAN_POINT('',(2.57788683271592,1.19298688943037,-1.45756230800647E-16));
#440=CARTESIAN_POINT('',(2.59304497798736,1.00409661557877,2.69325569751142E-17));
#441=CARTESIAN_POINT('',(2.63465787348143,0.830618586626614,1.89651613183513E-16));
#442=CARTESIAN_POINT('',(2.69995517840006,0.66500348319024,3.48064578152627E-16));
#443=CARTESIAN_POINT('',(2.79598750090796,0.501242721106955,5.07628602802601E-16));
#444=CARTESIAN_POINT('',(2.91916855847672,0.352778066283435,6.50692232240988E-16));
#445=CARTESIAN_POINT('',(3.06748248102595,0.223872291501475,7.64955202415061E-16));
#446=CARTESIAN_POINT('',(3.23445214100869,0.12141367041457,8.3285263691587E-16));
#447=CARTESIAN_POINT('',(3.41427194245596,0.0484280509304722,8.35382401129557E-16));
#448=CARTESIAN_POINT('',(3.56004358312544,0.0146937602878037,7.72967746021427E-16));
#449=CARTESIAN_POINT('',(3.67057585405127,0.00260186611707747,6.76219842583923E-16));
#450=CARTESIAN_POINT('',(3.74097865905956,-1.77635683940025E-15,5.90603747653039E-16));
#451=CARTESIAN_POINT('',(5.16004095558794,-3.5527136788005E-15,1.08152704565992E-16));
#452=CARTESIAN_POINT('',(6.54390184961219,-3.10862446895044E-15,7.88860905221012E-32));
#453=CARTESIAN_POINT('',(7.92776274363643,-3.99680288865056E-15,1.18329135783152E-31));
#454=CARTESIAN_POINT('',(9.31162363766068,-3.99680288865056E-15,7.88860905221012E-32));
#455=CARTESIAN_POINT('',(10.7670901001919,-3.10862446895044E-15,1.09014404082082E-15));
#456=CARTESIAN_POINT('',(0.0,0.0,0.0));
#457=CARTESIAN_POINT('',(10.0698134975032,3.175,0.0));
#458=CARTESIAN_POINT('',(10.0698134975032,3.175,-3.175));
#459=CARTESIAN_POINT('',(8.73460976645568,2.75401188069402,-3.175));
#460=CARTESIAN_POINT('',(10.0698134975032,6.07222349330519,-3.175));
#461=CARTESIAN_POINT('',(9.44414246332145,6.07222349330519,-3.175));
#462=CARTESIAN_POINT('',(16.3634469334427,6.0722234933052,-3.175));
#463=CARTESIAN_POINT('',(16.3634469334427,5.159375,-3.175));
#464=CARTESIAN_POINT('',(16.8870353191611,4.41161329058293,-3.175));
#465=CARTESIAN_POINT('',(11.7315926241057,0.801733452696957,-3.175));
#466=CARTESIAN_POINT('',(11.2190729174033,0.442863290582923,-3.175));
#467=CARTESIAN_POINT('',(10.6954845316849,1.190625,-3.175));
#468=CARTESIAN_POINT('',(10.6954845316849,0.277776506694803,-3.175));
#469=CARTESIAN_POINT('',(10.0698134975032,0.277776506694802,-3.175));
#470=CARTESIAN_POINT('',(3.7761800615637,0.277776506694802,-3.175));
#471=CARTESIAN_POINT('',(3.7761800615637,1.190625,-3.175));
#472=CARTESIAN_POINT('',(3.25259167584528,1.93838670941707,-3.175));
#473=CARTESIAN_POINT('',(8.40803437090066,5.54826654730304,-3.175));
#474=CARTESIAN_POINT('',(8.92055407760303,5.90713670941707,-3.175));
#475=CARTESIAN_POINT('',(9.44414246332145,5.159375,-3.175));
#476=CARTESIAN_POINT('',(9.82493431578671,2.70459146865531,-3.175));
#477=CARTESIAN_POINT('',(10.0698134975032,6.35000000000001,-5.81748951963656E-15));
#478=CARTESIAN_POINT('',(16.3634469334427,6.35000000000001,-5.06011533781273E-15));
#479=CARTESIAN_POINT('',(9.44414246332145,6.35000000000001,-5.89278260628159E-15));
#480=CARTESIAN_POINT('',(16.3634469334427,6.35000000000001,-5.18418865277791E-15));
#481=CARTESIAN_POINT('',(9.44414246332145,6.35000000000001,-6.05052837999376E-15));
#482=CARTESIAN_POINT('',(10.0698134975032,6.35000000000001,-5.81748951963656E-15));
#483=CARTESIAN_POINT('',(3.09326561703323,2.16592790273158,-3.07328910516775E-15));
#484=CARTESIAN_POINT('',(3.09326561703323,2.16592790273158,-2.85636333750159E-15));
#485=CARTESIAN_POINT('',(8.24870831208861,5.77580774061756,-5.51506228827902E-15));
#486=CARTESIAN_POINT('',(8.76122801879098,6.13467790273158,-5.77937239452251E-15));
#487=CARTESIAN_POINT('',(8.76122801879098,6.13467790273158,-6.13053277885278E-15));
#488=CARTESIAN_POINT('',(8.24870831208861,5.77580774061755,-5.51506228827901E-15));
#489=CARTESIAN_POINT('',(10.6954845316849,-2.60208521396521E-15,6.85197313969909E-18));
#490=CARTESIAN_POINT('',(10.6954845316849,-2.60208521396521E-15,2.59478105280299E-17));
#491=CARTESIAN_POINT('',(10.0698134975032,-3.03576608295941E-15,-4.93452761170014E-17));
#492=CARTESIAN_POINT('',(3.7761800615637,-3.90312782094782E-15,-8.06719457940837E-16));
#493=CARTESIAN_POINT('',(3.7761800615637,-3.90312782094782E-15,-8.81983341700048E-16));
#494=CARTESIAN_POINT('',(10.0698134975032,-3.03576608295941E-15,-4.93452761170022E-17));
#495=CARTESIAN_POINT('',(17.0463613779731,4.18407209726842,-3.02214697040483E-15));
#496=CARTESIAN_POINT('',(17.0463613779731,4.18407209726842,-3.01047145825197E-15));
#497=CARTESIAN_POINT('',(11.8909186829178,0.574192259382456,-3.51772507474552E-16));
#498=CARTESIAN_POINT('',(11.3783989762154,0.215322097268419,-8.74624012310505E-17));
#499=CARTESIAN_POINT('',(11.3783989762154,0.215322097268419,1.18350486762431E-17));
#500=CARTESIAN_POINT('',(11.8909186829178,0.574192259382452,-3.51772507474549E-16));
#501=CARTESIAN_POINT('',(10.0698134975032,3.175,-6.93889390390723E-15));
#502=CARTESIAN_POINT('',(8.2362447524639,2.59687799536275,-6.93889390390723E-15));
#503=CARTESIAN_POINT('',(16.3634469334427,5.159375,-3.97858829215281E-15));
#504=CARTESIAN_POINT('',(9.44414246332145,5.159375,-4.81125556062168E-15));
#505=CARTESIAN_POINT('',(3.7761800615637,1.190625,-1.88824650360075E-15));
#506=CARTESIAN_POINT('',(10.6954845316849,1.190625,-1.05557923513189E-15));
#507=CARTESIAN_POINT('',(10.0698134975032,3.175,-2.93341739787678E-15));
#508=CARTESIAN_POINT('',(16.3634469334427,5.159375,-3.90312782094782E-15));
#509=CARTESIAN_POINT('',(10.6954845316849,1.190625,-1.30104260698261E-15));
#510=CARTESIAN_POINT('',(3.7761800615637,1.190625,-2.16840434497101E-15));
#511=CARTESIAN_POINT('',(9.44414246332145,5.159375,-4.77048955893622E-15));
#512=CARTESIAN_POINT('',(10.0698134975032,3.175,-0.544403327785284));
#513=CARTESIAN_POINT('',(11.8670757745315,3.7416746192449,-0.544403327785284));
#514=CARTESIAN_POINT('',(10.0698134975032,3.175,-0.680000000032654));
#515=CARTESIAN_POINT('',(10.0698134975032,3.175,-0.78228335760465));
#516=CARTESIAN_POINT('',(11.7910340196016,3.71769874601128,-0.78228335760465));
#517=CARTESIAN_POINT('',(10.0698134975032,3.175,-2.14607469113958));
#518=CARTESIAN_POINT('',(8.73460976645568,2.75401188069402,-2.14607469113958));
#519=CARTESIAN_POINT('',(10.0698134975032,3.175,-2.14607469113958));
#520=CARTESIAN_POINT('',(10.0698134975032,3.175,-33.3676978394524));
#521=CARTESIAN_POINT('',(10.0698134975032,3.175,-0.509525090897638));
#522=MECHANICAL_DESIGN_GEOMETRIC_PRESENTATION_REPRESENTATION('',(#265,#266,#267,
     #268),#523);
#523=(GEOMETRIC_REPRESENTATION_CONTEXT(3)GLOBAL_UNCERTAINTY_ASSIGNED_CONTEXT((#524))
     GLOBAL_UNIT_ASSIGNED_CONTEXT((#530,#526,#525))REPRESENTATION_CONTEXT('VBMT110312',
     'TOP_LEVEL_ASSEMBLY_PART'));
#524=UNCERTAINTY_MEASURE_WITH_UNIT(LENGTH_MEASURE(2.0E-5),#530,'DISTANCE_ACCURACY_VALUE',
     'Maximum Tolerance applied to model');
#525=(NAMED_UNIT(*)SI_UNIT($,.STERADIAN.)SOLID_ANGLE_UNIT());
#526=(CONVERSION_BASED_UNIT('DEGREE',#528)NAMED_UNIT(#527)PLANE_ANGLE_UNIT());
#527=DIMENSIONAL_EXPONENTS(0.0,0.0,0.0,0.0,0.0,0.0,0.0);
#528=PLANE_ANGLE_MEASURE_WITH_UNIT(PLANE_ANGLE_MEASURE(0.0174532925),#529);
#529=(NAMED_UNIT(*)PLANE_ANGLE_UNIT()SI_UNIT($,.RADIAN.));
#530=(LENGTH_UNIT()NAMED_UNIT(*)SI_UNIT(.MILLI.,.METRE.));
#531=CONSTRUCTIVE_GEOMETRY_REPRESENTATION('supplemental geometry',(#282,#283),#523);
#532=CONSTRUCTIVE_GEOMETRY_REPRESENTATION_RELATIONSHIP('supplemental geometry','contains PCS and MCS coordinate systems',
     #24,#531);
ENDSEC;
END-ISO-10303-21;
