ISO-10303-21;
HEADER;
FILE_DESCRIPTION(
/* description */ (''),
/* implementation_level */ '2;1');
FILE_NAME(
/* name */ 'SNMM150608.stp',
/* time_stamp */ '2017-03-21T10:54:22',
/* author */ ('Sandvik Coromant R&D'),
/* organization */ ('Sandvik Machining Solutions'),
/* preprocessor_version */ 'ST-DEVELOPER v15',
/* originating_system */ 'SIEMENS PLM Software NX v8.5.3.3(64 bits)',
/* authorization */ '');
FILE_SCHEMA(('AUTOMOTIVE_DESIGN'));
ENDSEC;
DATA;
#10=GEOMETRICALLY_BOUNDED_WIREFRAME_SHAPE_REPRESENTATION('IsoTurningInsert-None',
     (#25),#459);
#11=SHAPE_REPRESENTATION_RELATIONSHIP('None','relationship between IsoTurningInsert-None and IsoTurningInsert-None',
     #24,#13);
#12=SHAPE_REPRESENTATION_RELATIONSHIP('None','relationship between IsoTurningInsert-None and IsoTurningInsert-None',
     #24,#10);
#13=ADVANCED_BREP_SHAPE_REPRESENTATION('IsoTurningInsert-None',(#31),#459);
#14=SHAPE_DEFINITION_REPRESENTATION(#15,#24);
#15=PRODUCT_DEFINITION_SHAPE('','',#16);
#16=PRODUCT_DEFINITION(' ','',#18,#17);
#17=PRODUCT_DEFINITION_CONTEXT('part definition',#23,'design');
#18=PRODUCT_DEFINITION_FORMATION_WITH_SPECIFIED_SOURCE(' ',' ',#20,.NOT_KNOWN.);
#19=PRODUCT_RELATED_PRODUCT_CATEGORY('part','',(#20));
#20=PRODUCT('IsoTurningInsert','IsoTurningInsert',' ',(#21));
#21=PRODUCT_CONTEXT(' ',#23,'mechanical');
#22=APPLICATION_PROTOCOL_DEFINITION('international standard','automotive_design',
     2010,#23);
#23=APPLICATION_CONTEXT('core data for automotive mechanical design processes');
#24=SHAPE_REPRESENTATION('IsoTurningInsert-None',(#248),#459);
#25=GEOMETRIC_CURVE_SET('geometric curve set',(#228));
#26=SURFACE_STYLE_USAGE(.BOTH.,#27);
#27=SURFACE_SIDE_STYLE('',(#28));
#28=SURFACE_STYLE_FILL_AREA(#29);
#29=FILL_AREA_STYLE('',(#30));
#30=FILL_AREA_STYLE_COLOUR('',#247);
#31=MANIFOLD_SOLID_BREP('CUT',#32);
#32=CLOSED_SHELL('',(#46,#47,#48,#49,#50,#51,#52,#53,#54,#55,#56));
#33=CYLINDRICAL_SURFACE('',#267,0.793749999999999);
#34=CYLINDRICAL_SURFACE('',#268,0.793749999999999);
#35=CYLINDRICAL_SURFACE('',#269,0.793749999999999);
#36=CYLINDRICAL_SURFACE('',#270,0.793749999999999);
#37=CYLINDRICAL_SURFACE('',#271,3.17499999999999);
#38=FACE_OUTER_BOUND('',#103,.T.);
#39=FACE_OUTER_BOUND('',#104,.T.);
#40=FACE_OUTER_BOUND('',#105,.T.);
#41=FACE_OUTER_BOUND('',#106,.T.);
#42=FACE_OUTER_BOUND('',#109,.T.);
#43=FACE_OUTER_BOUND('',#110,.T.);
#44=FACE_OUTER_BOUND('',#111,.T.);
#45=FACE_OUTER_BOUND('',#112,.T.);
#46=ADVANCED_FACE('',(#95,#96),#57,.F.);
#47=ADVANCED_FACE('',(#38),#58,.T.);
#48=ADVANCED_FACE('',(#39),#59,.T.);
#49=ADVANCED_FACE('',(#40),#60,.T.);
#50=ADVANCED_FACE('',(#41),#61,.T.);
#51=ADVANCED_FACE('',(#97,#98),#62,.T.);
#52=ADVANCED_FACE('',(#42),#33,.T.);
#53=ADVANCED_FACE('',(#43),#34,.T.);
#54=ADVANCED_FACE('',(#44),#35,.T.);
#55=ADVANCED_FACE('',(#45),#36,.T.);
#56=ADVANCED_FACE('',(#99,#100),#37,.F.);
#57=PLANE('',#256);
#58=PLANE('',#257);
#59=PLANE('',#258);
#60=PLANE('',#259);
#61=PLANE('',#260);
#62=PLANE('',#266);
#63=LINE('',#405,#79);
#64=LINE('',#410,#80);
#65=LINE('',#414,#81);
#66=LINE('',#418,#82);
#67=LINE('',#422,#83);
#68=LINE('',#425,#84);
#69=LINE('',#426,#85);
#70=LINE('',#428,#86);
#71=LINE('',#430,#87);
#72=LINE('',#432,#88);
#73=LINE('',#434,#89);
#74=LINE('',#436,#90);
#75=LINE('',#438,#91);
#76=LINE('',#440,#92);
#77=LINE('',#442,#93);
#78=LINE('',#444,#94);
#79=VECTOR('',#280,1.0);
#80=VECTOR('',#283,1.0);
#81=VECTOR('',#286,1.0);
#82=VECTOR('',#289,1.0);
#83=VECTOR('',#294,1.0);
#84=VECTOR('',#295,1.0);
#85=VECTOR('',#296,1.0);
#86=VECTOR('',#299,1.0);
#87=VECTOR('',#300,1.0);
#88=VECTOR('',#301,1.0);
#89=VECTOR('',#304,1.0);
#90=VECTOR('',#305,1.0);
#91=VECTOR('',#306,1.0);
#92=VECTOR('',#309,1.0);
#93=VECTOR('',#310,1.0);
#94=VECTOR('',#311,1.0);
#95=FACE_BOUND('',#101,.T.);
#96=FACE_BOUND('',#102,.T.);
#97=FACE_BOUND('',#107,.T.);
#98=FACE_BOUND('',#108,.T.);
#99=FACE_BOUND('',#113,.T.);
#100=FACE_BOUND('',#114,.T.);
#101=EDGE_LOOP('',(#115));
#102=EDGE_LOOP('',(#116,#117,#118,#119,#120,#121,#122,#123));
#103=EDGE_LOOP('',(#124,#125,#126,#127));
#104=EDGE_LOOP('',(#128,#129,#130,#131));
#105=EDGE_LOOP('',(#132,#133,#134,#135));
#106=EDGE_LOOP('',(#136,#137,#138,#139));
#107=EDGE_LOOP('',(#140));
#108=EDGE_LOOP('',(#141,#142,#143,#144,#145,#146,#147,#148));
#109=EDGE_LOOP('',(#149,#150,#151,#152));
#110=EDGE_LOOP('',(#153,#154,#155,#156));
#111=EDGE_LOOP('',(#157,#158,#159,#160));
#112=EDGE_LOOP('',(#161,#162,#163,#164));
#113=EDGE_LOOP('',(#165));
#114=EDGE_LOOP('',(#166));
#115=ORIENTED_EDGE('',*,*,#185,.T.);
#116=ORIENTED_EDGE('',*,*,#186,.T.);
#117=ORIENTED_EDGE('',*,*,#187,.T.);
#118=ORIENTED_EDGE('',*,*,#188,.T.);
#119=ORIENTED_EDGE('',*,*,#189,.T.);
#120=ORIENTED_EDGE('',*,*,#190,.T.);
#121=ORIENTED_EDGE('',*,*,#191,.T.);
#122=ORIENTED_EDGE('',*,*,#192,.T.);
#123=ORIENTED_EDGE('',*,*,#193,.T.);
#124=ORIENTED_EDGE('',*,*,#194,.F.);
#125=ORIENTED_EDGE('',*,*,#195,.T.);
#126=ORIENTED_EDGE('',*,*,#186,.F.);
#127=ORIENTED_EDGE('',*,*,#196,.T.);
#128=ORIENTED_EDGE('',*,*,#192,.F.);
#129=ORIENTED_EDGE('',*,*,#197,.T.);
#130=ORIENTED_EDGE('',*,*,#198,.F.);
#131=ORIENTED_EDGE('',*,*,#199,.T.);
#132=ORIENTED_EDGE('',*,*,#190,.F.);
#133=ORIENTED_EDGE('',*,*,#200,.T.);
#134=ORIENTED_EDGE('',*,*,#201,.F.);
#135=ORIENTED_EDGE('',*,*,#202,.T.);
#136=ORIENTED_EDGE('',*,*,#188,.F.);
#137=ORIENTED_EDGE('',*,*,#203,.T.);
#138=ORIENTED_EDGE('',*,*,#204,.F.);
#139=ORIENTED_EDGE('',*,*,#205,.T.);
#140=ORIENTED_EDGE('',*,*,#206,.F.);
#141=ORIENTED_EDGE('',*,*,#204,.T.);
#142=ORIENTED_EDGE('',*,*,#207,.T.);
#143=ORIENTED_EDGE('',*,*,#194,.T.);
#144=ORIENTED_EDGE('',*,*,#208,.T.);
#145=ORIENTED_EDGE('',*,*,#198,.T.);
#146=ORIENTED_EDGE('',*,*,#209,.T.);
#147=ORIENTED_EDGE('',*,*,#201,.T.);
#148=ORIENTED_EDGE('',*,*,#210,.T.);
#149=ORIENTED_EDGE('',*,*,#187,.F.);
#150=ORIENTED_EDGE('',*,*,#195,.F.);
#151=ORIENTED_EDGE('',*,*,#207,.F.);
#152=ORIENTED_EDGE('',*,*,#203,.F.);
#153=ORIENTED_EDGE('',*,*,#189,.F.);
#154=ORIENTED_EDGE('',*,*,#205,.F.);
#155=ORIENTED_EDGE('',*,*,#210,.F.);
#156=ORIENTED_EDGE('',*,*,#200,.F.);
#157=ORIENTED_EDGE('',*,*,#191,.F.);
#158=ORIENTED_EDGE('',*,*,#202,.F.);
#159=ORIENTED_EDGE('',*,*,#209,.F.);
#160=ORIENTED_EDGE('',*,*,#197,.F.);
#161=ORIENTED_EDGE('',*,*,#193,.F.);
#162=ORIENTED_EDGE('',*,*,#199,.F.);
#163=ORIENTED_EDGE('',*,*,#208,.F.);
#164=ORIENTED_EDGE('',*,*,#196,.F.);
#165=ORIENTED_EDGE('',*,*,#185,.F.);
#166=ORIENTED_EDGE('',*,*,#206,.T.);
#167=VERTEX_POINT('',#404);
#168=VERTEX_POINT('',#406);
#169=VERTEX_POINT('',#407);
#170=VERTEX_POINT('',#409);
#171=VERTEX_POINT('',#411);
#172=VERTEX_POINT('',#413);
#173=VERTEX_POINT('',#415);
#174=VERTEX_POINT('',#417);
#175=VERTEX_POINT('',#419);
#176=VERTEX_POINT('',#423);
#177=VERTEX_POINT('',#424);
#178=VERTEX_POINT('',#429);
#179=VERTEX_POINT('',#431);
#180=VERTEX_POINT('',#435);
#181=VERTEX_POINT('',#437);
#182=VERTEX_POINT('',#441);
#183=VERTEX_POINT('',#443);
#184=VERTEX_POINT('',#447);
#185=EDGE_CURVE('',#167,#167,#211,.T.);
#186=EDGE_CURVE('',#168,#169,#63,.T.);
#187=EDGE_CURVE('',#169,#170,#212,.T.);
#188=EDGE_CURVE('',#170,#171,#64,.T.);
#189=EDGE_CURVE('',#171,#172,#213,.T.);
#190=EDGE_CURVE('',#172,#173,#65,.T.);
#191=EDGE_CURVE('',#173,#174,#214,.T.);
#192=EDGE_CURVE('',#174,#175,#66,.T.);
#193=EDGE_CURVE('',#175,#168,#215,.T.);
#194=EDGE_CURVE('',#176,#177,#67,.T.);
#195=EDGE_CURVE('',#176,#169,#68,.T.);
#196=EDGE_CURVE('',#168,#177,#69,.T.);
#197=EDGE_CURVE('',#174,#178,#70,.T.);
#198=EDGE_CURVE('',#179,#178,#71,.T.);
#199=EDGE_CURVE('',#179,#175,#72,.T.);
#200=EDGE_CURVE('',#172,#180,#73,.T.);
#201=EDGE_CURVE('',#181,#180,#74,.T.);
#202=EDGE_CURVE('',#181,#173,#75,.T.);
#203=EDGE_CURVE('',#170,#182,#76,.T.);
#204=EDGE_CURVE('',#183,#182,#77,.T.);
#205=EDGE_CURVE('',#183,#171,#78,.T.);
#206=EDGE_CURVE('',#184,#184,#216,.T.);
#207=EDGE_CURVE('',#182,#176,#217,.T.);
#208=EDGE_CURVE('',#177,#179,#218,.T.);
#209=EDGE_CURVE('',#178,#181,#219,.T.);
#210=EDGE_CURVE('',#180,#183,#220,.T.);
#211=CIRCLE('',#251,3.17499999999999);
#212=CIRCLE('',#252,0.793749999999999);
#213=CIRCLE('',#253,0.793749999999999);
#214=CIRCLE('',#254,0.793749999999999);
#215=CIRCLE('',#255,0.793749999999999);
#216=CIRCLE('',#261,3.17499999999999);
#217=CIRCLE('',#262,0.793749999999999);
#218=CIRCLE('',#263,0.793749999999999);
#219=CIRCLE('',#264,0.793749999999999);
#220=CIRCLE('',#265,0.793749999999999);
#221=CURVE_STYLE('',#225,POSITIVE_LENGTH_MEASURE(0.18),#224);
#222=CURVE_STYLE('',#226,POSITIVE_LENGTH_MEASURE(0.18),#246);
#223=CURVE_STYLE('',#227,POSITIVE_LENGTH_MEASURE(0.18),#246);
#224=DRAUGHTING_PRE_DEFINED_COLOUR('blue');
#225=DRAUGHTING_PRE_DEFINED_CURVE_FONT('continuous');
#226=DRAUGHTING_PRE_DEFINED_CURVE_FONT('continuous');
#227=DRAUGHTING_PRE_DEFINED_CURVE_FONT('continuous');
#228=B_SPLINE_CURVE_WITH_KNOTS('CUTTING EDGE LINE',5,(#339,#340,#341,#342,#343,#344,
     #345,#346,#347,#348,#349,#350,#351,#352,#353,#354,#355,#356,#357,#358,#359,
     #360,#361,#362,#363,#364,#365,#366,#367,#368,#369,#370,#371,#372,#373,#374,
     #375,#376,#377,#378,#379,#380,#381,#382,#383,#384,#385,#386,#387,#388,#389,
     #390,#391,#392,#393,#394,#395,#396,#397,#398,#399,#400),.UNSPECIFIED.,.T.,.F.,
     (1,1,4,4,1,1,1,1,1,1,1,4,4,1,1,1,1,1,1,1,4,4,1,1,1,1,1,1,1,4,4,1,1,1,1,1,1,
     1,4,2),(-0.00501639117500008,-0.00250819558749993,0.0,0.2299344353,0.2324426308875,
     0.234950826475,0.2374590220625,0.23996721765,0.2424754132375,0.244983608825,
     0.2474918044125,0.25,0.4799344353,0.4824426308875,0.484950826475,0.4874590220625,
     0.48996721765,0.4924754132375,0.494983608825,0.4974918044125,0.5,0.7299344353,
     0.7324426308875,0.734950826475,0.7374590220625,0.73996721765,0.7424754132375,
     0.744983608825,0.7474918044125,0.75,0.9799344353,0.9824426308875,0.984950826475,
     0.9874590220625,0.98996721765,0.9924754132375,0.994983608825,0.9974918044125,
     1.0,1.2299344353),.UNSPECIFIED.);
#229=PRESENTATION_LAYER_ASSIGNMENT('1','Layer 1',(#228,#249,#250,#31));
#232=STYLED_ITEM('',(#238),#228);
#233=STYLED_ITEM('',(#239),#249);
#234=STYLED_ITEM('',(#240),#250);
#235=STYLED_ITEM('',(#241),#31);
#236=PRESENTATION_STYLE_ASSIGNMENT((#242));
#237=PRESENTATION_STYLE_ASSIGNMENT((#243));
#238=PRESENTATION_STYLE_ASSIGNMENT((#221));
#239=PRESENTATION_STYLE_ASSIGNMENT((#222));
#240=PRESENTATION_STYLE_ASSIGNMENT((#223));
#241=PRESENTATION_STYLE_ASSIGNMENT((#26));
#242=POINT_STYLE('',#244,POSITIVE_LENGTH_MEASURE(3.0),#246);
#243=POINT_STYLE('',#245,POSITIVE_LENGTH_MEASURE(3.0),#246);
#244=PRE_DEFINED_POINT_MARKER_SYMBOL('plus');
#245=PRE_DEFINED_POINT_MARKER_SYMBOL('plus');
#246=COLOUR_RGB('Medium Maroon',0.6,0.4,0.4);
#247=COLOUR_RGB('IsoInsertColor',0.8,0.8,0.8);
#248=AXIS2_PLACEMENT_3D('',#336,#272,#273);
#249=AXIS2_PLACEMENT_3D('PCS',#401,#274,#275);
#250=AXIS2_PLACEMENT_3D('MCS',#402,#276,#277);
#251=AXIS2_PLACEMENT_3D('',#403,#278,#279);
#252=AXIS2_PLACEMENT_3D('',#408,#281,#282);
#253=AXIS2_PLACEMENT_3D('',#412,#284,#285);
#254=AXIS2_PLACEMENT_3D('',#416,#287,#288);
#255=AXIS2_PLACEMENT_3D('',#420,#290,#291);
#256=AXIS2_PLACEMENT_3D('',#421,#292,#293);
#257=AXIS2_PLACEMENT_3D('',#427,#297,#298);
#258=AXIS2_PLACEMENT_3D('',#433,#302,#303);
#259=AXIS2_PLACEMENT_3D('',#439,#307,#308);
#260=AXIS2_PLACEMENT_3D('',#445,#312,#313);
#261=AXIS2_PLACEMENT_3D('',#446,#314,#315);
#262=AXIS2_PLACEMENT_3D('',#448,#316,#317);
#263=AXIS2_PLACEMENT_3D('',#449,#318,#319);
#264=AXIS2_PLACEMENT_3D('',#450,#320,#321);
#265=AXIS2_PLACEMENT_3D('',#451,#322,#323);
#266=AXIS2_PLACEMENT_3D('',#452,#324,#325);
#267=AXIS2_PLACEMENT_3D('',#453,#326,#327);
#268=AXIS2_PLACEMENT_3D('',#454,#328,#329);
#269=AXIS2_PLACEMENT_3D('',#455,#330,#331);
#270=AXIS2_PLACEMENT_3D('',#456,#332,#333);
#271=AXIS2_PLACEMENT_3D('',#457,#334,#335);
#272=DIRECTION('',(0.0,0.0,1.0));
#273=DIRECTION('',(1.0,0.0,0.0));
#274=DIRECTION('',(0.0,0.0,1.0));
#275=DIRECTION('',(1.0,0.0,0.0));
#276=DIRECTION('',(0.0,0.0,1.0));
#277=DIRECTION('',(1.0,0.0,0.0));
#278=DIRECTION('',(0.0,0.0,1.0));
#279=DIRECTION('',(-0.707106781186548,-0.707106781186547,0.0));
#280=DIRECTION('',(1.0,0.0,0.0));
#281=DIRECTION('',(0.0,0.0,-1.0));
#282=DIRECTION('',(-0.707106781186548,-0.707106781186548,0.0));
#283=DIRECTION('',(2.22044604925031E-16,-1.0,0.0));
#284=DIRECTION('',(0.0,0.0,-1.0));
#285=DIRECTION('',(-0.707106781186548,-0.707106781186547,0.0));
#286=DIRECTION('',(-1.0,2.22044604925031E-16,0.0));
#287=DIRECTION('',(0.0,0.0,-1.0));
#288=DIRECTION('',(-0.707106781186548,-0.707106781186547,0.0));
#289=DIRECTION('',(-1.11022302462516E-16,1.0,0.0));
#290=DIRECTION('',(0.0,0.0,-1.0));
#291=DIRECTION('',(-0.707106781186548,-0.707106781186548,0.0));
#292=DIRECTION('',(0.0,0.0,1.0));
#293=DIRECTION('',(-0.707106781186548,-0.707106781186547,0.0));
#294=DIRECTION('',(-1.0,0.0,-8.39223703653662E-17));
#295=DIRECTION('',(8.39223703653662E-17,-2.94602487636754E-16,-1.0));
#296=DIRECTION('',(-8.39223703653662E-17,2.94602487636754E-16,1.0));
#297=DIRECTION('',(0.0,1.0,-2.94602487636754E-16));
#298=DIRECTION('',(-1.0,0.0,0.0));
#299=DIRECTION('',(-8.39223703653662E-17,2.94602487636754E-16,1.0));
#300=DIRECTION('',(1.11022302462516E-16,-1.0,2.94602487636754E-16));
#301=DIRECTION('',(8.39223703653662E-17,-2.94602487636754E-16,-1.0));
#302=DIRECTION('',(-1.0,-1.11022302462516E-16,-8.39223703653661E-17));
#303=DIRECTION('',(1.11022302462516E-16,-1.0,0.0));
#304=DIRECTION('',(-8.39223703653662E-17,2.94602487636754E-16,1.0));
#305=DIRECTION('',(1.0,-2.22044604925031E-16,8.39223703653662E-17));
#306=DIRECTION('',(8.39223703653662E-17,-2.94602487636754E-16,-1.0));
#307=DIRECTION('',(-2.22044604925031E-16,-1.0,2.94602487636754E-16));
#308=DIRECTION('',(1.0,-2.22044604925031E-16,0.0));
#309=DIRECTION('',(-8.39223703653662E-17,2.94602487636754E-16,1.0));
#310=DIRECTION('',(-2.22044604925031E-16,1.0,-2.94602487636754E-16));
#311=DIRECTION('',(8.39223703653662E-17,-2.94602487636754E-16,-1.0));
#312=DIRECTION('',(1.0,2.22044604925031E-16,8.39223703653661E-17));
#313=DIRECTION('',(-2.22044604925031E-16,1.0,0.0));
#314=DIRECTION('',(0.0,0.0,1.0));
#315=DIRECTION('',(-0.707106781186548,-0.707106781186547,0.0));
#316=DIRECTION('',(-8.39223703653662E-17,2.94602487636754E-16,1.0));
#317=DIRECTION('',(-0.707106781186548,0.707106781186546,-2.67657493940975E-16));
#318=DIRECTION('',(-8.39223703653662E-17,2.94602487636754E-16,1.0));
#319=DIRECTION('',(-0.707106781186547,0.707106781186546,-2.67657493940974E-16));
#320=DIRECTION('',(-8.39223703653662E-17,2.94602487636754E-16,1.0));
#321=DIRECTION('',(-0.707106781186547,0.707106781186547,-2.67657493940974E-16));
#322=DIRECTION('',(-8.39223703653662E-17,2.94602487636754E-16,1.0));
#323=DIRECTION('',(-0.707106781186548,0.707106781186547,-2.67657493940974E-16));
#324=DIRECTION('',(-8.39223703653662E-17,2.94602487636754E-16,1.0));
#325=DIRECTION('',(-0.707106781186547,0.707106781186548,-2.67657493940974E-16));
#326=DIRECTION('',(-8.39223703653662E-17,2.94602487636754E-16,1.0));
#327=DIRECTION('',(-0.707106781186548,0.707106781186546,-2.67657493940975E-16));
#328=DIRECTION('',(-8.39223703653662E-17,2.94602487636754E-16,1.0));
#329=DIRECTION('',(-0.707106781186548,0.707106781186547,-2.67657493940974E-16));
#330=DIRECTION('',(-8.39223703653662E-17,2.94602487636754E-16,1.0));
#331=DIRECTION('',(-0.707106781186547,0.707106781186547,-2.67657493940974E-16));
#332=DIRECTION('',(-8.39223703653662E-17,2.94602487636754E-16,1.0));
#333=DIRECTION('',(-0.707106781186547,0.707106781186546,-2.67657493940975E-16));
#334=DIRECTION('',(0.0,0.0,1.0));
#335=DIRECTION('',(-0.707106781186548,-0.707106781186547,0.0));
#336=CARTESIAN_POINT('',(0.0,0.0,0.0));
#339=CARTESIAN_POINT('',(15.1093133003783,-2.66453525910038E-15,2.36195863249699E-16));
#340=CARTESIAN_POINT('',(12.22375,-1.77635683940025E-15,0.0));
#341=CARTESIAN_POINT('',(9.36625,-1.77635683940025E-15,1.16920362280837E-17));
#342=CARTESIAN_POINT('',(6.50875,-2.66453525910038E-15,3.5076108684251E-17));
#343=CARTESIAN_POINT('',(3.65125,-8.88178419700125E-16,7.0152217368502E-17));
#344=CARTESIAN_POINT('',(0.765686699621655,-8.88178419700125E-16,1.18698982644189E-16));
#345=CARTESIAN_POINT('',(0.709560098864975,0.00248046874999996,1.21629554515198E-16));
#346=CARTESIAN_POINT('',(0.619406969102027,0.0141768147473371,1.24388378231116E-16));
#347=CARTESIAN_POINT('',(0.500645099579534,0.0477600680910104,1.23430854865234E-16));
#348=CARTESIAN_POINT('',(0.355368738983622,0.121736333467779,1.13948846903682E-16));
#349=CARTESIAN_POINT('',(0.226426072614512,0.226482170298373,9.565796319466E-17));
#350=CARTESIAN_POINT('',(0.121768687071419,0.355249621017704,6.97590539254948E-17));
#351=CARTESIAN_POINT('',(0.047740122412586,0.500860967574774,3.76634607106501E-17));
#352=CARTESIAN_POINT('',(0.0141836652852847,0.619174184923344,9.89942583197323E-18));
#353=CARTESIAN_POINT('',(0.00248046875000529,0.70956009886498,-1.21940537775335E-17));
#354=CARTESIAN_POINT('',(-8.88178419700125E-16,0.765686699621655,-2.62167419800109E-17));
#355=CARTESIAN_POINT('',(-1.77635683940025E-15,3.65124999999999,-1.99840144432529E-17));
#356=CARTESIAN_POINT('',(0.0,6.50875,-1.33226762955019E-17));
#357=CARTESIAN_POINT('',(-1.77635683940025E-15,9.36625,-1.33226762955019E-17));
#358=CARTESIAN_POINT('',(-8.88178419700125E-16,12.22375,-1.99840144432528E-17));
#359=CARTESIAN_POINT('',(0.0,15.1093133003783,-4.27517781855241E-17));
#360=CARTESIAN_POINT('',(0.00248046875000174,15.165439901135,-6.10684101298185E-17));
#361=CARTESIAN_POINT('',(0.0141768147473318,15.255593030898,-8.87062072047555E-17));
#362=CARTESIAN_POINT('',(0.0477600680910095,15.3743549004205,-1.20911896987975E-16));
#363=CARTESIAN_POINT('',(0.12173633346778,15.5196312610164,-1.52701583039745E-16));
#364=CARTESIAN_POINT('',(0.226482170298372,15.6485739273855,-1.71879289453393E-16));
#365=CARTESIAN_POINT('',(0.355249621017712,15.7532313129286,-1.77329088174902E-16));
#366=CARTESIAN_POINT('',(0.500860967574765,15.8272598775874,-1.68575631972952E-16));
#367=CARTESIAN_POINT('',(0.619174184923357,15.8608163347147,-1.52512706709471E-16));
#368=CARTESIAN_POINT('',(0.709560098864971,15.87251953125,-1.35552219826235E-16));
#369=CARTESIAN_POINT('',(0.765686699621656,15.875,-1.23409260020241E-16));
#370=CARTESIAN_POINT('',(3.65125,15.875,-7.01522173685021E-17));
#371=CARTESIAN_POINT('',(6.50874999999999,15.875,-4.67681449123347E-17));
#372=CARTESIAN_POINT('',(9.36625,15.875,-4.67681449123347E-17));
#373=CARTESIAN_POINT('',(12.22375,15.875,-7.0152217368502E-17));
#374=CARTESIAN_POINT('',(15.1093133003783,15.875,-1.18698982644189E-16));
#375=CARTESIAN_POINT('',(15.165439901135,15.87251953125,-1.21629554515198E-16));
#376=CARTESIAN_POINT('',(15.255593030898,15.8608231852527,-1.24388378231116E-16));
#377=CARTESIAN_POINT('',(15.3743549004205,15.827239931909,-1.23430854865234E-16));
#378=CARTESIAN_POINT('',(15.5196312610164,15.7532636665322,-1.13948846903682E-16));
#379=CARTESIAN_POINT('',(15.6485739273855,15.6485178297016,-9.56579631946601E-17));
#380=CARTESIAN_POINT('',(15.7532313129286,15.5197503789823,-6.97590539254948E-17));
#381=CARTESIAN_POINT('',(15.8272598775874,15.3741390324252,-3.76634607106503E-17));
#382=CARTESIAN_POINT('',(15.8608163347147,15.2558258150766,-9.89942583197331E-18));
#383=CARTESIAN_POINT('',(15.87251953125,15.165439901135,1.21940537775334E-17));
#384=CARTESIAN_POINT('',(15.875,15.1093133003783,2.62167419800108E-17));
#385=CARTESIAN_POINT('',(15.875,12.22375,1.99840144432528E-17));
#386=CARTESIAN_POINT('',(15.875,9.36625,1.33226762955019E-17));
#387=CARTESIAN_POINT('',(15.875,6.50875,1.33226762955019E-17));
#388=CARTESIAN_POINT('',(15.875,3.65125,1.99840144432529E-17));
#389=CARTESIAN_POINT('',(15.875,0.765686699621654,4.27517781855245E-17));
#390=CARTESIAN_POINT('',(15.87251953125,0.709560098864974,6.14337862619465E-17));
#391=CARTESIAN_POINT('',(15.8608231852527,0.619406969102024,9.07944696504213E-17));
#392=CARTESIAN_POINT('',(15.827239931909,0.500645099579532,1.27947014422632E-16));
#393=CARTESIAN_POINT('',(15.7532636665322,0.355368738983625,1.70633496377438E-16));
#394=CARTESIAN_POINT('',(15.6485178297016,0.226426072614504,2.0524039484103E-16));
#395=CARTESIAN_POINT('',(15.5197503789823,0.121768687071434,2.29657799216818E-16));
#396=CARTESIAN_POINT('',(15.3741390324252,0.0477401224125646,2.42353075476791E-16));
#397=CARTESIAN_POINT('',(15.2558258150766,0.0141836652853007,2.43717834288911E-16));
#398=CARTESIAN_POINT('',(15.165439901135,0.00248046874999108,2.40071304952937E-16));
#399=CARTESIAN_POINT('',(15.1093133003783,-2.66453525910038E-15,2.36195863249699E-16));
#400=CARTESIAN_POINT('',(12.22375,-1.77635683940025E-15,0.0));
#401=CARTESIAN_POINT('',(0.0,0.0,0.0));
#402=CARTESIAN_POINT('',(7.9375,7.9375,0.0));
#403=CARTESIAN_POINT('',(7.9375,7.9375,-6.35));
#404=CARTESIAN_POINT('',(5.69243596973272,5.69243596973272,-6.35));
#405=CARTESIAN_POINT('',(7.9375,15.875,-6.35));
#406=CARTESIAN_POINT('',(0.793749999999997,15.875,-6.35));
#407=CARTESIAN_POINT('',(15.08125,15.875,-6.35));
#408=CARTESIAN_POINT('',(15.08125,15.08125,-6.35));
#409=CARTESIAN_POINT('',(15.875,15.08125,-6.35));
#410=CARTESIAN_POINT('',(15.875,7.9375,-6.35));
#411=CARTESIAN_POINT('',(15.875,0.793749999999994,-6.35));
#412=CARTESIAN_POINT('',(15.08125,0.793749999999994,-6.35));
#413=CARTESIAN_POINT('',(15.08125,-5.20417042793042E-15,-6.35));
#414=CARTESIAN_POINT('',(7.9375,-3.46944695195361E-15,-6.35));
#415=CARTESIAN_POINT('',(0.793749999999997,-1.73472347597681E-15,-6.35));
#416=CARTESIAN_POINT('',(0.793749999999998,0.793749999999995,-6.35));
#417=CARTESIAN_POINT('',(0.0,0.793749999999994,-6.35));
#418=CARTESIAN_POINT('',(0.0,7.9375,-6.35));
#419=CARTESIAN_POINT('',(0.0,15.08125,-6.35));
#420=CARTESIAN_POINT('',(0.793749999999998,15.08125,-6.35));
#421=CARTESIAN_POINT('',(7.9375,7.40716991411009,-6.35));
#422=CARTESIAN_POINT('',(7.9375,15.875,-5.27182464349352E-15));
#423=CARTESIAN_POINT('',(15.08125,15.875,-4.67230421019593E-15));
#424=CARTESIAN_POINT('',(0.793749999999997,15.875,-5.8713450767911E-15));
#425=CARTESIAN_POINT('',(15.08125,15.875,-4.33680868994202E-15));
#426=CARTESIAN_POINT('',(0.793749999999997,15.875,-5.20417042793042E-15));
#427=CARTESIAN_POINT('',(7.9375,15.875,-5.27182464349352E-15));
#428=CARTESIAN_POINT('',(0.0,0.793749999999998,-8.67361737988404E-16));
#429=CARTESIAN_POINT('',(0.0,0.793749999999998,-1.49498469159681E-15));
#430=CARTESIAN_POINT('',(0.0,7.9375,-3.59955121265187E-15));
#431=CARTESIAN_POINT('',(0.0,15.08125,-5.70411773370694E-15));
#432=CARTESIAN_POINT('',(0.0,15.08125,-5.20417042793042E-15));
#433=CARTESIAN_POINT('',(0.0,7.9375,-3.59955121265187E-15));
#434=CARTESIAN_POINT('',(15.08125,-3.46944695195361E-15,-2.88889491658085E-31));
#435=CARTESIAN_POINT('',(15.08125,-3.46944695195361E-15,4.5102810375393E-18));
#436=CARTESIAN_POINT('',(7.9375,-1.73472347597681E-15,-5.95010152260045E-16));
#437=CARTESIAN_POINT('',(0.793749999999997,1.73472347597681E-15,-1.19453058555763E-15));
#438=CARTESIAN_POINT('',(0.793749999999997,1.73472347597681E-15,-8.67361737988404E-16));
#439=CARTESIAN_POINT('',(7.9375,-1.73472347597681E-15,-5.95010152260046E-16));
#440=CARTESIAN_POINT('',(15.875,15.08125,-4.33680868994202E-15));
#441=CARTESIAN_POINT('',(15.875,15.08125,-4.37185010415675E-15));
#442=CARTESIAN_POINT('',(15.875,7.9375,-2.26728358310169E-15));
#443=CARTESIAN_POINT('',(15.875,0.793749999999995,-1.62717062046624E-16));
#444=CARTESIAN_POINT('',(15.875,0.793749999999995,0.0));
#445=CARTESIAN_POINT('',(15.875,7.9375,-2.26728358310169E-15));
#446=CARTESIAN_POINT('',(7.9375,7.9375,0.0));
#447=CARTESIAN_POINT('',(5.69243596973272,5.69243596973272,0.0));
#448=CARTESIAN_POINT('',(15.08125,15.08125,-4.43846348563426E-15));
#449=CARTESIAN_POINT('',(0.793749999999998,15.08125,-5.63750435222943E-15));
#450=CARTESIAN_POINT('',(0.793749999999998,0.793749999999997,-1.4283713101193E-15));
#451=CARTESIAN_POINT('',(15.08125,0.793749999999996,-2.29330443524134E-16));
#452=CARTESIAN_POINT('',(7.9375,7.9375,-2.93341739787678E-15));
#453=CARTESIAN_POINT('',(15.08125,15.08125,-4.33680868994202E-15));
#454=CARTESIAN_POINT('',(15.08125,0.793749999999996,0.0));
#455=CARTESIAN_POINT('',(0.793749999999998,0.793749999999997,-8.67361737988404E-16));
#456=CARTESIAN_POINT('',(0.793749999999998,15.08125,-5.20417042793042E-15));
#457=CARTESIAN_POINT('',(7.9375,7.9375,-33.3676978394524));
#458=MECHANICAL_DESIGN_GEOMETRIC_PRESENTATION_REPRESENTATION('',(#232,#233,#234,
     #235),#459);
#459=(GEOMETRIC_REPRESENTATION_CONTEXT(3)GLOBAL_UNCERTAINTY_ASSIGNED_CONTEXT((#460))
     GLOBAL_UNIT_ASSIGNED_CONTEXT((#466,#462,#461))REPRESENTATION_CONTEXT('SNMM150608',
     'TOP_LEVEL_ASSEMBLY_PART'));
#460=UNCERTAINTY_MEASURE_WITH_UNIT(LENGTH_MEASURE(2.0E-5),#466,'DISTANCE_ACCURACY_VALUE',
     'Maximum Tolerance applied to model');
#461=(NAMED_UNIT(*)SI_UNIT($,.STERADIAN.)SOLID_ANGLE_UNIT());
#462=(CONVERSION_BASED_UNIT('DEGREE',#464)NAMED_UNIT(#463)PLANE_ANGLE_UNIT());
#463=DIMENSIONAL_EXPONENTS(0.0,0.0,0.0,0.0,0.0,0.0,0.0);
#464=PLANE_ANGLE_MEASURE_WITH_UNIT(PLANE_ANGLE_MEASURE(0.0174532925),#465);
#465=(NAMED_UNIT(*)PLANE_ANGLE_UNIT()SI_UNIT($,.RADIAN.));
#466=(LENGTH_UNIT()NAMED_UNIT(*)SI_UNIT(.MILLI.,.METRE.));
#467=CONSTRUCTIVE_GEOMETRY_REPRESENTATION('supplemental geometry',(#249,#250),#459);
#468=CONSTRUCTIVE_GEOMETRY_REPRESENTATION_RELATIONSHIP('supplemental geometry','contains PCS and MCS coordinate systems',
     #24,#467);
ENDSEC;
END-ISO-10303-21;
