ISO-10303-21;
HEADER;
FILE_DESCRIPTION(
/* description */ (''),
/* implementation_level */ '2;1');
FILE_NAME(
/* name */ 'CNGA120412.stp',
/* time_stamp */ '2017-03-21T10:53:52',
/* author */ ('Sandvik Coromant R&D'),
/* organization */ ('Sandvik Machining Solutions'),
/* preprocessor_version */ 'ST-DEVELOPER v15',
/* originating_system */ 'SIEMENS PLM Software NX v8.5.3.3(64 bits)',
/* authorization */ '');
FILE_SCHEMA(('AUTOMOTIVE_DESIGN'));
ENDSEC;
DATA;
#10=GEOMETRICALLY_BOUNDED_WIREFRAME_SHAPE_REPRESENTATION('IsoTurningInsert-None',
     (#25),#459);
#11=SHAPE_REPRESENTATION_RELATIONSHIP('None','relationship between IsoTurningInsert-None and IsoTurningInsert-None',
     #24,#13);
#12=SHAPE_REPRESENTATION_RELATIONSHIP('None','relationship between IsoTurningInsert-None and IsoTurningInsert-None',
     #24,#10);
#13=ADVANCED_BREP_SHAPE_REPRESENTATION('IsoTurningInsert-None',(#31),#459);
#14=SHAPE_DEFINITION_REPRESENTATION(#15,#24);
#15=PRODUCT_DEFINITION_SHAPE('','',#16);
#16=PRODUCT_DEFINITION(' ','',#18,#17);
#17=PRODUCT_DEFINITION_CONTEXT('part definition',#23,'design');
#18=PRODUCT_DEFINITION_FORMATION_WITH_SPECIFIED_SOURCE(' ',' ',#20,.NOT_KNOWN.);
#19=PRODUCT_RELATED_PRODUCT_CATEGORY('part','',(#20));
#20=PRODUCT('IsoTurningInsert','IsoTurningInsert',' ',(#21));
#21=PRODUCT_CONTEXT(' ',#23,'mechanical');
#22=APPLICATION_PROTOCOL_DEFINITION('international standard','automotive_design',
     2010,#23);
#23=APPLICATION_CONTEXT('core data for automotive mechanical design processes');
#24=SHAPE_REPRESENTATION('IsoTurningInsert-None',(#248),#459);
#25=GEOMETRIC_CURVE_SET('geometric curve set',(#228));
#26=SURFACE_STYLE_USAGE(.BOTH.,#27);
#27=SURFACE_SIDE_STYLE('',(#28));
#28=SURFACE_STYLE_FILL_AREA(#29);
#29=FILL_AREA_STYLE('',(#30));
#30=FILL_AREA_STYLE_COLOUR('',#247);
#31=MANIFOLD_SOLID_BREP('CUT',#32);
#32=CLOSED_SHELL('',(#46,#47,#48,#49,#50,#51,#52,#53,#54,#55,#56));
#33=CYLINDRICAL_SURFACE('',#267,1.190625);
#34=CYLINDRICAL_SURFACE('',#268,1.190625);
#35=CYLINDRICAL_SURFACE('',#269,1.190625);
#36=CYLINDRICAL_SURFACE('',#270,1.190625);
#37=CYLINDRICAL_SURFACE('',#271,2.578);
#38=FACE_OUTER_BOUND('',#103,.T.);
#39=FACE_OUTER_BOUND('',#104,.T.);
#40=FACE_OUTER_BOUND('',#105,.T.);
#41=FACE_OUTER_BOUND('',#106,.T.);
#42=FACE_OUTER_BOUND('',#109,.T.);
#43=FACE_OUTER_BOUND('',#110,.T.);
#44=FACE_OUTER_BOUND('',#111,.T.);
#45=FACE_OUTER_BOUND('',#112,.T.);
#46=ADVANCED_FACE('',(#95,#96),#57,.F.);
#47=ADVANCED_FACE('',(#38),#58,.T.);
#48=ADVANCED_FACE('',(#39),#59,.T.);
#49=ADVANCED_FACE('',(#40),#60,.T.);
#50=ADVANCED_FACE('',(#41),#61,.T.);
#51=ADVANCED_FACE('',(#97,#98),#62,.T.);
#52=ADVANCED_FACE('',(#42),#33,.T.);
#53=ADVANCED_FACE('',(#43),#34,.T.);
#54=ADVANCED_FACE('',(#44),#35,.T.);
#55=ADVANCED_FACE('',(#45),#36,.T.);
#56=ADVANCED_FACE('',(#99,#100),#37,.F.);
#57=PLANE('',#256);
#58=PLANE('',#257);
#59=PLANE('',#258);
#60=PLANE('',#259);
#61=PLANE('',#260);
#62=PLANE('',#266);
#63=LINE('',#405,#79);
#64=LINE('',#410,#80);
#65=LINE('',#414,#81);
#66=LINE('',#418,#82);
#67=LINE('',#422,#83);
#68=LINE('',#425,#84);
#69=LINE('',#426,#85);
#70=LINE('',#428,#86);
#71=LINE('',#430,#87);
#72=LINE('',#432,#88);
#73=LINE('',#434,#89);
#74=LINE('',#436,#90);
#75=LINE('',#438,#91);
#76=LINE('',#440,#92);
#77=LINE('',#442,#93);
#78=LINE('',#444,#94);
#79=VECTOR('',#280,1.0);
#80=VECTOR('',#283,1.0);
#81=VECTOR('',#286,1.0);
#82=VECTOR('',#289,1.0);
#83=VECTOR('',#294,1.0);
#84=VECTOR('',#295,1.0);
#85=VECTOR('',#296,1.0);
#86=VECTOR('',#299,1.0);
#87=VECTOR('',#300,1.0);
#88=VECTOR('',#301,1.0);
#89=VECTOR('',#304,1.0);
#90=VECTOR('',#305,1.0);
#91=VECTOR('',#306,1.0);
#92=VECTOR('',#309,1.0);
#93=VECTOR('',#310,1.0);
#94=VECTOR('',#311,1.0);
#95=FACE_BOUND('',#101,.T.);
#96=FACE_BOUND('',#102,.T.);
#97=FACE_BOUND('',#107,.T.);
#98=FACE_BOUND('',#108,.T.);
#99=FACE_BOUND('',#113,.T.);
#100=FACE_BOUND('',#114,.T.);
#101=EDGE_LOOP('',(#115));
#102=EDGE_LOOP('',(#116,#117,#118,#119,#120,#121,#122,#123));
#103=EDGE_LOOP('',(#124,#125,#126,#127));
#104=EDGE_LOOP('',(#128,#129,#130,#131));
#105=EDGE_LOOP('',(#132,#133,#134,#135));
#106=EDGE_LOOP('',(#136,#137,#138,#139));
#107=EDGE_LOOP('',(#140));
#108=EDGE_LOOP('',(#141,#142,#143,#144,#145,#146,#147,#148));
#109=EDGE_LOOP('',(#149,#150,#151,#152));
#110=EDGE_LOOP('',(#153,#154,#155,#156));
#111=EDGE_LOOP('',(#157,#158,#159,#160));
#112=EDGE_LOOP('',(#161,#162,#163,#164));
#113=EDGE_LOOP('',(#165));
#114=EDGE_LOOP('',(#166));
#115=ORIENTED_EDGE('',*,*,#185,.T.);
#116=ORIENTED_EDGE('',*,*,#186,.T.);
#117=ORIENTED_EDGE('',*,*,#187,.T.);
#118=ORIENTED_EDGE('',*,*,#188,.T.);
#119=ORIENTED_EDGE('',*,*,#189,.T.);
#120=ORIENTED_EDGE('',*,*,#190,.T.);
#121=ORIENTED_EDGE('',*,*,#191,.T.);
#122=ORIENTED_EDGE('',*,*,#192,.T.);
#123=ORIENTED_EDGE('',*,*,#193,.T.);
#124=ORIENTED_EDGE('',*,*,#194,.F.);
#125=ORIENTED_EDGE('',*,*,#195,.T.);
#126=ORIENTED_EDGE('',*,*,#186,.F.);
#127=ORIENTED_EDGE('',*,*,#196,.T.);
#128=ORIENTED_EDGE('',*,*,#192,.F.);
#129=ORIENTED_EDGE('',*,*,#197,.T.);
#130=ORIENTED_EDGE('',*,*,#198,.F.);
#131=ORIENTED_EDGE('',*,*,#199,.T.);
#132=ORIENTED_EDGE('',*,*,#190,.F.);
#133=ORIENTED_EDGE('',*,*,#200,.T.);
#134=ORIENTED_EDGE('',*,*,#201,.F.);
#135=ORIENTED_EDGE('',*,*,#202,.T.);
#136=ORIENTED_EDGE('',*,*,#188,.F.);
#137=ORIENTED_EDGE('',*,*,#203,.T.);
#138=ORIENTED_EDGE('',*,*,#204,.F.);
#139=ORIENTED_EDGE('',*,*,#205,.T.);
#140=ORIENTED_EDGE('',*,*,#206,.F.);
#141=ORIENTED_EDGE('',*,*,#204,.T.);
#142=ORIENTED_EDGE('',*,*,#207,.T.);
#143=ORIENTED_EDGE('',*,*,#194,.T.);
#144=ORIENTED_EDGE('',*,*,#208,.T.);
#145=ORIENTED_EDGE('',*,*,#198,.T.);
#146=ORIENTED_EDGE('',*,*,#209,.T.);
#147=ORIENTED_EDGE('',*,*,#201,.T.);
#148=ORIENTED_EDGE('',*,*,#210,.T.);
#149=ORIENTED_EDGE('',*,*,#187,.F.);
#150=ORIENTED_EDGE('',*,*,#195,.F.);
#151=ORIENTED_EDGE('',*,*,#207,.F.);
#152=ORIENTED_EDGE('',*,*,#203,.F.);
#153=ORIENTED_EDGE('',*,*,#189,.F.);
#154=ORIENTED_EDGE('',*,*,#205,.F.);
#155=ORIENTED_EDGE('',*,*,#210,.F.);
#156=ORIENTED_EDGE('',*,*,#200,.F.);
#157=ORIENTED_EDGE('',*,*,#191,.F.);
#158=ORIENTED_EDGE('',*,*,#202,.F.);
#159=ORIENTED_EDGE('',*,*,#209,.F.);
#160=ORIENTED_EDGE('',*,*,#197,.F.);
#161=ORIENTED_EDGE('',*,*,#193,.F.);
#162=ORIENTED_EDGE('',*,*,#199,.F.);
#163=ORIENTED_EDGE('',*,*,#208,.F.);
#164=ORIENTED_EDGE('',*,*,#196,.F.);
#165=ORIENTED_EDGE('',*,*,#185,.F.);
#166=ORIENTED_EDGE('',*,*,#206,.T.);
#167=VERTEX_POINT('',#404);
#168=VERTEX_POINT('',#406);
#169=VERTEX_POINT('',#407);
#170=VERTEX_POINT('',#409);
#171=VERTEX_POINT('',#411);
#172=VERTEX_POINT('',#413);
#173=VERTEX_POINT('',#415);
#174=VERTEX_POINT('',#417);
#175=VERTEX_POINT('',#419);
#176=VERTEX_POINT('',#423);
#177=VERTEX_POINT('',#424);
#178=VERTEX_POINT('',#429);
#179=VERTEX_POINT('',#431);
#180=VERTEX_POINT('',#435);
#181=VERTEX_POINT('',#437);
#182=VERTEX_POINT('',#441);
#183=VERTEX_POINT('',#443);
#184=VERTEX_POINT('',#447);
#185=EDGE_CURVE('',#167,#167,#211,.T.);
#186=EDGE_CURVE('',#168,#169,#63,.T.);
#187=EDGE_CURVE('',#169,#170,#212,.T.);
#188=EDGE_CURVE('',#170,#171,#64,.T.);
#189=EDGE_CURVE('',#171,#172,#213,.T.);
#190=EDGE_CURVE('',#172,#173,#65,.T.);
#191=EDGE_CURVE('',#173,#174,#214,.T.);
#192=EDGE_CURVE('',#174,#175,#66,.T.);
#193=EDGE_CURVE('',#175,#168,#215,.T.);
#194=EDGE_CURVE('',#176,#177,#67,.T.);
#195=EDGE_CURVE('',#176,#169,#68,.T.);
#196=EDGE_CURVE('',#168,#177,#69,.T.);
#197=EDGE_CURVE('',#174,#178,#70,.T.);
#198=EDGE_CURVE('',#179,#178,#71,.T.);
#199=EDGE_CURVE('',#179,#175,#72,.T.);
#200=EDGE_CURVE('',#172,#180,#73,.T.);
#201=EDGE_CURVE('',#181,#180,#74,.T.);
#202=EDGE_CURVE('',#181,#173,#75,.T.);
#203=EDGE_CURVE('',#170,#182,#76,.T.);
#204=EDGE_CURVE('',#183,#182,#77,.T.);
#205=EDGE_CURVE('',#183,#171,#78,.T.);
#206=EDGE_CURVE('',#184,#184,#216,.T.);
#207=EDGE_CURVE('',#182,#176,#217,.T.);
#208=EDGE_CURVE('',#177,#179,#218,.T.);
#209=EDGE_CURVE('',#178,#181,#219,.T.);
#210=EDGE_CURVE('',#180,#183,#220,.T.);
#211=CIRCLE('',#251,2.578);
#212=CIRCLE('',#252,1.190625);
#213=CIRCLE('',#253,1.190625);
#214=CIRCLE('',#254,1.190625);
#215=CIRCLE('',#255,1.190625);
#216=CIRCLE('',#261,2.578);
#217=CIRCLE('',#262,1.190625);
#218=CIRCLE('',#263,1.190625);
#219=CIRCLE('',#264,1.190625);
#220=CIRCLE('',#265,1.190625);
#221=CURVE_STYLE('',#225,POSITIVE_LENGTH_MEASURE(0.18),#224);
#222=CURVE_STYLE('',#226,POSITIVE_LENGTH_MEASURE(0.18),#246);
#223=CURVE_STYLE('',#227,POSITIVE_LENGTH_MEASURE(0.18),#246);
#224=DRAUGHTING_PRE_DEFINED_COLOUR('blue');
#225=DRAUGHTING_PRE_DEFINED_CURVE_FONT('continuous');
#226=DRAUGHTING_PRE_DEFINED_CURVE_FONT('continuous');
#227=DRAUGHTING_PRE_DEFINED_CURVE_FONT('continuous');
#228=B_SPLINE_CURVE_WITH_KNOTS('CUTTING EDGE LINE',5,(#339,#340,#341,#342,#343,#344,
     #345,#346,#347,#348,#349,#350,#351,#352,#353,#354,#355,#356,#357,#358,#359,
     #360,#361,#362,#363,#364,#365,#366,#367,#368,#369,#370,#371,#372,#373,#374,
     #375,#376,#377,#378,#379,#380,#381,#382,#383,#384,#385,#386,#387,#388,#389,
     #390,#391,#392,#393,#394,#395,#396,#397,#398,#399,#400),.UNSPECIFIED.,.T.,.F.,
     (2,4,1,1,1,1,1,1,1,4,4,1,1,1,1,1,1,1,4,4,1,1,1,1,1,1,1,4,4,1,1,1,1,1,1,1,4,
     4,1,1),(-0.2121354728,0.0,0.00420716968750001,0.00841433937500002,0.0126215090625,
     0.01682867875,0.0210358484374999,0.025243018125,0.0294501878125,0.0336573575,
     0.2457928303,0.2510517924125,0.256310754525,0.2615697166375,0.26682867875,0.2720876408625,
     0.277346602975,0.2826055650875,0.2878645272,0.5,0.5042071696875,0.508414339375,
     0.5126215090625,0.51682867875,0.5210358484375,0.525243018125,0.5294501878125,
     0.5336573575,0.7457928303,0.7510517924125,0.756310754525,0.7615697166375,0.76682867875,
     0.7720876408625,0.777346602975,0.7826055650875,0.7878645272,1.0,1.0042071696875,
     1.008414339375),.UNSPECIFIED.);
#229=PRESENTATION_LAYER_ASSIGNMENT('1','Layer 1',(#228,#249,#250,#31));
#232=STYLED_ITEM('',(#238),#228);
#233=STYLED_ITEM('',(#239),#249);
#234=STYLED_ITEM('',(#240),#250);
#235=STYLED_ITEM('',(#241),#31);
#236=PRESENTATION_STYLE_ASSIGNMENT((#242));
#237=PRESENTATION_STYLE_ASSIGNMENT((#243));
#238=PRESENTATION_STYLE_ASSIGNMENT((#221));
#239=PRESENTATION_STYLE_ASSIGNMENT((#222));
#240=PRESENTATION_STYLE_ASSIGNMENT((#223));
#241=PRESENTATION_STYLE_ASSIGNMENT((#26));
#242=POINT_STYLE('',#244,POSITIVE_LENGTH_MEASURE(3.0),#246);
#243=POINT_STYLE('',#245,POSITIVE_LENGTH_MEASURE(3.0),#246);
#244=PRE_DEFINED_POINT_MARKER_SYMBOL('plus');
#245=PRE_DEFINED_POINT_MARKER_SYMBOL('plus');
#246=COLOUR_RGB('Medium Maroon',0.6,0.4,0.4);
#247=COLOUR_RGB('IsoInsertColor',0.8,0.8,0.8);
#248=AXIS2_PLACEMENT_3D('',#336,#272,#273);
#249=AXIS2_PLACEMENT_3D('PCS',#401,#274,#275);
#250=AXIS2_PLACEMENT_3D('MCS',#402,#276,#277);
#251=AXIS2_PLACEMENT_3D('',#403,#278,#279);
#252=AXIS2_PLACEMENT_3D('',#408,#281,#282);
#253=AXIS2_PLACEMENT_3D('',#412,#284,#285);
#254=AXIS2_PLACEMENT_3D('',#416,#287,#288);
#255=AXIS2_PLACEMENT_3D('',#420,#290,#291);
#256=AXIS2_PLACEMENT_3D('',#421,#292,#293);
#257=AXIS2_PLACEMENT_3D('',#427,#297,#298);
#258=AXIS2_PLACEMENT_3D('',#433,#302,#303);
#259=AXIS2_PLACEMENT_3D('',#439,#307,#308);
#260=AXIS2_PLACEMENT_3D('',#445,#312,#313);
#261=AXIS2_PLACEMENT_3D('',#446,#314,#315);
#262=AXIS2_PLACEMENT_3D('',#448,#316,#317);
#263=AXIS2_PLACEMENT_3D('',#449,#318,#319);
#264=AXIS2_PLACEMENT_3D('',#450,#320,#321);
#265=AXIS2_PLACEMENT_3D('',#451,#322,#323);
#266=AXIS2_PLACEMENT_3D('',#452,#324,#325);
#267=AXIS2_PLACEMENT_3D('',#453,#326,#327);
#268=AXIS2_PLACEMENT_3D('',#454,#328,#329);
#269=AXIS2_PLACEMENT_3D('',#455,#330,#331);
#270=AXIS2_PLACEMENT_3D('',#456,#332,#333);
#271=AXIS2_PLACEMENT_3D('',#457,#334,#335);
#272=DIRECTION('',(0.0,0.0,1.0));
#273=DIRECTION('',(1.0,0.0,0.0));
#274=DIRECTION('',(0.0,0.0,1.0));
#275=DIRECTION('',(1.0,0.0,0.0));
#276=DIRECTION('',(0.0,0.0,1.0));
#277=DIRECTION('',(1.0,0.0,0.0));
#278=DIRECTION('',(0.0,0.0,1.0));
#279=DIRECTION('',(-0.766044443118978,-0.64278760968654,0.0));
#280=DIRECTION('',(1.0,6.10622663543836E-16,0.0));
#281=DIRECTION('',(0.0,0.0,-1.0));
#282=DIRECTION('',(-0.766044443118978,-0.64278760968654,0.0));
#283=DIRECTION('',(-0.173648177666928,-0.984807753012209,0.0));
#284=DIRECTION('',(0.0,0.0,-1.0));
#285=DIRECTION('',(-0.766044443118978,-0.64278760968654,0.0));
#286=DIRECTION('',(-1.0,7.7715611723761E-16,0.0));
#287=DIRECTION('',(0.0,0.0,-1.0));
#288=DIRECTION('',(-0.766044443118978,-0.64278760968654,0.0));
#289=DIRECTION('',(0.17364817766693,0.984807753012208,0.0));
#290=DIRECTION('',(0.0,0.0,-1.0));
#291=DIRECTION('',(-0.766044443118978,-0.64278760968654,0.0));
#292=DIRECTION('',(0.0,0.0,1.0));
#293=DIRECTION('',(-0.766044443118978,-0.64278760968654,0.0));
#294=DIRECTION('',(-1.0,-6.10622663543836E-16,-1.03309251233719E-16));
#295=DIRECTION('',(1.03309251233719E-16,-3.86469317895239E-16,-1.0));
#296=DIRECTION('',(-1.03309251233719E-16,3.86469317895239E-16,1.0));
#297=DIRECTION('',(-6.10622663543836E-16,1.0,-3.86469317895239E-16));
#298=DIRECTION('',(-1.0,-6.10622663543836E-16,0.0));
#299=DIRECTION('',(-1.03309251233719E-16,3.86469317895239E-16,1.0));
#300=DIRECTION('',(-0.17364817766693,-0.984807753012208,3.626585173517E-16));
#301=DIRECTION('',(1.03309251233719E-16,-3.86469317895239E-16,-1.0));
#302=DIRECTION('',(-0.984807753012208,0.17364817766693,-1.68849444349542E-16));
#303=DIRECTION('',(-0.17364817766693,-0.984807753012208,0.0));
#304=DIRECTION('',(-1.03309251233719E-16,3.86469317895239E-16,1.0));
#305=DIRECTION('',(1.0,-7.7715611723761E-16,1.03309251233719E-16));
#306=DIRECTION('',(1.03309251233719E-16,-3.86469317895239E-16,-1.0));
#307=DIRECTION('',(-7.7715611723761E-16,-1.0,3.86469317895238E-16));
#308=DIRECTION('',(1.0,-7.7715611723761E-16,0.0));
#309=DIRECTION('',(-1.03309251233719E-16,3.86469317895239E-16,1.0));
#310=DIRECTION('',(0.173648177666928,0.984807753012209,-3.62658517351701E-16));
#311=DIRECTION('',(1.03309251233719E-16,-3.86469317895239E-16,-1.0));
#312=DIRECTION('',(0.984807753012209,-0.173648177666928,1.68849444349541E-16));
#313=DIRECTION('',(0.173648177666928,0.984807753012209,0.0));
#314=DIRECTION('',(0.0,0.0,1.0));
#315=DIRECTION('',(-0.766044443118978,-0.64278760968654,0.0));
#316=DIRECTION('',(-1.03309251233719E-16,3.86469317895239E-16,1.0));
#317=DIRECTION('',(-0.64278760968654,0.766044443118978,-3.62458580068658E-16));
#318=DIRECTION('',(-1.03309251233719E-16,3.86469317895239E-16,1.0));
#319=DIRECTION('',(-0.64278760968654,0.766044443118978,-3.62458580068658E-16));
#320=DIRECTION('',(-1.03309251233719E-16,3.86469317895239E-16,1.0));
#321=DIRECTION('',(-0.64278760968654,0.766044443118978,-3.62458580068658E-16));
#322=DIRECTION('',(-1.03309251233719E-16,3.86469317895239E-16,1.0));
#323=DIRECTION('',(-0.64278760968654,0.766044443118978,-3.62458580068658E-16));
#324=DIRECTION('',(-1.03309251233719E-16,3.86469317895239E-16,1.0));
#325=DIRECTION('',(-0.64278760968654,0.766044443118978,-3.62458580068658E-16));
#326=DIRECTION('',(-1.03309251233719E-16,3.86469317895239E-16,1.0));
#327=DIRECTION('',(-0.64278760968654,0.766044443118978,-3.62458580068658E-16));
#328=DIRECTION('',(-1.03309251233719E-16,3.86469317895239E-16,1.0));
#329=DIRECTION('',(-0.64278760968654,0.766044443118978,-3.62458580068658E-16));
#330=DIRECTION('',(-1.03309251233719E-16,3.86469317895239E-16,1.0));
#331=DIRECTION('',(-0.64278760968654,0.766044443118978,-3.62458580068658E-16));
#332=DIRECTION('',(-1.03309251233719E-16,3.86469317895239E-16,1.0));
#333=DIRECTION('',(-0.64278760968654,0.766044443118978,-3.62458580068658E-16));
#334=DIRECTION('',(0.0,0.0,1.0));
#335=DIRECTION('',(-0.766044443118978,-0.64278760968654,0.0));
#336=CARTESIAN_POINT('',(0.0,0.0,0.0));
#339=CARTESIAN_POINT('',(9.80127830229927,5.24025267623074E-14,-1.97215226305253E-32));
#340=CARTESIAN_POINT('',(11.9351309224676,5.06261699229071E-14,4.64093258249813E-16));
#341=CARTESIAN_POINT('',(12.0116628222459,0.00307460980775254,4.70497349828604E-16));
#342=CARTESIAN_POINT('',(12.1331204639673,0.0174432807981511,4.76024013613341E-16));
#343=CARTESIAN_POINT('',(12.2926290239087,0.0580398070387114,4.72665843611504E-16));
#344=CARTESIAN_POINT('',(12.4892915103921,0.14635534347596,4.49828843748486E-16));
#345=CARTESIAN_POINT('',(12.6685159275683,0.271007202162116,4.07435134496304E-16));
#346=CARTESIAN_POINT('',(12.822396037866,0.425863229622783,3.4766431262475E-16));
#347=CARTESIAN_POINT('',(12.943519945254,0.604202139076263,2.73034916057818E-16));
#348=CARTESIAN_POINT('',(13.0111980897972,0.754237892776827,2.06713987678163E-16));
#349=CARTESIAN_POINT('',(13.0464393665377,0.871355226473867,1.53127119927752E-16));
#350=CARTESIAN_POINT('',(13.0627568910437,0.946190534338149,1.1824572733762E-16));
#351=CARTESIAN_POINT('',(13.4332965099457,3.04762513846535,6.03109109036019E-17));
#352=CARTESIAN_POINT('',(13.7971913163828,5.11137513846534,4.02072739357346E-17));
#353=CARTESIAN_POINT('',(14.1610861228199,7.17512513846533,4.02072739357347E-17));
#354=CARTESIAN_POINT('',(14.524980929257,9.23887513846532,6.03109109036021E-17));
#355=CARTESIAN_POINT('',(14.8967947148213,11.3475359008194,8.72102491385069E-17));
#356=CARTESIAN_POINT('',(14.9083322180835,11.4381157117721,6.06305616321944E-17));
#357=CARTESIAN_POINT('',(14.9137078943771,11.5884281670748,1.73331160778434E-17));
#358=CARTESIAN_POINT('',(14.8878535539902,11.7914580452034,-3.92012574752331E-17));
#359=CARTESIAN_POINT('',(14.795391984268,12.0502244937314,-1.07754492081623E-16));
#360=CARTESIAN_POINT('',(14.6408884221314,12.2851640751181,-1.65844369573731E-16));
#361=CARTESIAN_POINT('',(14.4363473629003,12.4781172111481,-2.08984510894307E-16));
#362=CARTESIAN_POINT('',(14.1975679412566,12.6141084040943,-2.33822263903044E-16));
#363=CARTESIAN_POINT('',(14.0021121022771,12.6748257273054,-2.39684685309807E-16));
#364=CARTESIAN_POINT('',(13.8531497545272,12.6956332035577,-2.36870457126149E-16));
#365=CARTESIAN_POINT('',(13.7619425880183,12.7,-2.32753051546056E-16));
#366=CARTESIAN_POINT('',(11.6207523344847,12.7,-1.38042009485705E-16));
#367=CARTESIAN_POINT('',(9.52516566420552,12.7,-9.20280063238036E-17));
#368=CARTESIAN_POINT('',(7.42957899392633,12.7,-9.20280063238036E-17));
#369=CARTESIAN_POINT('',(5.33399232364713,12.7,-1.38042009485705E-16));
#370=CARTESIAN_POINT('',(3.20013970347879,12.7,-2.42835435297263E-16));
#371=CARTESIAN_POINT('',(3.12360780370049,12.6969253901923,-2.66739064968154E-16));
#372=CARTESIAN_POINT('',(3.00215016197909,12.6825567192019,-2.99652523846859E-16));
#373=CARTESIAN_POINT('',(2.84264160203774,12.6419601929613,-3.31378814135145E-16));
#374=CARTESIAN_POINT('',(2.64597911555429,12.5536446565241,-3.50244703300742E-16));
#375=CARTESIAN_POINT('',(2.46675469837811,12.4289927978379,-3.44062630356007E-16));
#376=CARTESIAN_POINT('',(2.31287458808044,12.2741367703773,-3.13440481905922E-16));
#377=CARTESIAN_POINT('',(2.19175068069239,12.0957978609238,-2.59462849033337E-16));
#378=CARTESIAN_POINT('',(2.12407253614922,11.9457621072232,-2.02635039311558E-16));
#379=CARTESIAN_POINT('',(2.08883125940873,11.8286447735262,-1.52408151128348E-16));
#380=CARTESIAN_POINT('',(2.07251373490272,11.7538094656619,-1.1824572733762E-16));
#381=CARTESIAN_POINT('',(1.70197411600069,9.65237486153469,-6.03109109036021E-17));
#382=CARTESIAN_POINT('',(1.3380793095636,7.58862486153471,-4.02072739357346E-17));
#383=CARTESIAN_POINT('',(0.974184503126505,5.52487486153472,-4.02072739357345E-17));
#384=CARTESIAN_POINT('',(0.610289696689415,3.46112486153473,-6.03109109036016E-17));
#385=CARTESIAN_POINT('',(0.238475911125112,1.35246409918064,-8.72102491385062E-17));
#386=CARTESIAN_POINT('',(0.226938407862884,1.261884288228,-6.06305616321937E-17));
#387=CARTESIAN_POINT('',(0.221562731569273,1.11157183292523,-1.73331160778443E-17));
#388=CARTESIAN_POINT('',(0.247417071956229,0.908541954796595,3.92012574752397E-17));
#389=CARTESIAN_POINT('',(0.339878641678361,0.649775506268652,1.07754492081612E-16));
#390=CARTESIAN_POINT('',(0.49438220381504,0.414835924881868,1.65844369573752E-16));
#391=CARTESIAN_POINT('',(0.698923263046082,0.221882788851985,2.08984510894297E-16));
#392=CARTESIAN_POINT('',(0.937702684689852,0.0858915959057693,2.3382226390305E-16));
#393=CARTESIAN_POINT('',(1.13315852366933,0.0251742726946969,2.39684685309805E-16));
#394=CARTESIAN_POINT('',(1.2821208714192,0.00436679644235305,2.36870457126149E-16));
#395=CARTESIAN_POINT('',(1.37332803792806,5.86197757002083E-14,2.32753051546056E-16));
#396=CARTESIAN_POINT('',(3.51451829146168,5.6843418860808E-14,1.38042009485705E-16));
#397=CARTESIAN_POINT('',(5.61010496174088,5.59552404411079E-14,6.90210047428526E-17));
#398=CARTESIAN_POINT('',(7.70569163202007,5.50670620214078E-14,2.30070015809509E-17));
#399=CARTESIAN_POINT('',(9.80127830229927,5.24025267623074E-14,-1.97215226305253E-32));
#400=CARTESIAN_POINT('',(11.9351309224676,5.06261699229071E-14,4.64093258249813E-16));
#401=CARTESIAN_POINT('',(0.0,0.0,0.0));
#402=CARTESIAN_POINT('',(7.56763531297323,6.35,0.0));
#403=CARTESIAN_POINT('',(7.56763531297323,6.35,-4.7625));
#404=CARTESIAN_POINT('',(5.59277273861251,4.6928935422281,-4.7625));
#405=CARTESIAN_POINT('',(7.5676353129732,12.7,-4.7625));
#406=CARTESIAN_POINT('',(3.23840565336794,12.7,-4.7625));
#407=CARTESIAN_POINT('',(13.7163390047639,12.7,-4.7625));
#408=CARTESIAN_POINT('',(13.7163390047639,11.509375,-4.7625));
#409=CARTESIAN_POINT('',(14.8888757356941,11.3026251384653,-4.7625));
#410=CARTESIAN_POINT('',(13.8211645446007,5.24733407181504,-4.7625));
#411=CARTESIAN_POINT('',(13.0694017035086,0.98387513846536,-4.7625));
#412=CARTESIAN_POINT('',(11.8968649725785,1.19062500000005,-4.7625));
#413=CARTESIAN_POINT('',(11.8968649725785,4.9439619065339E-14,-4.7625));
#414=CARTESIAN_POINT('',(7.5676353129732,5.29090660172926E-14,-4.7625));
#415=CARTESIAN_POINT('',(1.41893162118249,5.72458747072346E-14,-4.7625));
#416=CARTESIAN_POINT('',(1.41893162118249,1.19062500000006,-4.7625));
#417=CARTESIAN_POINT('',(0.246394890252326,1.39737486153474,-4.7625));
#418=CARTESIAN_POINT('',(1.3141060813457,7.45266592818502,-4.7625));
#419=CARTESIAN_POINT('',(2.06586892243778,11.7161248615347,-4.7625));
#420=CARTESIAN_POINT('',(3.23840565336794,11.509375,-4.7625));
#421=CARTESIAN_POINT('',(7.52141400043606,5.82168798019793,-4.7625));
#422=CARTESIAN_POINT('',(7.56763531297323,12.7,-5.38749756651153E-15));
#423=CARTESIAN_POINT('',(13.7163390047639,12.7,-4.75227959205463E-15));
#424=CARTESIAN_POINT('',(3.23840565336794,12.7,-5.83474704106416E-15));
#425=CARTESIAN_POINT('',(13.7163390047639,12.7,-4.33680868994202E-15));
#426=CARTESIAN_POINT('',(3.23840565336794,12.7,-5.20417042793042E-15));
#427=CARTESIAN_POINT('',(7.5676353129732,12.7,-5.38749756651153E-15));
#428=CARTESIAN_POINT('',(0.246394890252325,1.39737486153474,-1.73472347597681E-15));
#429=CARTESIAN_POINT('',(0.246394890252325,1.39737486153474,-1.77573160499662E-15));
#430=CARTESIAN_POINT('',(1.3141060813457,7.452665928185,-4.00561136949636E-15));
#431=CARTESIAN_POINT('',(2.06586892243778,11.7161248615347,-5.57564337912381E-15));
#432=CARTESIAN_POINT('',(2.06586892243778,11.7161248615347,-5.20417042793042E-15));
#433=CARTESIAN_POINT('',(1.3141060813457,7.45266592818502,-4.00561136949636E-15));
#434=CARTESIAN_POINT('',(11.8968649725785,5.20417042793042E-14,-2.88889491658085E-31));
#435=CARTESIAN_POINT('',(11.8968649725785,5.20417042793042E-14,-3.20877546893953E-17));
#436=CARTESIAN_POINT('',(7.56763531297322,5.46437894932694E-14,-4.79337229242022E-16));
#437=CARTESIAN_POINT('',(1.41893162118248,5.8113236445223E-14,-1.11455520369893E-15));
#438=CARTESIAN_POINT('',(1.41893162118248,5.8113236445223E-14,-8.67361737988404E-16));
#439=CARTESIAN_POINT('',(7.5676353129732,5.46437894932694E-14,-4.79337229242026E-16));
#440=CARTESIAN_POINT('',(14.8888757356941,11.3026251384653,-3.46944695195361E-15));
#441=CARTESIAN_POINT('',(14.8888757356941,11.3026251384653,-4.09110319075694E-15));
#442=CARTESIAN_POINT('',(13.8211645446007,5.24733407181502,-1.86122342625719E-15));
#443=CARTESIAN_POINT('',(13.0694017035086,0.983875138465363,-2.9119141662974E-16));
#444=CARTESIAN_POINT('',(13.0694017035086,0.983875138465363,-3.85185988877447E-31));
#445=CARTESIAN_POINT('',(13.8211645446007,5.24733407181504,-1.8612234262572E-15));
#446=CARTESIAN_POINT('',(7.56763531297323,6.35,0.0));
#447=CARTESIAN_POINT('',(5.59277273861251,4.6928935422281,0.0));
#448=CARTESIAN_POINT('',(13.7163390047639,11.509375,-4.29213956043561E-15));
#449=CARTESIAN_POINT('',(3.23840565336794,11.509375,-5.37460700944514E-15));
#450=CARTESIAN_POINT('',(1.41893162118249,1.19062500000006,-1.57469523531795E-15));
#451=CARTESIAN_POINT('',(11.8968649725785,1.19062500000005,-4.92227786308413E-16));
#452=CARTESIAN_POINT('',(7.56763531297323,6.35,-2.93341739787677E-15));
#453=CARTESIAN_POINT('',(13.7163390047639,11.509375,-4.33680868994202E-15));
#454=CARTESIAN_POINT('',(11.8968649725785,1.19062500000005,0.0));
#455=CARTESIAN_POINT('',(1.41893162118249,1.19062500000006,-8.67361737988404E-16));
#456=CARTESIAN_POINT('',(3.23840565336794,11.509375,-5.20417042793042E-15));
#457=CARTESIAN_POINT('',(7.56763531297323,6.35,-33.3676978394524));
#458=MECHANICAL_DESIGN_GEOMETRIC_PRESENTATION_REPRESENTATION('',(#232,#233,#234,
     #235),#459);
#459=(GEOMETRIC_REPRESENTATION_CONTEXT(3)GLOBAL_UNCERTAINTY_ASSIGNED_CONTEXT((#460))
     GLOBAL_UNIT_ASSIGNED_CONTEXT((#466,#462,#461))REPRESENTATION_CONTEXT('CNGA120412',
     'TOP_LEVEL_ASSEMBLY_PART'));
#460=UNCERTAINTY_MEASURE_WITH_UNIT(LENGTH_MEASURE(2.0E-5),#466,'DISTANCE_ACCURACY_VALUE',
     'Maximum Tolerance applied to model');
#461=(NAMED_UNIT(*)SI_UNIT($,.STERADIAN.)SOLID_ANGLE_UNIT());
#462=(CONVERSION_BASED_UNIT('DEGREE',#464)NAMED_UNIT(#463)PLANE_ANGLE_UNIT());
#463=DIMENSIONAL_EXPONENTS(0.0,0.0,0.0,0.0,0.0,0.0,0.0);
#464=PLANE_ANGLE_MEASURE_WITH_UNIT(PLANE_ANGLE_MEASURE(0.0174532925),#465);
#465=(NAMED_UNIT(*)PLANE_ANGLE_UNIT()SI_UNIT($,.RADIAN.));
#466=(LENGTH_UNIT()NAMED_UNIT(*)SI_UNIT(.MILLI.,.METRE.));
#467=CONSTRUCTIVE_GEOMETRY_REPRESENTATION('supplemental geometry',(#249,#250),#459);
#468=CONSTRUCTIVE_GEOMETRY_REPRESENTATION_RELATIONSHIP('supplemental geometry','contains PCS and MCS coordinate systems',
     #24,#467);
ENDSEC;
END-ISO-10303-21;
