ISO-10303-21;
HEADER;
FILE_DESCRIPTION(
/* description */ (''),
/* implementation_level */ '2;1');
FILE_NAME(
/* name */ 'RCMT190600.stp',
/* time_stamp */ '2017-03-21T10:54:12',
/* author */ ('Sandvik Coromant R&D'),
/* organization */ ('Sandvik Machining Solutions'),
/* preprocessor_version */ 'ST-DEVELOPER v15',
/* originating_system */ 'SIEMENS PLM Software NX v8.5.3.3(64 bits)',
/* authorization */ '');
FILE_SCHEMA(('AUTOMOTIVE_DESIGN'));
ENDSEC;
DATA;
#10=GEOMETRICALLY_BOUNDED_WIREFRAME_SHAPE_REPRESENTATION('IsoTurningInsert-None',
     (#25),#284);
#11=SHAPE_REPRESENTATION_RELATIONSHIP('None','relationship between IsoTurningInsert-None and IsoTurningInsert-None',
     #24,#13);
#12=SHAPE_REPRESENTATION_RELATIONSHIP('None','relationship between IsoTurningInsert-None and IsoTurningInsert-None',
     #24,#10);
#13=ADVANCED_BREP_SHAPE_REPRESENTATION('IsoTurningInsert-None',(#31),#284);
#14=SHAPE_DEFINITION_REPRESENTATION(#15,#24);
#15=PRODUCT_DEFINITION_SHAPE('','',#16);
#16=PRODUCT_DEFINITION(' ','',#18,#17);
#17=PRODUCT_DEFINITION_CONTEXT('part definition',#23,'design');
#18=PRODUCT_DEFINITION_FORMATION_WITH_SPECIFIED_SOURCE(' ',' ',#20,.NOT_KNOWN.);
#19=PRODUCT_RELATED_PRODUCT_CATEGORY('part','',(#20));
#20=PRODUCT('IsoTurningInsert','IsoTurningInsert',' ',(#21));
#21=PRODUCT_CONTEXT(' ',#23,'mechanical');
#22=APPLICATION_PROTOCOL_DEFINITION('international standard','automotive_design',
     2010,#23);
#23=APPLICATION_CONTEXT('core data for automotive mechanical design processes');
#24=SHAPE_REPRESENTATION('IsoTurningInsert-None',(#137),#284);
#25=GEOMETRIC_CURVE_SET('geometric curve set',(#117));
#26=SURFACE_STYLE_USAGE(.BOTH.,#27);
#27=SURFACE_SIDE_STYLE('',(#28));
#28=SURFACE_STYLE_FILL_AREA(#29);
#29=FILL_AREA_STYLE('',(#30));
#30=FILL_AREA_STYLE_COLOUR('',#136);
#31=MANIFOLD_SOLID_BREP('CUT',#32);
#32=CLOSED_SHELL('',(#38,#39,#40,#41,#42,#43,#44));
#33=CYLINDRICAL_SURFACE('',#152,3.25);
#34=TOROIDAL_SURFACE('',#151,9.25000000000001,6.0);
#35=TOROIDAL_SURFACE('',#153,4.55516766976423,0.2);
#36=CONICAL_SURFACE('',#146,9.52499999999998,6.99999999999999);
#37=CONICAL_SURFACE('',#148,4.74999999999995,4.00000000000338);
#38=ADVANCED_FACE('',(#47,#48),#45,.F.);
#39=ADVANCED_FACE('',(#49,#50),#46,.F.);
#40=ADVANCED_FACE('',(#51,#52),#36,.T.);
#41=ADVANCED_FACE('',(#53,#54),#37,.F.);
#42=ADVANCED_FACE('',(#55,#56),#34,.T.);
#43=ADVANCED_FACE('',(#57,#58),#33,.F.);
#44=ADVANCED_FACE('',(#59,#60),#35,.F.);
#45=PLANE('',#142);
#46=PLANE('',#145);
#47=FACE_BOUND('',#61,.T.);
#48=FACE_BOUND('',#62,.T.);
#49=FACE_BOUND('',#63,.T.);
#50=FACE_BOUND('',#64,.T.);
#51=FACE_BOUND('',#65,.T.);
#52=FACE_BOUND('',#66,.T.);
#53=FACE_BOUND('',#67,.T.);
#54=FACE_BOUND('',#68,.T.);
#55=FACE_BOUND('',#69,.T.);
#56=FACE_BOUND('',#70,.T.);
#57=FACE_BOUND('',#71,.T.);
#58=FACE_BOUND('',#72,.T.);
#59=FACE_BOUND('',#73,.T.);
#60=FACE_BOUND('',#74,.T.);
#61=EDGE_LOOP('',(#75));
#62=EDGE_LOOP('',(#76));
#63=EDGE_LOOP('',(#77));
#64=EDGE_LOOP('',(#78));
#65=EDGE_LOOP('',(#79));
#66=EDGE_LOOP('',(#80));
#67=EDGE_LOOP('',(#81));
#68=EDGE_LOOP('',(#82));
#69=EDGE_LOOP('',(#83));
#70=EDGE_LOOP('',(#84));
#71=EDGE_LOOP('',(#85));
#72=EDGE_LOOP('',(#86));
#73=EDGE_LOOP('',(#87));
#74=EDGE_LOOP('',(#88));
#75=ORIENTED_EDGE('',*,*,#96,.F.);
#76=ORIENTED_EDGE('',*,*,#97,.F.);
#77=ORIENTED_EDGE('',*,*,#98,.T.);
#78=ORIENTED_EDGE('',*,*,#99,.F.);
#79=ORIENTED_EDGE('',*,*,#99,.T.);
#80=ORIENTED_EDGE('',*,*,#96,.T.);
#81=ORIENTED_EDGE('',*,*,#100,.T.);
#82=ORIENTED_EDGE('',*,*,#97,.T.);
#83=ORIENTED_EDGE('',*,*,#101,.T.);
#84=ORIENTED_EDGE('',*,*,#102,.T.);
#85=ORIENTED_EDGE('',*,*,#102,.F.);
#86=ORIENTED_EDGE('',*,*,#98,.F.);
#87=ORIENTED_EDGE('',*,*,#101,.F.);
#88=ORIENTED_EDGE('',*,*,#100,.F.);
#89=VERTEX_POINT('',#263);
#90=VERTEX_POINT('',#265);
#91=VERTEX_POINT('',#268);
#92=VERTEX_POINT('',#270);
#93=VERTEX_POINT('',#274);
#94=VERTEX_POINT('',#277);
#95=VERTEX_POINT('',#279);
#96=EDGE_CURVE('',#89,#89,#103,.T.);
#97=EDGE_CURVE('',#90,#90,#104,.T.);
#98=EDGE_CURVE('',#91,#91,#105,.T.);
#99=EDGE_CURVE('',#92,#92,#106,.T.);
#100=EDGE_CURVE('',#93,#93,#107,.T.);
#101=EDGE_CURVE('',#94,#94,#108,.T.);
#102=EDGE_CURVE('',#95,#95,#109,.T.);
#103=CIRCLE('',#140,9.52499999999998);
#104=CIRCLE('',#141,4.81293413074916);
#105=CIRCLE('',#143,3.25);
#106=CIRCLE('',#144,8.74531803826654);
#107=CIRCLE('',#147,4.75468047981619);
#108=CIRCLE('',#149,4.70661387396539);
#109=CIRCLE('',#150,3.25);
#110=CURVE_STYLE('',#114,POSITIVE_LENGTH_MEASURE(0.18),#113);
#111=CURVE_STYLE('',#115,POSITIVE_LENGTH_MEASURE(0.18),#135);
#112=CURVE_STYLE('',#116,POSITIVE_LENGTH_MEASURE(0.18),#135);
#113=DRAUGHTING_PRE_DEFINED_COLOUR('blue');
#114=DRAUGHTING_PRE_DEFINED_CURVE_FONT('continuous');
#115=DRAUGHTING_PRE_DEFINED_CURVE_FONT('continuous');
#116=DRAUGHTING_PRE_DEFINED_CURVE_FONT('continuous');
#117=B_SPLINE_CURVE_WITH_KNOTS('CUTTING EDGE LINE',5,(#191,#192,#193,#194,#195,#196,
     #197,#198,#199,#200,#201,#202,#203,#204,#205,#206,#207,#208,#209,#210,#211,
     #212,#213,#214,#215,#216,#217,#218,#219,#220,#221,#222,#223,#224,#225,#226,
     #227,#228,#229,#230,#231,#232,#233,#234,#235,#236,#237,#238,#239,#240,#241,
     #242,#243,#244,#245,#246,#247,#248,#249,#250,#251,#252,#253,#254,#255,#256,
     #257,#258,#259),.UNSPECIFIED.,.T.,.F.,(1,1,1,1,1,1,1,1,1,1,1,1,1,1,1,1,1,1,
     1,1,1,1,1,1,1,1,1,1,1,1,1,1,1,1,1,1,1,1,1,1,1,1,1,1,1,1,1,1,1,1,1,1,1,1,1,1,
     1,1,1,1,1,1,1,1,1,1,1,1,1,1,1,1,1,1,1),(-0.078125,-0.0625,-0.046875,-0.03125,
     -0.015625,0.0,0.015625,0.03125,0.046875,0.0625,0.078125,0.09375,0.109375,0.125,
     0.140625,0.15625,0.171875,0.1875,0.203125,0.21875,0.234375,0.25,0.265625,0.28125,
     0.296875,0.3125,0.328125,0.34375,0.359375,0.375,0.390625,0.40625,0.421875,0.4375,
     0.453125,0.46875,0.484375,0.5,0.515625,0.53125,0.546875,0.5625,0.578125,0.59375,
     0.609375,0.625,0.640625,0.65625,0.671875,0.6875,0.703125,0.71875,0.734375,0.75,
     0.765625,0.78125,0.796875,0.8125,0.828125,0.84375,0.859375,0.875,0.890625,0.90625,
     0.921875,0.9375,0.953125,0.96875,0.984375,1.0,1.015625,1.03125,1.046875,1.0625,
     1.078125),.UNSPECIFIED.);
#118=PRESENTATION_LAYER_ASSIGNMENT('1','Layer 1',(#117,#138,#139,#31));
#121=STYLED_ITEM('',(#127),#117);
#122=STYLED_ITEM('',(#128),#138);
#123=STYLED_ITEM('',(#129),#139);
#124=STYLED_ITEM('',(#130),#31);
#125=PRESENTATION_STYLE_ASSIGNMENT((#131));
#126=PRESENTATION_STYLE_ASSIGNMENT((#132));
#127=PRESENTATION_STYLE_ASSIGNMENT((#110));
#128=PRESENTATION_STYLE_ASSIGNMENT((#111));
#129=PRESENTATION_STYLE_ASSIGNMENT((#112));
#130=PRESENTATION_STYLE_ASSIGNMENT((#26));
#131=POINT_STYLE('',#133,POSITIVE_LENGTH_MEASURE(3.0),#135);
#132=POINT_STYLE('',#134,POSITIVE_LENGTH_MEASURE(3.0),#135);
#133=PRE_DEFINED_POINT_MARKER_SYMBOL('plus');
#134=PRE_DEFINED_POINT_MARKER_SYMBOL('plus');
#135=COLOUR_RGB('Medium Maroon',0.6,0.4,0.4);
#136=COLOUR_RGB('IsoInsertColor',0.8,0.8,0.8);
#137=AXIS2_PLACEMENT_3D('',#188,#154,#155);
#138=AXIS2_PLACEMENT_3D('PCS',#260,#156,#157);
#139=AXIS2_PLACEMENT_3D('MCS',#261,#158,#159);
#140=AXIS2_PLACEMENT_3D('',#262,#160,#161);
#141=AXIS2_PLACEMENT_3D('',#264,#162,#163);
#142=AXIS2_PLACEMENT_3D('',#266,#164,#165);
#143=AXIS2_PLACEMENT_3D('',#267,#166,#167);
#144=AXIS2_PLACEMENT_3D('',#269,#168,#169);
#145=AXIS2_PLACEMENT_3D('',#271,#170,#171);
#146=AXIS2_PLACEMENT_3D('',#272,#172,#173);
#147=AXIS2_PLACEMENT_3D('',#273,#174,#175);
#148=AXIS2_PLACEMENT_3D('',#275,#176,#177);
#149=AXIS2_PLACEMENT_3D('',#276,#178,#179);
#150=AXIS2_PLACEMENT_3D('',#278,#180,#181);
#151=AXIS2_PLACEMENT_3D('',#280,#182,#183);
#152=AXIS2_PLACEMENT_3D('',#281,#184,#185);
#153=AXIS2_PLACEMENT_3D('',#282,#186,#187);
#154=DIRECTION('',(0.0,0.0,1.0));
#155=DIRECTION('',(1.0,0.0,0.0));
#156=DIRECTION('',(0.0,0.0,1.0));
#157=DIRECTION('',(1.0,0.0,0.0));
#158=DIRECTION('',(0.0,0.0,1.0));
#159=DIRECTION('',(1.0,0.0,0.0));
#160=DIRECTION('',(0.0,0.0,-1.0));
#161=DIRECTION('',(-0.882015164970351,-0.471221019015838,0.0));
#162=DIRECTION('',(0.0,0.0,1.0));
#163=DIRECTION('',(-0.707106781186547,-0.707106781186548,0.0));
#164=DIRECTION('',(0.0,0.0,-1.0));
#165=DIRECTION('',(0.707106781186547,0.707106781186548,0.0));
#166=DIRECTION('',(0.0,0.0,1.0));
#167=DIRECTION('',(-0.707106781186547,-0.707106781186548,0.0));
#168=DIRECTION('',(0.0,0.0,1.0));
#169=DIRECTION('',(-0.707106781186547,-0.707106781186548,0.0));
#170=DIRECTION('',(0.0,0.0,1.0));
#171=DIRECTION('',(-0.707106781186547,-0.707106781186548,0.0));
#172=DIRECTION('',(0.0,0.0,1.0));
#173=DIRECTION('',(-0.707106781186547,-0.707106781186548,-3.27777422912362E-17));
#174=DIRECTION('',(0.0,0.0,-1.0));
#175=DIRECTION('',(0.707106781186547,0.707106781186548,0.0));
#176=DIRECTION('',(0.0,0.0,1.0));
#177=DIRECTION('',(-0.707106781186547,-0.707106781186548,-6.50432926409001E-16));
#178=DIRECTION('',(0.0,0.0,1.0));
#179=DIRECTION('',(0.707106781186547,0.707106781186548,0.0));
#180=DIRECTION('',(0.0,0.0,-1.0));
#181=DIRECTION('',(-0.707106781186547,-0.707106781186548,0.0));
#182=DIRECTION('',(0.0,0.0,1.0));
#183=DIRECTION('',(-0.707106781186547,-0.707106781186548,0.0));
#184=DIRECTION('',(0.0,0.0,1.0));
#185=DIRECTION('',(-0.707106781186547,-0.707106781186548,0.0));
#186=DIRECTION('',(0.0,0.0,-1.0));
#187=DIRECTION('',(0.707106781186547,0.707106781186548,0.0));
#188=CARTESIAN_POINT('',(0.0,0.0,0.0));
#191=CARTESIAN_POINT('',(2.06048446720009,3.57394236923234,0.0));
#192=CARTESIAN_POINT('',(1.53886356646971,4.29751043834189,0.0));
#193=CARTESIAN_POINT('',(1.10777388011526,5.02805479200898,0.0));
#194=CARTESIAN_POINT('',(0.740153627648519,5.79250800853361,0.0));
#195=CARTESIAN_POINT('',(0.428658837007514,6.6283370043093,0.0));
#196=CARTESIAN_POINT('',(0.192460777456882,7.51077776071321,0.0));
#197=CARTESIAN_POINT('',(0.0386269476753256,8.43672371060606,0.0));
#198=CARTESIAN_POINT('',(-0.023505332977102,9.3924779535226,0.0));
#199=CARTESIAN_POINT('',(0.0119150216639117,10.3650764112437,0.0));
#200=CARTESIAN_POINT('',(0.148396457332467,11.3392257377345,0.0));
#201=CARTESIAN_POINT('',(0.38615201650547,12.2992276601922,0.0));
#202=CARTESIAN_POINT('',(0.72218465419299,13.2293961736622,0.0));
#203=CARTESIAN_POINT('',(1.15026578483216,14.1150262534198,0.0));
#204=CARTESIAN_POINT('',(1.6614916238258,14.9431871695706,0.0));
#205=CARTESIAN_POINT('',(2.24444418801461,15.7031167064542,0.0));
#206=CARTESIAN_POINT('',(2.88705302224569,16.3872911254133,0.0));
#207=CARTESIAN_POINT('',(3.57394236931317,16.9895155328495,0.0));
#208=CARTESIAN_POINT('',(4.2975104386038,17.5111364336877,0.0));
#209=CARTESIAN_POINT('',(5.02805479195032,17.9422261198454,0.0));
#210=CARTESIAN_POINT('',(5.79250800855865,18.3098463723675,0.0));
#211=CARTESIAN_POINT('',(6.62833700430083,18.6213411629871,0.0));
#212=CARTESIAN_POINT('',(7.51077776071596,18.8575392225448,0.0));
#213=CARTESIAN_POINT('',(8.43672371060512,19.0113730523241,0.0));
#214=CARTESIAN_POINT('',(9.39247795352295,19.0735053329772,0.0));
#215=CARTESIAN_POINT('',(10.3650764112435,19.0380849783361,0.0));
#216=CARTESIAN_POINT('',(11.3392257377347,18.9016035426673,0.0));
#217=CARTESIAN_POINT('',(12.2992276601919,18.663847983495,0.0));
#218=CARTESIAN_POINT('',(13.2293961736629,18.3278153458059,0.0));
#219=CARTESIAN_POINT('',(14.1150262534181,17.8997342151706,0.0));
#220=CARTESIAN_POINT('',(14.9431871695753,17.3885083761666,0.0));
#221=CARTESIAN_POINT('',(15.7031167064406,16.8055558120074,0.0));
#222=CARTESIAN_POINT('',(16.3872911254536,16.1629469776891,0.0));
#223=CARTESIAN_POINT('',(16.9895155327778,15.4760576308012,0.0));
#224=CARTESIAN_POINT('',(17.511136433338,14.7524895619828,0.0));
#225=CARTESIAN_POINT('',(17.9422261199935,14.0219452078041,0.0));
#226=CARTESIAN_POINT('',(18.3098463723156,13.2574919915261,0.0));
#227=CARTESIAN_POINT('',(18.6213411630043,12.4216629956709,0.0));
#228=CARTESIAN_POINT('',(18.8575392225392,11.5392222392931,0.0));
#229=CARTESIAN_POINT('',(19.0113730523259,10.6132762893919,0.0));
#230=CARTESIAN_POINT('',(19.0735053329766,9.65752204647806,0.0));
#231=CARTESIAN_POINT('',(19.0380849783363,8.68492358875605,0.0));
#232=CARTESIAN_POINT('',(18.9016035426673,7.7107742622655,0.0));
#233=CARTESIAN_POINT('',(18.6638479834948,6.75077233980789,0.0));
#234=CARTESIAN_POINT('',(18.3278153458063,5.8206038263374,0.0));
#235=CARTESIAN_POINT('',(17.8997342151696,4.93497374658123,0.0));
#236=CARTESIAN_POINT('',(17.3885083761695,4.10681283042648,0.0));
#237=CARTESIAN_POINT('',(16.8055558119991,3.34688329355418,0.0));
#238=CARTESIAN_POINT('',(16.1629469777098,2.66270887455957,0.0));
#239=CARTESIAN_POINT('',(15.4760576309174,2.06048446729099,0.0));
#240=CARTESIAN_POINT('',(14.7524895615479,1.53886356640281,0.0));
#241=CARTESIAN_POINT('',(14.0219452080211,1.10777388013451,0.0));
#242=CARTESIAN_POINT('',(13.257491991442,0.740153627635202,0.0));
#243=CARTESIAN_POINT('',(12.4216629956991,0.428658837012131,0.0));
#244=CARTESIAN_POINT('',(11.539222239284,0.192460777455361,0.0));
#245=CARTESIAN_POINT('',(10.6132762893949,0.0386269476758638,0.0));
#246=CARTESIAN_POINT('',(9.65752204647705,-0.0235053329773152,0.0));
#247=CARTESIAN_POINT('',(8.68492358875636,0.0119150216640325,0.0));
#248=CARTESIAN_POINT('',(7.7107742622655,0.148396457332328,0.0));
#249=CARTESIAN_POINT('',(6.75077233980762,0.386152016505735,0.0));
#250=CARTESIAN_POINT('',(5.82060382633814,0.722184654192409,0.0));
#251=CARTESIAN_POINT('',(4.93497374657932,1.15026578483362,0.0));
#252=CARTESIAN_POINT('',(4.10681283043173,1.66149162382183,0.0));
#253=CARTESIAN_POINT('',(3.34688329353886,2.24444418802607,0.0));
#254=CARTESIAN_POINT('',(2.66270887460516,2.88705302221504,0.0));
#255=CARTESIAN_POINT('',(2.06048446720009,3.57394236923234,0.0));
#256=CARTESIAN_POINT('',(1.53886356646971,4.29751043834189,0.0));
#257=CARTESIAN_POINT('',(1.10777388011526,5.02805479200898,0.0));
#258=CARTESIAN_POINT('',(0.740153627648519,5.79250800853361,0.0));
#259=CARTESIAN_POINT('',(0.428658837007514,6.6283370043093,0.0));
#260=CARTESIAN_POINT('',(0.0,0.0,0.0));
#261=CARTESIAN_POINT('',(9.525,9.525,0.0));
#262=CARTESIAN_POINT('',(9.52499999999998,9.52499999999999,4.26685108753951E-15));
#263=CARTESIAN_POINT('',(1.12380555365741,5.03661979387414,4.26685108753951E-15));
#264=CARTESIAN_POINT('',(9.525,9.525,-3.46944695195361E-15));
#265=CARTESIAN_POINT('',(6.12174163874308,6.12174163874308,-3.46944695195361E-15));
#266=CARTESIAN_POINT('',(9.52499999999998,9.52499999999999,4.26685108753951E-15));
#267=CARTESIAN_POINT('',(9.525,9.525,-6.35));
#268=CARTESIAN_POINT('',(7.22690296114372,7.22690296114372,-6.35));
#269=CARTESIAN_POINT('',(9.52499999999998,9.52499999999999,-6.35));
#270=CARTESIAN_POINT('',(3.34112631150868,3.34112631150868,-6.35));
#271=CARTESIAN_POINT('',(9.525,8.99466991411009,-6.35));
#272=CARTESIAN_POINT('',(9.52499999999998,9.52499999999999,4.33680868994202E-15));
#273=CARTESIAN_POINT('',(9.525,9.525,-0.833066020226703));
#274=CARTESIAN_POINT('',(12.8870668096533,12.8870668096533,-0.833066020226703));
#275=CARTESIAN_POINT('',(9.525,9.525,-0.900000000000074));
#276=CARTESIAN_POINT('',(9.525,9.525,-0.949744152610727));
#277=CARTESIAN_POINT('',(12.8530785867076,12.8530785867076,-0.949744152610727));
#278=CARTESIAN_POINT('',(9.525,9.525,-4.8686269665969));
#279=CARTESIAN_POINT('',(7.22690296114372,7.22690296114372,-4.8686269665969));
#280=CARTESIAN_POINT('',(9.525,9.525,-4.8686269665969));
#281=CARTESIAN_POINT('',(9.525,9.525,-29.1328042564319));
#282=CARTESIAN_POINT('',(9.525,9.525,-0.819114725477855));
#283=MECHANICAL_DESIGN_GEOMETRIC_PRESENTATION_REPRESENTATION('',(#121,#122,#123,
     #124),#284);
#284=(GEOMETRIC_REPRESENTATION_CONTEXT(3)GLOBAL_UNCERTAINTY_ASSIGNED_CONTEXT((#285))
     GLOBAL_UNIT_ASSIGNED_CONTEXT((#291,#287,#286))REPRESENTATION_CONTEXT('RCMT190600',
     'TOP_LEVEL_ASSEMBLY_PART'));
#285=UNCERTAINTY_MEASURE_WITH_UNIT(LENGTH_MEASURE(2.0E-5),#291,'DISTANCE_ACCURACY_VALUE',
     'Maximum Tolerance applied to model');
#286=(NAMED_UNIT(*)SI_UNIT($,.STERADIAN.)SOLID_ANGLE_UNIT());
#287=(CONVERSION_BASED_UNIT('DEGREE',#289)NAMED_UNIT(#288)PLANE_ANGLE_UNIT());
#288=DIMENSIONAL_EXPONENTS(0.0,0.0,0.0,0.0,0.0,0.0,0.0);
#289=PLANE_ANGLE_MEASURE_WITH_UNIT(PLANE_ANGLE_MEASURE(0.0174532925),#290);
#290=(NAMED_UNIT(*)PLANE_ANGLE_UNIT()SI_UNIT($,.RADIAN.));
#291=(LENGTH_UNIT()NAMED_UNIT(*)SI_UNIT(.MILLI.,.METRE.));
#292=CONSTRUCTIVE_GEOMETRY_REPRESENTATION('supplemental geometry',(#138,#139),#284);
#293=CONSTRUCTIVE_GEOMETRY_REPRESENTATION_RELATIONSHIP('supplemental geometry','contains PCS and MCS coordinate systems',
     #24,#292);
ENDSEC;
END-ISO-10303-21;
