ISO-10303-21;
HEADER;
FILE_DESCRIPTION(
/* description */ (''),
/* implementation_level */ '2;1');
FILE_NAME(
/* name */ 'VNMG160412.stp',
/* time_stamp */ '2017-03-21T10:54:48',
/* author */ ('Sandvik Coromant R&D'),
/* organization */ ('Sandvik Machining Solutions'),
/* preprocessor_version */ 'ST-DEVELOPER v15',
/* originating_system */ 'SIEMENS PLM Software NX v8.5.3.3(64 bits)',
/* authorization */ '');
FILE_SCHEMA(('AUTOMOTIVE_DESIGN'));
ENDSEC;
DATA;
#10=GEOMETRICALLY_BOUNDED_WIREFRAME_SHAPE_REPRESENTATION('IsoTurningInsert-None',
     (#25),#463);
#11=SHAPE_REPRESENTATION_RELATIONSHIP('None','relationship between IsoTurningInsert-None and IsoTurningInsert-None',
     #24,#13);
#12=SHAPE_REPRESENTATION_RELATIONSHIP('None','relationship between IsoTurningInsert-None and IsoTurningInsert-None',
     #24,#10);
#13=ADVANCED_BREP_SHAPE_REPRESENTATION('IsoTurningInsert-None',(#31),#463);
#14=SHAPE_DEFINITION_REPRESENTATION(#15,#24);
#15=PRODUCT_DEFINITION_SHAPE('','',#16);
#16=PRODUCT_DEFINITION(' ','',#18,#17);
#17=PRODUCT_DEFINITION_CONTEXT('part definition',#23,'design');
#18=PRODUCT_DEFINITION_FORMATION_WITH_SPECIFIED_SOURCE(' ',' ',#20,.NOT_KNOWN.);
#19=PRODUCT_RELATED_PRODUCT_CATEGORY('part','',(#20));
#20=PRODUCT('IsoTurningInsert','IsoTurningInsert',' ',(#21));
#21=PRODUCT_CONTEXT(' ',#23,'mechanical');
#22=APPLICATION_PROTOCOL_DEFINITION('international standard','automotive_design',
     2010,#23);
#23=APPLICATION_CONTEXT('core data for automotive mechanical design processes');
#24=SHAPE_REPRESENTATION('IsoTurningInsert-None',(#248),#463);
#25=GEOMETRIC_CURVE_SET('geometric curve set',(#228));
#26=SURFACE_STYLE_USAGE(.BOTH.,#27);
#27=SURFACE_SIDE_STYLE('',(#28));
#28=SURFACE_STYLE_FILL_AREA(#29);
#29=FILL_AREA_STYLE('',(#30));
#30=FILL_AREA_STYLE_COLOUR('',#247);
#31=MANIFOLD_SOLID_BREP('CUT',#32);
#32=CLOSED_SHELL('',(#46,#47,#48,#49,#50,#51,#52,#53,#54,#55,#56));
#33=CYLINDRICAL_SURFACE('',#267,1.190625);
#34=CYLINDRICAL_SURFACE('',#268,1.190625);
#35=CYLINDRICAL_SURFACE('',#269,1.190625);
#36=CYLINDRICAL_SURFACE('',#270,1.190625);
#37=CYLINDRICAL_SURFACE('',#271,1.90499999999999);
#38=FACE_OUTER_BOUND('',#103,.T.);
#39=FACE_OUTER_BOUND('',#104,.T.);
#40=FACE_OUTER_BOUND('',#105,.T.);
#41=FACE_OUTER_BOUND('',#106,.T.);
#42=FACE_OUTER_BOUND('',#109,.T.);
#43=FACE_OUTER_BOUND('',#110,.T.);
#44=FACE_OUTER_BOUND('',#111,.T.);
#45=FACE_OUTER_BOUND('',#112,.T.);
#46=ADVANCED_FACE('',(#95,#96),#57,.F.);
#47=ADVANCED_FACE('',(#38),#58,.T.);
#48=ADVANCED_FACE('',(#39),#59,.T.);
#49=ADVANCED_FACE('',(#40),#60,.T.);
#50=ADVANCED_FACE('',(#41),#61,.T.);
#51=ADVANCED_FACE('',(#97,#98),#62,.T.);
#52=ADVANCED_FACE('',(#42),#33,.T.);
#53=ADVANCED_FACE('',(#43),#34,.T.);
#54=ADVANCED_FACE('',(#44),#35,.T.);
#55=ADVANCED_FACE('',(#45),#36,.T.);
#56=ADVANCED_FACE('',(#99,#100),#37,.F.);
#57=PLANE('',#256);
#58=PLANE('',#257);
#59=PLANE('',#258);
#60=PLANE('',#259);
#61=PLANE('',#260);
#62=PLANE('',#266);
#63=LINE('',#409,#79);
#64=LINE('',#414,#80);
#65=LINE('',#418,#81);
#66=LINE('',#422,#82);
#67=LINE('',#426,#83);
#68=LINE('',#429,#84);
#69=LINE('',#430,#85);
#70=LINE('',#432,#86);
#71=LINE('',#434,#87);
#72=LINE('',#436,#88);
#73=LINE('',#438,#89);
#74=LINE('',#440,#90);
#75=LINE('',#442,#91);
#76=LINE('',#444,#92);
#77=LINE('',#446,#93);
#78=LINE('',#448,#94);
#79=VECTOR('',#280,1.0);
#80=VECTOR('',#283,1.0);
#81=VECTOR('',#286,1.0);
#82=VECTOR('',#289,1.0);
#83=VECTOR('',#294,1.0);
#84=VECTOR('',#295,1.0);
#85=VECTOR('',#296,1.0);
#86=VECTOR('',#299,1.0);
#87=VECTOR('',#300,1.0);
#88=VECTOR('',#301,1.0);
#89=VECTOR('',#304,1.0);
#90=VECTOR('',#305,1.0);
#91=VECTOR('',#306,1.0);
#92=VECTOR('',#309,1.0);
#93=VECTOR('',#310,1.0);
#94=VECTOR('',#311,1.0);
#95=FACE_BOUND('',#101,.T.);
#96=FACE_BOUND('',#102,.T.);
#97=FACE_BOUND('',#107,.T.);
#98=FACE_BOUND('',#108,.T.);
#99=FACE_BOUND('',#113,.T.);
#100=FACE_BOUND('',#114,.T.);
#101=EDGE_LOOP('',(#115));
#102=EDGE_LOOP('',(#116,#117,#118,#119,#120,#121,#122,#123));
#103=EDGE_LOOP('',(#124,#125,#126,#127));
#104=EDGE_LOOP('',(#128,#129,#130,#131));
#105=EDGE_LOOP('',(#132,#133,#134,#135));
#106=EDGE_LOOP('',(#136,#137,#138,#139));
#107=EDGE_LOOP('',(#140));
#108=EDGE_LOOP('',(#141,#142,#143,#144,#145,#146,#147,#148));
#109=EDGE_LOOP('',(#149,#150,#151,#152));
#110=EDGE_LOOP('',(#153,#154,#155,#156));
#111=EDGE_LOOP('',(#157,#158,#159,#160));
#112=EDGE_LOOP('',(#161,#162,#163,#164));
#113=EDGE_LOOP('',(#165));
#114=EDGE_LOOP('',(#166));
#115=ORIENTED_EDGE('',*,*,#185,.T.);
#116=ORIENTED_EDGE('',*,*,#186,.T.);
#117=ORIENTED_EDGE('',*,*,#187,.T.);
#118=ORIENTED_EDGE('',*,*,#188,.T.);
#119=ORIENTED_EDGE('',*,*,#189,.T.);
#120=ORIENTED_EDGE('',*,*,#190,.T.);
#121=ORIENTED_EDGE('',*,*,#191,.T.);
#122=ORIENTED_EDGE('',*,*,#192,.T.);
#123=ORIENTED_EDGE('',*,*,#193,.T.);
#124=ORIENTED_EDGE('',*,*,#194,.F.);
#125=ORIENTED_EDGE('',*,*,#195,.T.);
#126=ORIENTED_EDGE('',*,*,#186,.F.);
#127=ORIENTED_EDGE('',*,*,#196,.T.);
#128=ORIENTED_EDGE('',*,*,#192,.F.);
#129=ORIENTED_EDGE('',*,*,#197,.T.);
#130=ORIENTED_EDGE('',*,*,#198,.F.);
#131=ORIENTED_EDGE('',*,*,#199,.T.);
#132=ORIENTED_EDGE('',*,*,#190,.F.);
#133=ORIENTED_EDGE('',*,*,#200,.T.);
#134=ORIENTED_EDGE('',*,*,#201,.F.);
#135=ORIENTED_EDGE('',*,*,#202,.T.);
#136=ORIENTED_EDGE('',*,*,#188,.F.);
#137=ORIENTED_EDGE('',*,*,#203,.T.);
#138=ORIENTED_EDGE('',*,*,#204,.F.);
#139=ORIENTED_EDGE('',*,*,#205,.T.);
#140=ORIENTED_EDGE('',*,*,#206,.F.);
#141=ORIENTED_EDGE('',*,*,#204,.T.);
#142=ORIENTED_EDGE('',*,*,#207,.T.);
#143=ORIENTED_EDGE('',*,*,#194,.T.);
#144=ORIENTED_EDGE('',*,*,#208,.T.);
#145=ORIENTED_EDGE('',*,*,#198,.T.);
#146=ORIENTED_EDGE('',*,*,#209,.T.);
#147=ORIENTED_EDGE('',*,*,#201,.T.);
#148=ORIENTED_EDGE('',*,*,#210,.T.);
#149=ORIENTED_EDGE('',*,*,#187,.F.);
#150=ORIENTED_EDGE('',*,*,#195,.F.);
#151=ORIENTED_EDGE('',*,*,#207,.F.);
#152=ORIENTED_EDGE('',*,*,#203,.F.);
#153=ORIENTED_EDGE('',*,*,#189,.F.);
#154=ORIENTED_EDGE('',*,*,#205,.F.);
#155=ORIENTED_EDGE('',*,*,#210,.F.);
#156=ORIENTED_EDGE('',*,*,#200,.F.);
#157=ORIENTED_EDGE('',*,*,#191,.F.);
#158=ORIENTED_EDGE('',*,*,#202,.F.);
#159=ORIENTED_EDGE('',*,*,#209,.F.);
#160=ORIENTED_EDGE('',*,*,#197,.F.);
#161=ORIENTED_EDGE('',*,*,#193,.F.);
#162=ORIENTED_EDGE('',*,*,#199,.F.);
#163=ORIENTED_EDGE('',*,*,#208,.F.);
#164=ORIENTED_EDGE('',*,*,#196,.F.);
#165=ORIENTED_EDGE('',*,*,#185,.F.);
#166=ORIENTED_EDGE('',*,*,#206,.T.);
#167=VERTEX_POINT('',#408);
#168=VERTEX_POINT('',#410);
#169=VERTEX_POINT('',#411);
#170=VERTEX_POINT('',#413);
#171=VERTEX_POINT('',#415);
#172=VERTEX_POINT('',#417);
#173=VERTEX_POINT('',#419);
#174=VERTEX_POINT('',#421);
#175=VERTEX_POINT('',#423);
#176=VERTEX_POINT('',#427);
#177=VERTEX_POINT('',#428);
#178=VERTEX_POINT('',#433);
#179=VERTEX_POINT('',#435);
#180=VERTEX_POINT('',#439);
#181=VERTEX_POINT('',#441);
#182=VERTEX_POINT('',#445);
#183=VERTEX_POINT('',#447);
#184=VERTEX_POINT('',#451);
#185=EDGE_CURVE('',#167,#167,#211,.T.);
#186=EDGE_CURVE('',#168,#169,#63,.T.);
#187=EDGE_CURVE('',#169,#170,#212,.T.);
#188=EDGE_CURVE('',#170,#171,#64,.T.);
#189=EDGE_CURVE('',#171,#172,#213,.T.);
#190=EDGE_CURVE('',#172,#173,#65,.T.);
#191=EDGE_CURVE('',#173,#174,#214,.T.);
#192=EDGE_CURVE('',#174,#175,#66,.T.);
#193=EDGE_CURVE('',#175,#168,#215,.T.);
#194=EDGE_CURVE('',#176,#177,#67,.T.);
#195=EDGE_CURVE('',#176,#169,#68,.T.);
#196=EDGE_CURVE('',#168,#177,#69,.T.);
#197=EDGE_CURVE('',#174,#178,#70,.T.);
#198=EDGE_CURVE('',#179,#178,#71,.T.);
#199=EDGE_CURVE('',#179,#175,#72,.T.);
#200=EDGE_CURVE('',#172,#180,#73,.T.);
#201=EDGE_CURVE('',#181,#180,#74,.T.);
#202=EDGE_CURVE('',#181,#173,#75,.T.);
#203=EDGE_CURVE('',#170,#182,#76,.T.);
#204=EDGE_CURVE('',#183,#182,#77,.T.);
#205=EDGE_CURVE('',#183,#171,#78,.T.);
#206=EDGE_CURVE('',#184,#184,#216,.T.);
#207=EDGE_CURVE('',#182,#176,#217,.T.);
#208=EDGE_CURVE('',#177,#179,#218,.T.);
#209=EDGE_CURVE('',#178,#181,#219,.T.);
#210=EDGE_CURVE('',#180,#183,#220,.T.);
#211=CIRCLE('',#251,1.90499999999999);
#212=CIRCLE('',#252,1.190625);
#213=CIRCLE('',#253,1.190625);
#214=CIRCLE('',#254,1.190625);
#215=CIRCLE('',#255,1.190625);
#216=CIRCLE('',#261,1.90499999999999);
#217=CIRCLE('',#262,1.190625);
#218=CIRCLE('',#263,1.190625);
#219=CIRCLE('',#264,1.190625);
#220=CIRCLE('',#265,1.190625);
#221=CURVE_STYLE('',#225,POSITIVE_LENGTH_MEASURE(0.18),#224);
#222=CURVE_STYLE('',#226,POSITIVE_LENGTH_MEASURE(0.18),#246);
#223=CURVE_STYLE('',#227,POSITIVE_LENGTH_MEASURE(0.18),#246);
#224=DRAUGHTING_PRE_DEFINED_COLOUR('blue');
#225=DRAUGHTING_PRE_DEFINED_CURVE_FONT('continuous');
#226=DRAUGHTING_PRE_DEFINED_CURVE_FONT('continuous');
#227=DRAUGHTING_PRE_DEFINED_CURVE_FONT('continuous');
#228=B_SPLINE_CURVE_WITH_KNOTS('CUTTING EDGE LINE',5,(#339,#340,#341,#342,#343,#344,
     #345,#346,#347,#348,#349,#350,#351,#352,#353,#354,#355,#356,#357,#358,#359,
     #360,#361,#362,#363,#364,#365,#366,#367,#368,#369,#370,#371,#372,#373,#374,
     #375,#376,#377,#378,#379,#380,#381,#382,#383,#384,#385,#386,#387,#388,#389,
     #390,#391,#392,#393,#394,#395,#396,#397,#398,#399,#400,#401,#402,#403,#404),
     .UNSPECIFIED.,.T.,.F.,(2,4,1,4,4,1,1,1,1,1,1,1,1,1,1,1,1,1,1,1,4,4,1,4,4,1,
     1,1,1,1,1,1,1,1,1,1,1,1,1,1,4,4,1,1),(-0.2173606925,0.0,0.00634653200000002,
     0.012693064,0.2300537564,0.23334035334375,0.2366269502875,0.23991354723125,
     0.243200144175,0.24648674111875,0.2497733380625,0.25305993500625,0.25634653195,
     0.25963312889375,0.2629197258375,0.26620632278125,0.269492919725,0.27277951666875,
     0.2760661136125,0.27935271055625,0.2826393075,0.5,0.506346532,0.512693064,0.7300537564,
     0.73334035334375,0.7366269502875,0.73991354723125,0.743200144175,0.74648674111875,
     0.7497733380625,0.75305993500625,0.75634653195,0.75963312889375,0.7629197258375,
     0.76620632278125,0.769492919725,0.77277951666875,0.7760661136125,0.77935271055625,
     0.7826393075,1.0,1.006346532,1.012693064),.UNSPECIFIED.);
#229=PRESENTATION_LAYER_ASSIGNMENT('1','Layer 1',(#228,#249,#250,#31));
#232=STYLED_ITEM('',(#238),#228);
#233=STYLED_ITEM('',(#239),#249);
#234=STYLED_ITEM('',(#240),#250);
#235=STYLED_ITEM('',(#241),#31);
#236=PRESENTATION_STYLE_ASSIGNMENT((#242));
#237=PRESENTATION_STYLE_ASSIGNMENT((#243));
#238=PRESENTATION_STYLE_ASSIGNMENT((#221));
#239=PRESENTATION_STYLE_ASSIGNMENT((#222));
#240=PRESENTATION_STYLE_ASSIGNMENT((#223));
#241=PRESENTATION_STYLE_ASSIGNMENT((#26));
#242=POINT_STYLE('',#244,POSITIVE_LENGTH_MEASURE(3.0),#246);
#243=POINT_STYLE('',#245,POSITIVE_LENGTH_MEASURE(3.0),#246);
#244=PRE_DEFINED_POINT_MARKER_SYMBOL('plus');
#245=PRE_DEFINED_POINT_MARKER_SYMBOL('plus');
#246=COLOUR_RGB('Medium Maroon',0.6,0.4,0.4);
#247=COLOUR_RGB('IsoInsertColor',0.8,0.8,0.8);
#248=AXIS2_PLACEMENT_3D('',#336,#272,#273);
#249=AXIS2_PLACEMENT_3D('PCS',#405,#274,#275);
#250=AXIS2_PLACEMENT_3D('MCS',#406,#276,#277);
#251=AXIS2_PLACEMENT_3D('',#407,#278,#279);
#252=AXIS2_PLACEMENT_3D('',#412,#281,#282);
#253=AXIS2_PLACEMENT_3D('',#416,#284,#285);
#254=AXIS2_PLACEMENT_3D('',#420,#287,#288);
#255=AXIS2_PLACEMENT_3D('',#424,#290,#291);
#256=AXIS2_PLACEMENT_3D('',#425,#292,#293);
#257=AXIS2_PLACEMENT_3D('',#431,#297,#298);
#258=AXIS2_PLACEMENT_3D('',#437,#302,#303);
#259=AXIS2_PLACEMENT_3D('',#443,#307,#308);
#260=AXIS2_PLACEMENT_3D('',#449,#312,#313);
#261=AXIS2_PLACEMENT_3D('',#450,#314,#315);
#262=AXIS2_PLACEMENT_3D('',#452,#316,#317);
#263=AXIS2_PLACEMENT_3D('',#453,#318,#319);
#264=AXIS2_PLACEMENT_3D('',#454,#320,#321);
#265=AXIS2_PLACEMENT_3D('',#455,#322,#323);
#266=AXIS2_PLACEMENT_3D('',#456,#324,#325);
#267=AXIS2_PLACEMENT_3D('',#457,#326,#327);
#268=AXIS2_PLACEMENT_3D('',#458,#328,#329);
#269=AXIS2_PLACEMENT_3D('',#459,#330,#331);
#270=AXIS2_PLACEMENT_3D('',#460,#332,#333);
#271=AXIS2_PLACEMENT_3D('',#461,#334,#335);
#272=DIRECTION('',(0.0,0.0,1.0));
#273=DIRECTION('',(1.0,0.0,0.0));
#274=DIRECTION('',(0.0,0.0,1.0));
#275=DIRECTION('',(1.0,0.0,0.0));
#276=DIRECTION('',(0.0,0.0,1.0));
#277=DIRECTION('',(1.0,0.0,0.0));
#278=DIRECTION('',(0.0,0.0,1.0));
#279=DIRECTION('',(-0.953716950748227,-0.300705799504273,0.0));
#280=DIRECTION('',(1.0,9.43689570931383E-16,0.0));
#281=DIRECTION('',(0.0,0.0,-1.0));
#282=DIRECTION('',(-0.953716950748227,-0.300705799504273,0.0));
#283=DIRECTION('',(-0.819152044288991,-0.573576436351047,0.0));
#284=DIRECTION('',(0.0,0.0,-1.0));
#285=DIRECTION('',(-0.953716950748227,-0.300705799504273,0.0));
#286=DIRECTION('',(-1.0,1.66533453693773E-16,0.0));
#287=DIRECTION('',(0.0,0.0,-1.0));
#288=DIRECTION('',(-0.953716950748227,-0.300705799504273,0.0));
#289=DIRECTION('',(0.819152044288992,0.573576436351046,0.0));
#290=DIRECTION('',(0.0,0.0,-1.0));
#291=DIRECTION('',(-0.953716950748227,-0.300705799504273,0.0));
#292=DIRECTION('',(0.0,0.0,1.0));
#293=DIRECTION('',(-0.953716950748227,-0.300705799504273,0.0));
#294=DIRECTION('',(-1.0,-9.43689570931383E-16,-8.02264902071657E-17));
#295=DIRECTION('',(8.02264902071663E-17,-6.05579448138538E-16,-1.0));
#296=DIRECTION('',(-8.02264902071663E-17,6.05579448138538E-16,1.0));
#297=DIRECTION('',(-9.43689570931383E-16,1.0,-6.05579448138538E-16));
#298=DIRECTION('',(-1.0,-9.43689570931383E-16,0.0));
#299=DIRECTION('',(-8.02264902071663E-17,6.05579448138538E-16,1.0));
#300=DIRECTION('',(-0.819152044288992,-0.573576436351046,2.81628408331405E-16));
#301=DIRECTION('',(8.02264902071663E-17,-6.05579448138538E-16,-1.0));
#302=DIRECTION('',(-0.573576436351046,0.819152044288992,-5.42077667276061E-16));
#303=DIRECTION('',(-0.819152044288992,-0.573576436351046,0.0));
#304=DIRECTION('',(-8.02264902071663E-17,6.05579448138538E-16,1.0));
#305=DIRECTION('',(1.0,-1.66533453693773E-16,8.02264902071664E-17));
#306=DIRECTION('',(8.02264902071663E-17,-6.05579448138538E-16,-1.0));
#307=DIRECTION('',(-1.66533453693773E-16,-1.0,6.05579448138537E-16));
#308=DIRECTION('',(1.0,-1.66533453693773E-16,0.0));
#309=DIRECTION('',(-8.02264902071663E-17,6.05579448138538E-16,1.0));
#310=DIRECTION('',(0.819152044288991,0.573576436351047,-2.81628408331405E-16));
#311=DIRECTION('',(8.02264902071663E-17,-6.05579448138538E-16,-1.0));
#312=DIRECTION('',(0.573576436351047,-0.819152044288991,5.4207766727606E-16));
#313=DIRECTION('',(0.819152044288991,0.573576436351047,0.0));
#314=DIRECTION('',(0.0,0.0,1.0));
#315=DIRECTION('',(-0.953716950748227,-0.300705799504273,0.0));
#316=DIRECTION('',(-8.02264902071663E-17,6.05579448138538E-16,1.0));
#317=DIRECTION('',(-0.300705799504272,0.953716950748227,-6.01675955593648E-16));
#318=DIRECTION('',(-8.02264902071663E-17,6.05579448138538E-16,1.0));
#319=DIRECTION('',(-0.300705799504273,0.953716950748227,-6.01675955593647E-16));
#320=DIRECTION('',(-8.02264902071663E-17,6.05579448138538E-16,1.0));
#321=DIRECTION('',(-0.300705799504273,0.953716950748227,-6.01675955593648E-16));
#322=DIRECTION('',(-8.02264902071663E-17,6.05579448138538E-16,1.0));
#323=DIRECTION('',(-0.300705799504272,0.953716950748227,-6.01675955593648E-16));
#324=DIRECTION('',(-8.02264902071663E-17,6.05579448138538E-16,1.0));
#325=DIRECTION('',(-0.300705799504273,0.953716950748227,-6.01675955593648E-16));
#326=DIRECTION('',(-8.02264902071663E-17,6.05579448138538E-16,1.0));
#327=DIRECTION('',(-0.300705799504272,0.953716950748227,-6.01675955593647E-16));
#328=DIRECTION('',(-8.02264902071663E-17,6.05579448138538E-16,1.0));
#329=DIRECTION('',(-0.300705799504272,0.953716950748227,-6.01675955593648E-16));
#330=DIRECTION('',(-8.02264902071663E-17,6.05579448138538E-16,1.0));
#331=DIRECTION('',(-0.300705799504273,0.953716950748227,-6.01675955593648E-16));
#332=DIRECTION('',(-8.02264902071663E-17,6.05579448138538E-16,1.0));
#333=DIRECTION('',(-0.300705799504273,0.953716950748227,-6.01675955593647E-16));
#334=DIRECTION('',(0.0,0.0,1.0));
#335=DIRECTION('',(-0.953716950748227,-0.300705799504273,0.0));
#336=CARTESIAN_POINT('',(0.0,0.0,0.0));
#339=CARTESIAN_POINT('',(13.7399784985383,-4.44089209850063E-15,-8.87468518373638E-32));
#340=CARTESIAN_POINT('',(16.3025336762889,-3.5527136788005E-15,7.26762693880551E-16));
#341=CARTESIAN_POINT('',(16.4457448133028,0.0107661048634151,7.31732288919962E-16));
#342=CARTESIAN_POINT('',(16.5926327119955,0.0434445572852216,7.25984159778501E-16));
#343=CARTESIAN_POINT('',(16.7316998247766,0.100927373654988,6.63253215973548E-16));
#344=CARTESIAN_POINT('',(16.8551867044874,0.174250830461308,4.68966858166345E-16));
#345=CARTESIAN_POINT('',(18.9543090169452,1.64407209726842,6.45411222600562E-17));
#346=CARTESIAN_POINT('',(20.9947754815779,3.07282209726842,-3.94430452610506E-32));
#347=CARTESIAN_POINT('',(23.0352419462107,4.50157209726842,7.88860905221012E-32));
#348=CARTESIAN_POINT('',(25.0757084108435,5.93032209726842,6.45411222600561E-17));
#349=CARTESIAN_POINT('',(27.1450101762994,7.3792627922713,3.45062457472034E-16));
#350=CARTESIAN_POINT('',(27.2011884088503,7.42177550622584,3.81383116642396E-16));
#351=CARTESIAN_POINT('',(27.2849634137484,7.49519212943405,4.16059134425372E-16));
#352=CARTESIAN_POINT('',(27.3846892107364,7.60622228100216,4.22453630760003E-16));
#353=CARTESIAN_POINT('',(27.490390181177,7.76929443496292,3.83436070068813E-16));
#354=CARTESIAN_POINT('',(27.5682459120104,7.94895728972712,3.07740564891881E-16));
#355=CARTESIAN_POINT('',(27.6158952381267,8.1395486373928,2.08564524387332E-16));
#356=CARTESIAN_POINT('',(27.6315536597936,8.33201311056963,9.71708205337672E-17));
#357=CARTESIAN_POINT('',(27.6163955145222,8.52090338442123,-1.79550379834074E-17));
#358=CARTESIAN_POINT('',(27.5747826190281,8.69438141337338,-1.26434408789007E-16));
#359=CARTESIAN_POINT('',(27.5094853141095,8.85999651680976,-2.3204305210175E-16));
#360=CARTESIAN_POINT('',(27.4134529916016,9.02375727889304,-3.3841906853507E-16));
#361=CARTESIAN_POINT('',(27.2902719340328,9.17222193371656,-4.33794821493987E-16));
#362=CARTESIAN_POINT('',(27.1419580114836,9.30112770849853,-5.09970134943386E-16));
#363=CARTESIAN_POINT('',(26.9749883515009,9.40358632958543,-5.55235091277243E-16));
#364=CARTESIAN_POINT('',(26.7951685500536,9.47657194906953,-5.56921600753043E-16));
#365=CARTESIAN_POINT('',(26.6493969093841,9.51030623971219,-5.15311830680953E-16));
#366=CARTESIAN_POINT('',(26.5388646384583,9.52239813388293,-4.50813228389284E-16));
#367=CARTESIAN_POINT('',(26.46846183345,9.525,-3.93735831768695E-16));
#368=CARTESIAN_POINT('',(23.9423108217022,9.525,-7.21018030439949E-17));
#369=CARTESIAN_POINT('',(21.4513612124586,9.525,-3.05683600773142E-31));
#370=CARTESIAN_POINT('',(18.9604116032149,9.525,2.36658271566304E-31));
#371=CARTESIAN_POINT('',(16.4694619939713,9.525,-7.21018030439949E-17));
#372=CARTESIAN_POINT('',(13.9069068162207,9.52499999999999,-5.07120193447139E-16));
#373=CARTESIAN_POINT('',(13.7636956792068,9.51423389513657,-6.90598525065294E-16));
#374=CARTESIAN_POINT('',(13.616807780514,9.48155544271477,-7.28505522329169E-16));
#375=CARTESIAN_POINT('',(13.477740667733,9.424072626345,-6.63253215973548E-16));
#376=CARTESIAN_POINT('',(13.3542537880221,9.35074916953868,-4.68966858166346E-16));
#377=CARTESIAN_POINT('',(11.2551314755644,7.88092790273157,-6.45411222600562E-17));
#378=CARTESIAN_POINT('',(9.21466501093161,6.45217790273158,2.95822839457879E-32));
#379=CARTESIAN_POINT('',(7.17419854629883,5.02342790273158,-2.36658271566304E-31));
#380=CARTESIAN_POINT('',(5.13373208166603,3.59467790273158,-6.45411222600564E-17));
#381=CARTESIAN_POINT('',(3.06443031621014,2.1457372077287,-3.45062457472034E-16));
#382=CARTESIAN_POINT('',(3.00825208365922,2.10322449377416,-3.81383116642397E-16));
#383=CARTESIAN_POINT('',(2.92447707876121,2.02980787056596,-4.16059134425373E-16));
#384=CARTESIAN_POINT('',(2.82475128177317,1.91877771899784,-4.22453630760002E-16));
#385=CARTESIAN_POINT('',(2.71905031133253,1.75570556503707,-3.83436070068816E-16));
#386=CARTESIAN_POINT('',(2.64119458049915,1.57604271027289,-3.07740564891876E-16));
#387=CARTESIAN_POINT('',(2.59354525438282,1.3854513626072,-2.08564524387335E-16));
#388=CARTESIAN_POINT('',(2.57788683271592,1.19298688943038,-9.71708205337664E-17));
#389=CARTESIAN_POINT('',(2.59304497798739,1.00409661557878,1.79550379834074E-17));
#390=CARTESIAN_POINT('',(2.63465787348143,0.830618586626618,1.26434408789007E-16));
#391=CARTESIAN_POINT('',(2.69995517840008,0.66500348319025,2.3204305210175E-16));
#392=CARTESIAN_POINT('',(2.79598750090796,0.501242721106957,3.38419068535068E-16));
#393=CARTESIAN_POINT('',(2.91916855847674,0.352778066283443,4.33794821493992E-16));
#394=CARTESIAN_POINT('',(3.06748248102595,0.223872291501476,5.09970134943375E-16));
#395=CARTESIAN_POINT('',(3.2344521410087,0.121413670414574,5.55235091277249E-16));
#396=CARTESIAN_POINT('',(3.41427194245597,0.0484280509304744,5.56921600753039E-16));
#397=CARTESIAN_POINT('',(3.56004358312545,0.0146937602878037,5.15311830680954E-16));
#398=CARTESIAN_POINT('',(3.67057585405127,0.00260186611707525,4.50813228389284E-16));
#399=CARTESIAN_POINT('',(3.74097865905956,-3.5527136788005E-15,3.93735831768695E-16));
#400=CARTESIAN_POINT('',(6.26712967080735,-1.77635683940025E-15,7.21018030439949E-17));
#401=CARTESIAN_POINT('',(8.75807928005098,-2.66453525910038E-15,2.26797510251041E-31));
#402=CARTESIAN_POINT('',(11.2490288892946,-4.44089209850063E-15,-1.28189897098414E-31));
#403=CARTESIAN_POINT('',(13.7399784985383,-4.44089209850063E-15,-8.87468518373638E-32));
#404=CARTESIAN_POINT('',(16.3025336762889,-3.5527136788005E-15,7.26762693880551E-16));
#405=CARTESIAN_POINT('',(0.0,0.0,0.0));
#406=CARTESIAN_POINT('',(15.1047202462548,4.7625,0.0));
#407=CARTESIAN_POINT('',(15.1047202462548,4.7625,-4.7625));
#408=CARTESIAN_POINT('',(13.2878894550794,4.18965545194436,-4.7625));
#409=CARTESIAN_POINT('',(15.1047202462548,9.52499999999999,-4.7625));
#410=CARTESIAN_POINT('',(13.9785123847277,9.52499999999999,-4.7625));
#411=CARTESIAN_POINT('',(26.4332604309458,9.525,-4.7625));
#412=CARTESIAN_POINT('',(26.4332604309458,8.33437499999999,-4.7625));
#413=CARTESIAN_POINT('',(27.1161748754763,7.35907209726841,-4.7625));
#414=CARTESIAN_POINT('',(17.8363780243766,0.861288389073675,-4.7625));
#415=CARTESIAN_POINT('',(16.9138425523124,0.215322097268415,-4.7625));
#416=CARTESIAN_POINT('',(16.2309281077819,1.190625,-4.7625));
#417=CARTESIAN_POINT('',(16.2309281077819,-6.07153216591882E-15,-4.7625));
#418=CARTESIAN_POINT('',(15.1047202462548,-6.07153216591882E-15,-4.7625));
#419=CARTESIAN_POINT('',(3.77618006156371,-3.46944695195361E-15,-4.7625));
#420=CARTESIAN_POINT('',(3.77618006156371,1.190625,-4.7625));
#421=CARTESIAN_POINT('',(3.09326561703325,2.16592790273158,-4.7625));
#422=CARTESIAN_POINT('',(12.3730624681329,8.66371161092631,-4.7625));
#423=CARTESIAN_POINT('',(13.2955979401972,9.30967790273157,-4.7625));
#424=CARTESIAN_POINT('',(13.9785123847277,8.33437499999998,-4.7625));
#425=CARTESIAN_POINT('',(14.8598410645383,4.29209146865531,-4.7625));
#426=CARTESIAN_POINT('',(15.1047202462548,9.52499999999999,-5.81748951963656E-15));
#427=CARTESIAN_POINT('',(26.4332604309458,9.525,-4.90864050144796E-15));
#428=CARTESIAN_POINT('',(13.9785123847277,9.52499999999999,-5.9078412236106E-15));
#429=CARTESIAN_POINT('',(26.4332604309458,9.525,-4.33680868994202E-15));
#430=CARTESIAN_POINT('',(13.9785123847277,9.52499999999999,-5.20417042793042E-15));
#431=CARTESIAN_POINT('',(15.1047202462548,9.52499999999999,-5.81748951963656E-15));
#432=CARTESIAN_POINT('',(3.09326561703325,2.16592790273159,-1.73472347597681E-15));
#433=CARTESIAN_POINT('',(3.09326561703325,2.16592790273159,-2.32462354734611E-15));
#434=CARTESIAN_POINT('',(12.3730624681329,8.66371161092632,-5.51506228827902E-15));
#435=CARTESIAN_POINT('',(13.2955979401972,9.30967790273157,-5.83223441577121E-15));
#436=CARTESIAN_POINT('',(13.2955979401972,9.30967790273157,-5.20417042793042E-15));
#437=CARTESIAN_POINT('',(12.3730624681329,8.66371161092631,-5.51506228827901E-15));
#438=CARTESIAN_POINT('',(16.2309281077819,-3.46944695195361E-15,-3.85185988877447E-31));
#439=CARTESIAN_POINT('',(16.2309281077819,-3.46944695195361E-15,4.10064278570458E-17));
#440=CARTESIAN_POINT('',(15.1047202462548,-3.46944695195361E-15,-4.93452761169929E-17));
#441=CARTESIAN_POINT('',(3.77618006156371,-8.67361737988404E-16,-9.58194294305602E-16));
#442=CARTESIAN_POINT('',(3.77618006156371,-8.67361737988404E-16,-8.67361737988405E-16));
#443=CARTESIAN_POINT('',(15.1047202462548,-3.46944695195361E-15,-4.93452761169941E-17));
#444=CARTESIAN_POINT('',(27.1161748754763,7.35907209726842,-3.46944695195362E-15));
#445=CARTESIAN_POINT('',(27.1161748754763,7.35907209726842,-3.54221124840745E-15));
#446=CARTESIAN_POINT('',(17.8363780243767,0.861288389073683,-3.51772507474542E-16));
#447=CARTESIAN_POINT('',(16.9138425523124,0.215322097268418,-3.46003799823414E-17));
#448=CARTESIAN_POINT('',(16.9138425523124,0.215322097268418,-9.62964972193618E-32));
#449=CARTESIAN_POINT('',(17.8363780243766,0.861288389073677,-3.5177250747454E-16));
#450=CARTESIAN_POINT('',(15.1047202462548,4.7625,0.0));
#451=CARTESIAN_POINT('',(13.2878894550794,4.18965545194436,0.0));
#452=CARTESIAN_POINT('',(26.4332604309458,8.334375,-4.18762247100801E-15));
#453=CARTESIAN_POINT('',(13.9785123847277,8.33437499999999,-5.18682319317065E-15));
#454=CARTESIAN_POINT('',(3.77618006156371,1.190625,-1.67921232474555E-15));
#455=CARTESIAN_POINT('',(16.2309281077819,1.190625,-6.80011602582902E-16));
#456=CARTESIAN_POINT('',(15.1047202462548,4.7625,-2.93341739787678E-15));
#457=CARTESIAN_POINT('',(26.4332604309458,8.334375,-3.46944695195361E-15));
#458=CARTESIAN_POINT('',(16.2309281077819,1.190625,0.0));
#459=CARTESIAN_POINT('',(3.77618006156371,1.190625,-1.73472347597681E-15));
#460=CARTESIAN_POINT('',(13.9785123847277,8.33437499999999,-5.20417042793042E-15));
#461=CARTESIAN_POINT('',(15.1047202462548,4.7625,-33.3676978394524));
#462=MECHANICAL_DESIGN_GEOMETRIC_PRESENTATION_REPRESENTATION('',(#232,#233,#234,
     #235),#463);
#463=(GEOMETRIC_REPRESENTATION_CONTEXT(3)GLOBAL_UNCERTAINTY_ASSIGNED_CONTEXT((#464))
     GLOBAL_UNIT_ASSIGNED_CONTEXT((#470,#466,#465))REPRESENTATION_CONTEXT('VNMG160412',
     'TOP_LEVEL_ASSEMBLY_PART'));
#464=UNCERTAINTY_MEASURE_WITH_UNIT(LENGTH_MEASURE(2.0E-5),#470,'DISTANCE_ACCURACY_VALUE',
     'Maximum Tolerance applied to model');
#465=(NAMED_UNIT(*)SI_UNIT($,.STERADIAN.)SOLID_ANGLE_UNIT());
#466=(CONVERSION_BASED_UNIT('DEGREE',#468)NAMED_UNIT(#467)PLANE_ANGLE_UNIT());
#467=DIMENSIONAL_EXPONENTS(0.0,0.0,0.0,0.0,0.0,0.0,0.0);
#468=PLANE_ANGLE_MEASURE_WITH_UNIT(PLANE_ANGLE_MEASURE(0.0174532925),#469);
#469=(NAMED_UNIT(*)PLANE_ANGLE_UNIT()SI_UNIT($,.RADIAN.));
#470=(LENGTH_UNIT()NAMED_UNIT(*)SI_UNIT(.MILLI.,.METRE.));
#471=CONSTRUCTIVE_GEOMETRY_REPRESENTATION('supplemental geometry',(#249,#250),#463);
#472=CONSTRUCTIVE_GEOMETRY_REPRESENTATION_RELATIONSHIP('supplemental geometry','contains PCS and MCS coordinate systems',
     #24,#471);
ENDSEC;
END-ISO-10303-21;
