ISO-10303-21;
HEADER;
FILE_DESCRIPTION(
/* description */ (''),
/* implementation_level */ '2;1');
FILE_NAME(
/* name */ 'TPMT090208.stp',
/* time_stamp */ '2017-03-21T10:54:42',
/* author */ ('Sandvik Coromant R&D'),
/* organization */ ('Sandvik Machining Solutions'),
/* preprocessor_version */ 'ST-DEVELOPER v15',
/* originating_system */ 'SIEMENS PLM Software NX v8.5.3.3(64 bits)',
/* authorization */ '');
FILE_SCHEMA(('AUTOMOTIVE_DESIGN'));
ENDSEC;
DATA;
#10=GEOMETRICALLY_BOUNDED_WIREFRAME_SHAPE_REPRESENTATION('IsoTurningInsert-None',
     (#25),#409);
#11=SHAPE_REPRESENTATION_RELATIONSHIP('None','relationship between IsoTurningInsert-None and IsoTurningInsert-None',
     #24,#13);
#12=SHAPE_REPRESENTATION_RELATIONSHIP('None','relationship between IsoTurningInsert-None and IsoTurningInsert-None',
     #24,#10);
#13=ADVANCED_BREP_SHAPE_REPRESENTATION('IsoTurningInsert-None',(#31),#409);
#14=SHAPE_DEFINITION_REPRESENTATION(#15,#24);
#15=PRODUCT_DEFINITION_SHAPE('','',#16);
#16=PRODUCT_DEFINITION(' ','',#18,#17);
#17=PRODUCT_DEFINITION_CONTEXT('part definition',#23,'design');
#18=PRODUCT_DEFINITION_FORMATION_WITH_SPECIFIED_SOURCE(' ',' ',#20,.NOT_KNOWN.);
#19=PRODUCT_RELATED_PRODUCT_CATEGORY('part','',(#20));
#20=PRODUCT('IsoTurningInsert','IsoTurningInsert',' ',(#21));
#21=PRODUCT_CONTEXT(' ',#23,'mechanical');
#22=APPLICATION_PROTOCOL_DEFINITION('international standard','automotive_design',
     2010,#23);
#23=APPLICATION_CONTEXT('core data for automotive mechanical design processes');
#24=SHAPE_REPRESENTATION('IsoTurningInsert-None',(#242),#409);
#25=GEOMETRIC_CURVE_SET('geometric curve set',(#221));
#26=SURFACE_STYLE_USAGE(.BOTH.,#27);
#27=SURFACE_SIDE_STYLE('',(#28));
#28=SURFACE_STYLE_FILL_AREA(#29);
#29=FILL_AREA_STYLE('',(#30));
#30=FILL_AREA_STYLE_COLOUR('',#241);
#31=MANIFOLD_SOLID_BREP('CUT',#32);
#32=CLOSED_SHELL('',(#46,#47,#48,#49,#50,#51,#52,#53,#54,#55,#56,#57));
#33=CYLINDRICAL_SURFACE('',#266,1.25);
#34=TOROIDAL_SURFACE('',#265,3.45,2.2);
#35=TOROIDAL_SURFACE('',#267,1.16039145188622,0.5);
#36=CONICAL_SURFACE('',#258,0.793750000000002,11.0);
#37=CONICAL_SURFACE('',#259,0.793750000000002,11.0);
#38=CONICAL_SURFACE('',#260,0.793750000000002,11.0);
#39=CONICAL_SURFACE('',#262,1.6500000000044,3.9999999996414);
#40=FACE_OUTER_BOUND('',#101,.T.);
#41=FACE_OUTER_BOUND('',#102,.T.);
#42=FACE_OUTER_BOUND('',#103,.T.);
#43=FACE_OUTER_BOUND('',#106,.T.);
#44=FACE_OUTER_BOUND('',#107,.T.);
#45=FACE_OUTER_BOUND('',#108,.T.);
#46=ADVANCED_FACE('',(#87,#88),#58,.F.);
#47=ADVANCED_FACE('',(#40),#59,.F.);
#48=ADVANCED_FACE('',(#41),#60,.F.);
#49=ADVANCED_FACE('',(#42),#61,.F.);
#50=ADVANCED_FACE('',(#89,#90),#62,.T.);
#51=ADVANCED_FACE('',(#43),#36,.T.);
#52=ADVANCED_FACE('',(#44),#37,.T.);
#53=ADVANCED_FACE('',(#45),#38,.T.);
#54=ADVANCED_FACE('',(#91,#92),#39,.F.);
#55=ADVANCED_FACE('',(#93,#94),#34,.T.);
#56=ADVANCED_FACE('',(#95,#96),#33,.F.);
#57=ADVANCED_FACE('',(#97,#98),#35,.F.);
#58=PLANE('',#249);
#59=PLANE('',#250);
#60=PLANE('',#251);
#61=PLANE('',#252);
#62=PLANE('',#257);
#63=LINE('',#358,#75);
#64=LINE('',#363,#76);
#65=LINE('',#367,#77);
#66=LINE('',#371,#78);
#67=LINE('',#373,#79);
#68=LINE('',#375,#80);
#69=LINE('',#377,#81);
#70=LINE('',#379,#82);
#71=LINE('',#381,#83);
#72=LINE('',#383,#84);
#73=LINE('',#386,#85);
#74=LINE('',#387,#86);
#75=VECTOR('',#276,1.0);
#76=VECTOR('',#279,1.0);
#77=VECTOR('',#282,1.0);
#78=VECTOR('',#287,1.0);
#79=VECTOR('',#288,1.0);
#80=VECTOR('',#289,1.0);
#81=VECTOR('',#292,1.0);
#82=VECTOR('',#293,1.0);
#83=VECTOR('',#294,1.0);
#84=VECTOR('',#297,1.0);
#85=VECTOR('',#298,1.0);
#86=VECTOR('',#299,1.0);
#87=FACE_BOUND('',#99,.T.);
#88=FACE_BOUND('',#100,.T.);
#89=FACE_BOUND('',#104,.T.);
#90=FACE_BOUND('',#105,.T.);
#91=FACE_BOUND('',#109,.T.);
#92=FACE_BOUND('',#110,.T.);
#93=FACE_BOUND('',#111,.T.);
#94=FACE_BOUND('',#112,.T.);
#95=FACE_BOUND('',#113,.T.);
#96=FACE_BOUND('',#114,.T.);
#97=FACE_BOUND('',#115,.T.);
#98=FACE_BOUND('',#116,.T.);
#99=EDGE_LOOP('',(#117));
#100=EDGE_LOOP('',(#118,#119,#120,#121,#122,#123));
#101=EDGE_LOOP('',(#124,#125,#126,#127));
#102=EDGE_LOOP('',(#128,#129,#130,#131));
#103=EDGE_LOOP('',(#132,#133,#134,#135));
#104=EDGE_LOOP('',(#136));
#105=EDGE_LOOP('',(#137,#138,#139,#140,#141,#142));
#106=EDGE_LOOP('',(#143,#144,#145,#146));
#107=EDGE_LOOP('',(#147,#148,#149,#150));
#108=EDGE_LOOP('',(#151,#152,#153,#154));
#109=EDGE_LOOP('',(#155));
#110=EDGE_LOOP('',(#156));
#111=EDGE_LOOP('',(#157));
#112=EDGE_LOOP('',(#158));
#113=EDGE_LOOP('',(#159));
#114=EDGE_LOOP('',(#160));
#115=EDGE_LOOP('',(#161));
#116=EDGE_LOOP('',(#162));
#117=ORIENTED_EDGE('',*,*,#180,.T.);
#118=ORIENTED_EDGE('',*,*,#181,.T.);
#119=ORIENTED_EDGE('',*,*,#182,.T.);
#120=ORIENTED_EDGE('',*,*,#183,.T.);
#121=ORIENTED_EDGE('',*,*,#184,.T.);
#122=ORIENTED_EDGE('',*,*,#185,.T.);
#123=ORIENTED_EDGE('',*,*,#186,.T.);
#124=ORIENTED_EDGE('',*,*,#185,.F.);
#125=ORIENTED_EDGE('',*,*,#187,.T.);
#126=ORIENTED_EDGE('',*,*,#188,.F.);
#127=ORIENTED_EDGE('',*,*,#189,.T.);
#128=ORIENTED_EDGE('',*,*,#183,.F.);
#129=ORIENTED_EDGE('',*,*,#190,.T.);
#130=ORIENTED_EDGE('',*,*,#191,.F.);
#131=ORIENTED_EDGE('',*,*,#192,.T.);
#132=ORIENTED_EDGE('',*,*,#193,.F.);
#133=ORIENTED_EDGE('',*,*,#194,.T.);
#134=ORIENTED_EDGE('',*,*,#181,.F.);
#135=ORIENTED_EDGE('',*,*,#195,.T.);
#136=ORIENTED_EDGE('',*,*,#196,.F.);
#137=ORIENTED_EDGE('',*,*,#191,.T.);
#138=ORIENTED_EDGE('',*,*,#197,.T.);
#139=ORIENTED_EDGE('',*,*,#193,.T.);
#140=ORIENTED_EDGE('',*,*,#198,.T.);
#141=ORIENTED_EDGE('',*,*,#188,.T.);
#142=ORIENTED_EDGE('',*,*,#199,.T.);
#143=ORIENTED_EDGE('',*,*,#182,.F.);
#144=ORIENTED_EDGE('',*,*,#194,.F.);
#145=ORIENTED_EDGE('',*,*,#197,.F.);
#146=ORIENTED_EDGE('',*,*,#190,.F.);
#147=ORIENTED_EDGE('',*,*,#184,.F.);
#148=ORIENTED_EDGE('',*,*,#192,.F.);
#149=ORIENTED_EDGE('',*,*,#199,.F.);
#150=ORIENTED_EDGE('',*,*,#187,.F.);
#151=ORIENTED_EDGE('',*,*,#186,.F.);
#152=ORIENTED_EDGE('',*,*,#189,.F.);
#153=ORIENTED_EDGE('',*,*,#198,.F.);
#154=ORIENTED_EDGE('',*,*,#195,.F.);
#155=ORIENTED_EDGE('',*,*,#200,.T.);
#156=ORIENTED_EDGE('',*,*,#196,.T.);
#157=ORIENTED_EDGE('',*,*,#201,.T.);
#158=ORIENTED_EDGE('',*,*,#202,.T.);
#159=ORIENTED_EDGE('',*,*,#202,.F.);
#160=ORIENTED_EDGE('',*,*,#180,.F.);
#161=ORIENTED_EDGE('',*,*,#201,.F.);
#162=ORIENTED_EDGE('',*,*,#200,.F.);
#163=VERTEX_POINT('',#357);
#164=VERTEX_POINT('',#359);
#165=VERTEX_POINT('',#360);
#166=VERTEX_POINT('',#362);
#167=VERTEX_POINT('',#364);
#168=VERTEX_POINT('',#366);
#169=VERTEX_POINT('',#368);
#170=VERTEX_POINT('',#372);
#171=VERTEX_POINT('',#374);
#172=VERTEX_POINT('',#378);
#173=VERTEX_POINT('',#380);
#174=VERTEX_POINT('',#384);
#175=VERTEX_POINT('',#385);
#176=VERTEX_POINT('',#390);
#177=VERTEX_POINT('',#399);
#178=VERTEX_POINT('',#402);
#179=VERTEX_POINT('',#404);
#180=EDGE_CURVE('',#163,#163,#203,.T.);
#181=EDGE_CURVE('',#164,#165,#63,.T.);
#182=EDGE_CURVE('',#165,#166,#204,.T.);
#183=EDGE_CURVE('',#166,#167,#64,.T.);
#184=EDGE_CURVE('',#167,#168,#205,.T.);
#185=EDGE_CURVE('',#168,#169,#65,.T.);
#186=EDGE_CURVE('',#169,#164,#206,.T.);
#187=EDGE_CURVE('',#168,#170,#66,.T.);
#188=EDGE_CURVE('',#171,#170,#67,.T.);
#189=EDGE_CURVE('',#171,#169,#68,.T.);
#190=EDGE_CURVE('',#166,#172,#69,.T.);
#191=EDGE_CURVE('',#173,#172,#70,.T.);
#192=EDGE_CURVE('',#173,#167,#71,.T.);
#193=EDGE_CURVE('',#174,#175,#72,.T.);
#194=EDGE_CURVE('',#174,#165,#73,.T.);
#195=EDGE_CURVE('',#164,#175,#74,.T.);
#196=EDGE_CURVE('',#176,#176,#207,.T.);
#197=EDGE_CURVE('',#172,#174,#208,.T.);
#198=EDGE_CURVE('',#175,#171,#209,.T.);
#199=EDGE_CURVE('',#170,#173,#210,.T.);
#200=EDGE_CURVE('',#177,#177,#211,.T.);
#201=EDGE_CURVE('',#178,#178,#212,.T.);
#202=EDGE_CURVE('',#179,#179,#213,.T.);
#203=CIRCLE('',#245,1.25);
#204=CIRCLE('',#246,0.33088188886581);
#205=CIRCLE('',#247,0.33088188886581);
#206=CIRCLE('',#248,0.330881888865811);
#207=CIRCLE('',#253,1.69405389152441);
#208=CIRCLE('',#254,0.793750000000002);
#209=CIRCLE('',#255,0.793750000000002);
#210=CIRCLE('',#256,0.793750000000002);
#211=CIRCLE('',#261,1.65917347701625);
#212=CIRCLE('',#263,1.58439303487033);
#213=CIRCLE('',#264,1.25);
#214=CURVE_STYLE('',#218,POSITIVE_LENGTH_MEASURE(0.18),#217);
#215=CURVE_STYLE('',#219,POSITIVE_LENGTH_MEASURE(0.18),#240);
#216=CURVE_STYLE('',#220,POSITIVE_LENGTH_MEASURE(0.18),#240);
#217=DRAUGHTING_PRE_DEFINED_COLOUR('blue');
#218=DRAUGHTING_PRE_DEFINED_CURVE_FONT('continuous');
#219=DRAUGHTING_PRE_DEFINED_CURVE_FONT('continuous');
#220=DRAUGHTING_PRE_DEFINED_CURVE_FONT('continuous');
#221=TRIMMED_CURVE('CUTTING EDGE LINE',#222,(PARAMETER_VALUE(0.0)),(PARAMETER_VALUE(
     1.0)),.T.,.PARAMETER.);
#222=(BOUNDED_CURVE()B_SPLINE_CURVE(3,(#335,#336,#337,#338,#339,#340,#341,#342,#343,
     #344,#345,#346,#347,#348,#349,#350,#351,#352,#353),.UNSPECIFIED.,.T.,.F.)
     B_SPLINE_CURVE_WITH_KNOTS((1,3,3,3,3,3,3,3,1),(-0.0649144097300769,0.0,0.268418923603256,
     0.333333333333333,0.60175225693659,0.666666666666667,0.935085590269923,1.0,
     1.26841892360326),.UNSPECIFIED.)CURVE()GEOMETRIC_REPRESENTATION_ITEM()
     RATIONAL_B_SPLINE_CURVE((0.666666666666667,0.666666666666667,0.666666666666667,
     0.666666666666667,0.444444444444444,0.444444444444444,0.666666666666667,0.666666666666667,
     0.666666666666667,0.666666666666667,0.444444444444444,0.444444444444444,0.666666666666667,
     0.666666666666667,0.666666666666667,0.666666666666667,0.444444444444444,0.444444444444444,
     0.666666666666667))REPRESENTATION_ITEM('CUTTING EDGE LINE'));
#223=PRESENTATION_LAYER_ASSIGNMENT('1','Layer 1',(#221,#243,#244,#31));
#226=STYLED_ITEM('',(#232),#221);
#227=STYLED_ITEM('',(#233),#243);
#228=STYLED_ITEM('',(#234),#244);
#229=STYLED_ITEM('',(#235),#31);
#230=PRESENTATION_STYLE_ASSIGNMENT((#236));
#231=PRESENTATION_STYLE_ASSIGNMENT((#237));
#232=PRESENTATION_STYLE_ASSIGNMENT((#214));
#233=PRESENTATION_STYLE_ASSIGNMENT((#215));
#234=PRESENTATION_STYLE_ASSIGNMENT((#216));
#235=PRESENTATION_STYLE_ASSIGNMENT((#26));
#236=POINT_STYLE('',#238,POSITIVE_LENGTH_MEASURE(3.0),#240);
#237=POINT_STYLE('',#239,POSITIVE_LENGTH_MEASURE(3.0),#240);
#238=PRE_DEFINED_POINT_MARKER_SYMBOL('plus');
#239=PRE_DEFINED_POINT_MARKER_SYMBOL('plus');
#240=COLOUR_RGB('Medium Maroon',0.6,0.4,0.4);
#241=COLOUR_RGB('IsoInsertColor',0.8,0.8,0.8);
#242=AXIS2_PLACEMENT_3D('',#332,#268,#269);
#243=AXIS2_PLACEMENT_3D('PCS',#354,#270,#271);
#244=AXIS2_PLACEMENT_3D('MCS',#355,#272,#273);
#245=AXIS2_PLACEMENT_3D('',#356,#274,#275);
#246=AXIS2_PLACEMENT_3D('',#361,#277,#278);
#247=AXIS2_PLACEMENT_3D('',#365,#280,#281);
#248=AXIS2_PLACEMENT_3D('',#369,#283,#284);
#249=AXIS2_PLACEMENT_3D('',#370,#285,#286);
#250=AXIS2_PLACEMENT_3D('',#376,#290,#291);
#251=AXIS2_PLACEMENT_3D('',#382,#295,#296);
#252=AXIS2_PLACEMENT_3D('',#388,#300,#301);
#253=AXIS2_PLACEMENT_3D('',#389,#302,#303);
#254=AXIS2_PLACEMENT_3D('',#391,#304,#305);
#255=AXIS2_PLACEMENT_3D('',#392,#306,#307);
#256=AXIS2_PLACEMENT_3D('',#393,#308,#309);
#257=AXIS2_PLACEMENT_3D('',#394,#310,#311);
#258=AXIS2_PLACEMENT_3D('',#395,#312,#313);
#259=AXIS2_PLACEMENT_3D('',#396,#314,#315);
#260=AXIS2_PLACEMENT_3D('',#397,#316,#317);
#261=AXIS2_PLACEMENT_3D('',#398,#318,#319);
#262=AXIS2_PLACEMENT_3D('',#400,#320,#321);
#263=AXIS2_PLACEMENT_3D('',#401,#322,#323);
#264=AXIS2_PLACEMENT_3D('',#403,#324,#325);
#265=AXIS2_PLACEMENT_3D('',#405,#326,#327);
#266=AXIS2_PLACEMENT_3D('',#406,#328,#329);
#267=AXIS2_PLACEMENT_3D('',#407,#330,#331);
#268=DIRECTION('',(0.0,0.0,1.0));
#269=DIRECTION('',(1.0,0.0,0.0));
#270=DIRECTION('',(0.0,0.0,1.0));
#271=DIRECTION('',(1.0,0.0,0.0));
#272=DIRECTION('',(0.0,0.0,1.0));
#273=DIRECTION('',(1.0,0.0,0.0));
#274=DIRECTION('',(0.0,0.0,1.0));
#275=DIRECTION('',(-0.866025403784438,-0.5,0.0));
#276=DIRECTION('',(0.5,-0.866025403784438,0.0));
#277=DIRECTION('',(0.0,0.0,-1.0));
#278=DIRECTION('',(-0.86602540378444,-0.5,0.0));
#279=DIRECTION('',(-1.0,-1.38777878078145E-15,0.0));
#280=DIRECTION('',(0.0,0.0,-1.0));
#281=DIRECTION('',(-0.866025403784439,-0.5,0.0));
#282=DIRECTION('',(0.5,0.866025403784439,0.0));
#283=DIRECTION('',(0.0,0.0,-1.0));
#284=DIRECTION('',(-0.866025403784438,-0.5,0.0));
#285=DIRECTION('',(0.0,0.0,1.0));
#286=DIRECTION('',(-0.866025403784439,-0.5,0.0));
#287=DIRECTION('',(-0.165245437266676,0.095404497688273,0.981627183447664));
#288=DIRECTION('',(-0.5,-0.866025403784439,3.79018321293048E-16));
#289=DIRECTION('',(0.165245437266676,-0.095404497688273,-0.981627183447664));
#290=DIRECTION('',(0.850114077911045,-0.490813591723832,0.190808995376545));
#291=DIRECTION('',(0.5,0.866025403784439,0.0));
#292=DIRECTION('',(2.77555756156289E-17,-0.190808995376544,0.981627183447664));
#293=DIRECTION('',(1.0,1.33226762955019E-15,2.31727102670598E-16));
#294=DIRECTION('',(-2.77555756156289E-17,0.190808995376544,-0.981627183447664));
#295=DIRECTION('',(-1.33226762955019E-15,0.981627183447664,0.190808995376544));
#296=DIRECTION('',(-1.0,-1.38777878078145E-15,0.0));
#297=DIRECTION('',(-0.500000000000001,0.866025403784438,-6.11425706056717E-16));
#298=DIRECTION('',(-0.165245437266675,-0.0954044976882731,-0.981627183447664));
#299=DIRECTION('',(0.165245437266675,0.0954044976882731,0.981627183447664));
#300=DIRECTION('',(-0.850114077911044,-0.490813591723832,0.190808995376545));
#301=DIRECTION('',(-0.165245437266675,-0.0954044976882725,-0.981627183447664));
#302=DIRECTION('',(0.0,0.0,1.0));
#303=DIRECTION('',(-0.866025403784439,-0.5,0.0));
#304=DIRECTION('',(-2.29284639771269E-16,5.73636043469616E-16,1.0));
#305=DIRECTION('',(-0.500000000000001,0.866025403784439,-6.11425706056717E-16));
#306=DIRECTION('',(-2.29284639771269E-16,5.73636043469616E-16,1.0));
#307=DIRECTION('',(-0.500000000000001,0.866025403784438,-6.11425706056717E-16));
#308=DIRECTION('',(-2.29284639771269E-16,5.73636043469616E-16,1.0));
#309=DIRECTION('',(-0.5,0.866025403784439,-6.11425706056717E-16));
#310=DIRECTION('',(-2.29284639771269E-16,5.73636043469616E-16,1.0));
#311=DIRECTION('',(-0.5,0.866025403784439,-6.11425706056717E-16));
#312=DIRECTION('',(-2.29284639771269E-16,5.73636043469616E-16,1.0));
#313=DIRECTION('',(-0.5,0.866025403784438,-5.66615369286797E-16));
#314=DIRECTION('',(-2.29284639771269E-16,5.73636043469616E-16,1.0));
#315=DIRECTION('',(-0.5,0.866025403784439,-5.59949306118717E-16));
#316=DIRECTION('',(-2.29284639771269E-16,5.73636043469616E-16,1.0));
#317=DIRECTION('',(-0.5,0.866025403784439,-5.46617179782557E-16));
#318=DIRECTION('',(0.0,0.0,-1.0));
#319=DIRECTION('',(0.866025403784438,0.5,0.0));
#320=DIRECTION('',(0.0,0.0,1.0));
#321=DIRECTION('',(-0.866025403784438,-0.5,7.75546573378295E-16));
#322=DIRECTION('',(0.0,0.0,1.0));
#323=DIRECTION('',(0.866025403784438,0.5,0.0));
#324=DIRECTION('',(0.0,0.0,-1.0));
#325=DIRECTION('',(-0.866025403784438,-0.5,0.0));
#326=DIRECTION('',(0.0,0.0,1.0));
#327=DIRECTION('',(-0.866025403784439,-0.5,0.0));
#328=DIRECTION('',(0.0,0.0,1.0));
#329=DIRECTION('',(-0.866025403784439,-0.5,0.0));
#330=DIRECTION('',(0.0,0.0,-1.0));
#331=DIRECTION('',(0.866025403784439,0.5,0.0));
#332=CARTESIAN_POINT('',(0.0,0.0,0.0));
#335=CARTESIAN_POINT('',(8.93629963530066,1.19062500000001,0.0));
#336=CARTESIAN_POINT('',(7.7906201948775,3.175,0.0));
#337=CARTESIAN_POINT('',(6.64494075445434,5.15937499999999,1.48272047197459E-15));
#338=CARTESIAN_POINT('',(5.49926131403118,7.14374999999999,-3.50248930387697E-17));
#339=CARTESIAN_POINT('',(5.15555748190422,7.73906249999999,-4.90348502542779E-16));
#340=CARTESIAN_POINT('',(4.46814981765033,7.73906249999999,-2.50427985227206E-16));
#341=CARTESIAN_POINT('',(4.12444598552337,7.14374999999999,-1.92636911713235E-16));
#342=CARTESIAN_POINT('',(2.97876654510021,5.15937499999999,0.0));
#343=CARTESIAN_POINT('',(1.83308710467705,3.175,-4.26136198638367E-16));
#344=CARTESIAN_POINT('',(0.687407664253888,1.190625,-1.92636911713235E-16));
#345=CARTESIAN_POINT('',(0.343703832126939,0.595312499999995,-1.22587125635695E-16));
#346=CARTESIAN_POINT('',(0.687407664253888,-7.99360577730113E-15,2.95960346177606E-16));
#347=CARTESIAN_POINT('',(1.37481532850779,-7.32747196252603E-15,2.27661804752005E-16));
#348=CARTESIAN_POINT('',(3.66617420935411,-3.99680288865056E-15,0.0));
#349=CARTESIAN_POINT('',(5.95753309020044,2.66453525910038E-15,-1.05658427333622E-15));
#350=CARTESIAN_POINT('',(8.24889197104676,2.33146835171283E-15,2.27661804752005E-16));
#351=CARTESIAN_POINT('',(8.93629963530066,1.99840144432528E-15,6.12935628178474E-16));
#352=CARTESIAN_POINT('',(9.28000346742761,0.595312500000004,3.502489303877E-16));
#353=CARTESIAN_POINT('',(8.93629963530066,1.19062500000001,-7.00497860775396E-17));
#354=CARTESIAN_POINT('',(0.0,0.0,0.0));
#355=CARTESIAN_POINT('',(4.81185364977728,2.778125,0.0));
#356=CARTESIAN_POINT('',(4.81185364977728,2.778125,-2.38125000000001));
#357=CARTESIAN_POINT('',(3.72932189504674,2.153125,-2.38125000000001));
#358=CARTESIAN_POINT('',(6.81692493182199,3.9357534444329,-2.38125));
#359=CARTESIAN_POINT('',(5.09840577118725,6.91231594443289,-2.38125));
#360=CARTESIAN_POINT('',(8.53544409245673,0.959190944432908,-2.38125));
#361=CARTESIAN_POINT('',(8.24889197104676,0.793750000000005,-2.38125));
#362=CARTESIAN_POINT('',(8.24889197104676,0.462868111134193,-2.38125));
#363=CARTESIAN_POINT('',(3.93300295102867,0.462868111134187,-2.38125));
#364=CARTESIAN_POINT('',(1.37481532850779,0.462868111134183,-2.38125));
#365=CARTESIAN_POINT('',(1.37481532850779,0.793749999999996,-2.38125));
#366=CARTESIAN_POINT('',(1.08826320709782,0.9591909444329,-2.38125));
#367=CARTESIAN_POINT('',(2.36735701835826,3.1746464131829,-2.38125));
#368=CARTESIAN_POINT('',(4.5253015283673,6.91231594443289,-2.38125));
#369=CARTESIAN_POINT('',(4.81185364977728,6.74687499999999,-2.38125));
#370=CARTESIAN_POINT('',(4.67459412335812,2.26586547358083,-2.38125));
#371=CARTESIAN_POINT('',(0.687407664253889,1.190625,-2.26065998122719E-15));
#372=CARTESIAN_POINT('',(0.687407664253889,1.190625,-2.4812741147454E-15));
#373=CARTESIAN_POINT('',(2.40592682488863,4.1671875,-3.79470760369927E-15));
#374=CARTESIAN_POINT('',(4.12444598552337,7.14374999999999,-5.10814109265313E-15));
#375=CARTESIAN_POINT('',(4.12444598552337,7.14374999999999,-4.84954083713498E-15));
#376=CARTESIAN_POINT('',(1.96650147551433,3.40608046875,-3.45886266057376E-15));
#377=CARTESIAN_POINT('',(8.24889197104676,2.16840434497101E-15,5.75916285525947E-17));
#378=CARTESIAN_POINT('',(8.24889197104676,2.16840434497101E-15,-6.455649507028E-17));
#379=CARTESIAN_POINT('',(4.81185364977729,-2.60208521396521E-15,-8.52616588442598E-16));
#380=CARTESIAN_POINT('',(1.37481532850779,-7.37257477290143E-15,-1.64067668181492E-15));
#381=CARTESIAN_POINT('',(1.37481532850779,-7.37257477290143E-15,-1.3498659920671E-15));
#382=CARTESIAN_POINT('',(3.93300295102867,-3.46944695195361E-15,-1.0541235543179E-15));
#383=CARTESIAN_POINT('',(7.21778047466592,4.1671875,-2.69142347297802E-15));
#384=CARTESIAN_POINT('',(8.93629963530066,1.190625,-5.89929890651829E-16));
#385=CARTESIAN_POINT('',(5.49926131403118,7.14374999999999,-4.7929170553042E-15));
#386=CARTESIAN_POINT('',(8.93629963530066,1.190625,-4.67637246430243E-16));
#387=CARTESIAN_POINT('',(5.49926131403118,7.14374999999999,-4.74930687256419E-15));
#388=CARTESIAN_POINT('',(7.21778047466592,4.1671875,-2.69142347297802E-15));
#389=CARTESIAN_POINT('',(4.81185364977728,2.778125,-6.93889390390723E-15));
#390=CARTESIAN_POINT('',(3.34475994433726,1.93109805423779,-6.93889390390723E-15));
#391=CARTESIAN_POINT('',(8.24889197104676,0.793750000000004,-5.19880104574289E-16));
#392=CARTESIAN_POINT('',(4.81185364977727,6.74687499999999,-4.72286726922666E-15));
#393=CARTESIAN_POINT('',(1.37481532850779,0.793749999999995,-2.09600029131893E-15));
#394=CARTESIAN_POINT('',(4.81185364977728,2.778125,-2.44624922170663E-15));
#395=CARTESIAN_POINT('',(8.24889197104676,0.793750000000004,-4.33680868994202E-16));
#396=CARTESIAN_POINT('',(1.37481532850779,0.793749999999995,-1.73472347597681E-15));
#397=CARTESIAN_POINT('',(4.81185364977727,6.74687499999999,-4.33680868994202E-15));
#398=CARTESIAN_POINT('',(4.81185364977728,2.778125,-0.498813166821915));
#399=CARTESIAN_POINT('',(6.24874003015871,3.60771173850812,-0.498813166821915));
#400=CARTESIAN_POINT('',(4.81185364977728,2.778125,-0.629999999993747));
#401=CARTESIAN_POINT('',(4.81185364977728,2.778125,-0.728930510344582));
#402=CARTESIAN_POINT('',(6.18397826755411,3.57032151743517,-0.728930510344582));
#403=CARTESIAN_POINT('',(4.81185364977728,2.778125,-1.89491106406735));
#404=CARTESIAN_POINT('',(3.72932189504674,2.153125,-1.89491106406735));
#405=CARTESIAN_POINT('',(4.81185364977728,2.778125,-1.89491106406736));
#406=CARTESIAN_POINT('',(4.81185364977728,2.778125,-33.3676978394524));
#407=CARTESIAN_POINT('',(4.81185364977728,2.778125,-0.46393492995298));
#408=MECHANICAL_DESIGN_GEOMETRIC_PRESENTATION_REPRESENTATION('',(#226,#227,#228,
     #229),#409);
#409=(GEOMETRIC_REPRESENTATION_CONTEXT(3)GLOBAL_UNCERTAINTY_ASSIGNED_CONTEXT((#410))
     GLOBAL_UNIT_ASSIGNED_CONTEXT((#416,#412,#411))REPRESENTATION_CONTEXT('TPMT090208',
     'TOP_LEVEL_ASSEMBLY_PART'));
#410=UNCERTAINTY_MEASURE_WITH_UNIT(LENGTH_MEASURE(2.0E-5),#416,'DISTANCE_ACCURACY_VALUE',
     'Maximum Tolerance applied to model');
#411=(NAMED_UNIT(*)SI_UNIT($,.STERADIAN.)SOLID_ANGLE_UNIT());
#412=(CONVERSION_BASED_UNIT('DEGREE',#414)NAMED_UNIT(#413)PLANE_ANGLE_UNIT());
#413=DIMENSIONAL_EXPONENTS(0.0,0.0,0.0,0.0,0.0,0.0,0.0);
#414=PLANE_ANGLE_MEASURE_WITH_UNIT(PLANE_ANGLE_MEASURE(0.0174532925),#415);
#415=(NAMED_UNIT(*)PLANE_ANGLE_UNIT()SI_UNIT($,.RADIAN.));
#416=(LENGTH_UNIT()NAMED_UNIT(*)SI_UNIT(.MILLI.,.METRE.));
#417=CONSTRUCTIVE_GEOMETRY_REPRESENTATION('supplemental geometry',(#243,#244),#409);
#418=CONSTRUCTIVE_GEOMETRY_REPRESENTATION_RELATIONSHIP('supplemental geometry','contains PCS and MCS coordinate systems',
     #24,#417);
ENDSEC;
END-ISO-10303-21;
