ISO-10303-21;
HEADER;
FILE_DESCRIPTION(
/* description */ (''),
/* implementation_level */ '2;1');
FILE_NAME(
/* name */ 'TNMM270624.stp',
/* time_stamp */ '2017-03-21T10:54:41',
/* author */ ('Sandvik Coromant R&D'),
/* organization */ ('Sandvik Machining Solutions'),
/* preprocessor_version */ 'ST-DEVELOPER v15',
/* originating_system */ 'SIEMENS PLM Software NX v8.5.3.3(64 bits)',
/* authorization */ '');
FILE_SCHEMA(('AUTOMOTIVE_DESIGN'));
ENDSEC;
DATA;
#10=GEOMETRICALLY_BOUNDED_WIREFRAME_SHAPE_REPRESENTATION('IsoTurningInsert-None',
     (#25),#349);
#11=SHAPE_REPRESENTATION_RELATIONSHIP('None','relationship between IsoTurningInsert-None and IsoTurningInsert-None',
     #24,#13);
#12=SHAPE_REPRESENTATION_RELATIONSHIP('None','relationship between IsoTurningInsert-None and IsoTurningInsert-None',
     #24,#10);
#13=ADVANCED_BREP_SHAPE_REPRESENTATION('IsoTurningInsert-None',(#31),#349);
#14=SHAPE_DEFINITION_REPRESENTATION(#15,#24);
#15=PRODUCT_DEFINITION_SHAPE('','',#16);
#16=PRODUCT_DEFINITION(' ','',#18,#17);
#17=PRODUCT_DEFINITION_CONTEXT('part definition',#23,'design');
#18=PRODUCT_DEFINITION_FORMATION_WITH_SPECIFIED_SOURCE(' ',' ',#20,.NOT_KNOWN.);
#19=PRODUCT_RELATED_PRODUCT_CATEGORY('part','',(#20));
#20=PRODUCT('IsoTurningInsert','IsoTurningInsert',' ',(#21));
#21=PRODUCT_CONTEXT(' ',#23,'mechanical');
#22=APPLICATION_PROTOCOL_DEFINITION('international standard','automotive_design',
     2010,#23);
#23=APPLICATION_CONTEXT('core data for automotive mechanical design processes');
#24=SHAPE_REPRESENTATION('IsoTurningInsert-None',(#209),#349);
#25=GEOMETRIC_CURVE_SET('geometric curve set',(#188));
#26=SURFACE_STYLE_USAGE(.BOTH.,#27);
#27=SURFACE_SIDE_STYLE('',(#28));
#28=SURFACE_STYLE_FILL_AREA(#29);
#29=FILL_AREA_STYLE('',(#30));
#30=FILL_AREA_STYLE_COLOUR('',#208);
#31=MANIFOLD_SOLID_BREP('CUT',#32);
#32=CLOSED_SHELL('',(#43,#44,#45,#46,#47,#48,#49,#50,#51));
#33=CYLINDRICAL_SURFACE('',#225,2.38124999999999);
#34=CYLINDRICAL_SURFACE('',#226,2.38124999999999);
#35=CYLINDRICAL_SURFACE('',#227,2.38124999999999);
#36=CYLINDRICAL_SURFACE('',#228,3.17499999999999);
#37=FACE_OUTER_BOUND('',#89,.T.);
#38=FACE_OUTER_BOUND('',#90,.T.);
#39=FACE_OUTER_BOUND('',#91,.T.);
#40=FACE_OUTER_BOUND('',#94,.T.);
#41=FACE_OUTER_BOUND('',#95,.T.);
#42=FACE_OUTER_BOUND('',#96,.T.);
#43=ADVANCED_FACE('',(#81,#82),#52,.F.);
#44=ADVANCED_FACE('',(#37),#53,.T.);
#45=ADVANCED_FACE('',(#38),#54,.T.);
#46=ADVANCED_FACE('',(#39),#55,.T.);
#47=ADVANCED_FACE('',(#83,#84),#56,.T.);
#48=ADVANCED_FACE('',(#40),#33,.T.);
#49=ADVANCED_FACE('',(#41),#34,.T.);
#50=ADVANCED_FACE('',(#42),#35,.T.);
#51=ADVANCED_FACE('',(#85,#86),#36,.F.);
#52=PLANE('',#216);
#53=PLANE('',#217);
#54=PLANE('',#218);
#55=PLANE('',#219);
#56=PLANE('',#224);
#57=LINE('',#307,#69);
#58=LINE('',#312,#70);
#59=LINE('',#316,#71);
#60=LINE('',#320,#72);
#61=LINE('',#322,#73);
#62=LINE('',#324,#74);
#63=LINE('',#326,#75);
#64=LINE('',#328,#76);
#65=LINE('',#330,#77);
#66=LINE('',#332,#78);
#67=LINE('',#335,#79);
#68=LINE('',#336,#80);
#69=VECTOR('',#237,1.0);
#70=VECTOR('',#240,1.0);
#71=VECTOR('',#243,1.0);
#72=VECTOR('',#248,1.0);
#73=VECTOR('',#249,1.0);
#74=VECTOR('',#250,1.0);
#75=VECTOR('',#253,1.0);
#76=VECTOR('',#254,1.0);
#77=VECTOR('',#255,1.0);
#78=VECTOR('',#258,1.0);
#79=VECTOR('',#259,1.0);
#80=VECTOR('',#260,1.0);
#81=FACE_BOUND('',#87,.T.);
#82=FACE_BOUND('',#88,.T.);
#83=FACE_BOUND('',#92,.T.);
#84=FACE_BOUND('',#93,.T.);
#85=FACE_BOUND('',#97,.T.);
#86=FACE_BOUND('',#98,.T.);
#87=EDGE_LOOP('',(#99));
#88=EDGE_LOOP('',(#100,#101,#102,#103,#104,#105));
#89=EDGE_LOOP('',(#106,#107,#108,#109));
#90=EDGE_LOOP('',(#110,#111,#112,#113));
#91=EDGE_LOOP('',(#114,#115,#116,#117));
#92=EDGE_LOOP('',(#118));
#93=EDGE_LOOP('',(#119,#120,#121,#122,#123,#124));
#94=EDGE_LOOP('',(#125,#126,#127,#128));
#95=EDGE_LOOP('',(#129,#130,#131,#132));
#96=EDGE_LOOP('',(#133,#134,#135,#136));
#97=EDGE_LOOP('',(#137));
#98=EDGE_LOOP('',(#138));
#99=ORIENTED_EDGE('',*,*,#153,.T.);
#100=ORIENTED_EDGE('',*,*,#154,.T.);
#101=ORIENTED_EDGE('',*,*,#155,.T.);
#102=ORIENTED_EDGE('',*,*,#156,.T.);
#103=ORIENTED_EDGE('',*,*,#157,.T.);
#104=ORIENTED_EDGE('',*,*,#158,.T.);
#105=ORIENTED_EDGE('',*,*,#159,.T.);
#106=ORIENTED_EDGE('',*,*,#158,.F.);
#107=ORIENTED_EDGE('',*,*,#160,.T.);
#108=ORIENTED_EDGE('',*,*,#161,.F.);
#109=ORIENTED_EDGE('',*,*,#162,.T.);
#110=ORIENTED_EDGE('',*,*,#156,.F.);
#111=ORIENTED_EDGE('',*,*,#163,.T.);
#112=ORIENTED_EDGE('',*,*,#164,.F.);
#113=ORIENTED_EDGE('',*,*,#165,.T.);
#114=ORIENTED_EDGE('',*,*,#166,.F.);
#115=ORIENTED_EDGE('',*,*,#167,.T.);
#116=ORIENTED_EDGE('',*,*,#154,.F.);
#117=ORIENTED_EDGE('',*,*,#168,.T.);
#118=ORIENTED_EDGE('',*,*,#169,.F.);
#119=ORIENTED_EDGE('',*,*,#164,.T.);
#120=ORIENTED_EDGE('',*,*,#170,.T.);
#121=ORIENTED_EDGE('',*,*,#166,.T.);
#122=ORIENTED_EDGE('',*,*,#171,.T.);
#123=ORIENTED_EDGE('',*,*,#161,.T.);
#124=ORIENTED_EDGE('',*,*,#172,.T.);
#125=ORIENTED_EDGE('',*,*,#155,.F.);
#126=ORIENTED_EDGE('',*,*,#167,.F.);
#127=ORIENTED_EDGE('',*,*,#170,.F.);
#128=ORIENTED_EDGE('',*,*,#163,.F.);
#129=ORIENTED_EDGE('',*,*,#157,.F.);
#130=ORIENTED_EDGE('',*,*,#165,.F.);
#131=ORIENTED_EDGE('',*,*,#172,.F.);
#132=ORIENTED_EDGE('',*,*,#160,.F.);
#133=ORIENTED_EDGE('',*,*,#159,.F.);
#134=ORIENTED_EDGE('',*,*,#162,.F.);
#135=ORIENTED_EDGE('',*,*,#171,.F.);
#136=ORIENTED_EDGE('',*,*,#168,.F.);
#137=ORIENTED_EDGE('',*,*,#153,.F.);
#138=ORIENTED_EDGE('',*,*,#169,.T.);
#139=VERTEX_POINT('',#306);
#140=VERTEX_POINT('',#308);
#141=VERTEX_POINT('',#309);
#142=VERTEX_POINT('',#311);
#143=VERTEX_POINT('',#313);
#144=VERTEX_POINT('',#315);
#145=VERTEX_POINT('',#317);
#146=VERTEX_POINT('',#321);
#147=VERTEX_POINT('',#323);
#148=VERTEX_POINT('',#327);
#149=VERTEX_POINT('',#329);
#150=VERTEX_POINT('',#333);
#151=VERTEX_POINT('',#334);
#152=VERTEX_POINT('',#339);
#153=EDGE_CURVE('',#139,#139,#173,.T.);
#154=EDGE_CURVE('',#140,#141,#57,.T.);
#155=EDGE_CURVE('',#141,#142,#174,.T.);
#156=EDGE_CURVE('',#142,#143,#58,.T.);
#157=EDGE_CURVE('',#143,#144,#175,.T.);
#158=EDGE_CURVE('',#144,#145,#59,.T.);
#159=EDGE_CURVE('',#145,#140,#176,.T.);
#160=EDGE_CURVE('',#144,#146,#60,.T.);
#161=EDGE_CURVE('',#147,#146,#61,.T.);
#162=EDGE_CURVE('',#147,#145,#62,.T.);
#163=EDGE_CURVE('',#142,#148,#63,.T.);
#164=EDGE_CURVE('',#149,#148,#64,.T.);
#165=EDGE_CURVE('',#149,#143,#65,.T.);
#166=EDGE_CURVE('',#150,#151,#66,.T.);
#167=EDGE_CURVE('',#150,#141,#67,.T.);
#168=EDGE_CURVE('',#140,#151,#68,.T.);
#169=EDGE_CURVE('',#152,#152,#177,.T.);
#170=EDGE_CURVE('',#148,#150,#178,.T.);
#171=EDGE_CURVE('',#151,#147,#179,.T.);
#172=EDGE_CURVE('',#146,#149,#180,.T.);
#173=CIRCLE('',#212,3.17499999999999);
#174=CIRCLE('',#213,2.38124999999999);
#175=CIRCLE('',#214,2.38124999999999);
#176=CIRCLE('',#215,2.38124999999999);
#177=CIRCLE('',#220,3.17499999999999);
#178=CIRCLE('',#221,2.38124999999999);
#179=CIRCLE('',#222,2.38124999999999);
#180=CIRCLE('',#223,2.38124999999999);
#181=CURVE_STYLE('',#185,POSITIVE_LENGTH_MEASURE(0.18),#184);
#182=CURVE_STYLE('',#186,POSITIVE_LENGTH_MEASURE(0.18),#207);
#183=CURVE_STYLE('',#187,POSITIVE_LENGTH_MEASURE(0.18),#207);
#184=DRAUGHTING_PRE_DEFINED_COLOUR('blue');
#185=DRAUGHTING_PRE_DEFINED_CURVE_FONT('continuous');
#186=DRAUGHTING_PRE_DEFINED_CURVE_FONT('continuous');
#187=DRAUGHTING_PRE_DEFINED_CURVE_FONT('continuous');
#188=TRIMMED_CURVE('CUTTING EDGE LINE',#189,(PARAMETER_VALUE(0.0)),(PARAMETER_VALUE(
     1.0)),.T.,.PARAMETER.);
#189=(BOUNDED_CURVE()B_SPLINE_CURVE(3,(#284,#285,#286,#287,#288,#289,#290,#291,#292,
     #293,#294,#295,#296,#297,#298,#299,#300,#301,#302),.UNSPECIFIED.,.T.,.F.)
     B_SPLINE_CURVE_WITH_KNOTS((1,3,3,3,3,3,3,3,1),(-0.0685969538318083,0.0,0.264736379501525,
     0.333333333333333,0.598069712834858,0.666666666666667,0.931403046168192,1.0,
     1.26473637950153),.UNSPECIFIED.)CURVE()GEOMETRIC_REPRESENTATION_ITEM()
     RATIONAL_B_SPLINE_CURVE((0.666666666666667,0.666666666666667,0.666666666666667,
     0.666666666666667,0.444444444444444,0.444444444444444,0.666666666666667,0.666666666666667,
     0.666666666666667,0.666666666666667,0.444444444444444,0.444444444444444,0.666666666666667,
     0.666666666666667,0.666666666666667,0.666666666666667,0.444444444444444,0.444444444444444,
     0.666666666666667))REPRESENTATION_ITEM('CUTTING EDGE LINE'));
#190=PRESENTATION_LAYER_ASSIGNMENT('1','Layer 1',(#188,#210,#211,#31));
#193=STYLED_ITEM('',(#199),#188);
#194=STYLED_ITEM('',(#200),#210);
#195=STYLED_ITEM('',(#201),#211);
#196=STYLED_ITEM('',(#202),#31);
#197=PRESENTATION_STYLE_ASSIGNMENT((#203));
#198=PRESENTATION_STYLE_ASSIGNMENT((#204));
#199=PRESENTATION_STYLE_ASSIGNMENT((#181));
#200=PRESENTATION_STYLE_ASSIGNMENT((#182));
#201=PRESENTATION_STYLE_ASSIGNMENT((#183));
#202=PRESENTATION_STYLE_ASSIGNMENT((#26));
#203=POINT_STYLE('',#205,POSITIVE_LENGTH_MEASURE(3.0),#207);
#204=POINT_STYLE('',#206,POSITIVE_LENGTH_MEASURE(3.0),#207);
#205=PRE_DEFINED_POINT_MARKER_SYMBOL('plus');
#206=PRE_DEFINED_POINT_MARKER_SYMBOL('plus');
#207=COLOUR_RGB('Medium Maroon',0.6,0.4,0.4);
#208=COLOUR_RGB('IsoInsertColor',0.8,0.8,0.8);
#209=AXIS2_PLACEMENT_3D('',#281,#229,#230);
#210=AXIS2_PLACEMENT_3D('PCS',#303,#231,#232);
#211=AXIS2_PLACEMENT_3D('MCS',#304,#233,#234);
#212=AXIS2_PLACEMENT_3D('',#305,#235,#236);
#213=AXIS2_PLACEMENT_3D('',#310,#238,#239);
#214=AXIS2_PLACEMENT_3D('',#314,#241,#242);
#215=AXIS2_PLACEMENT_3D('',#318,#244,#245);
#216=AXIS2_PLACEMENT_3D('',#319,#246,#247);
#217=AXIS2_PLACEMENT_3D('',#325,#251,#252);
#218=AXIS2_PLACEMENT_3D('',#331,#256,#257);
#219=AXIS2_PLACEMENT_3D('',#337,#261,#262);
#220=AXIS2_PLACEMENT_3D('',#338,#263,#264);
#221=AXIS2_PLACEMENT_3D('',#340,#265,#266);
#222=AXIS2_PLACEMENT_3D('',#341,#267,#268);
#223=AXIS2_PLACEMENT_3D('',#342,#269,#270);
#224=AXIS2_PLACEMENT_3D('',#343,#271,#272);
#225=AXIS2_PLACEMENT_3D('',#344,#273,#274);
#226=AXIS2_PLACEMENT_3D('',#345,#275,#276);
#227=AXIS2_PLACEMENT_3D('',#346,#277,#278);
#228=AXIS2_PLACEMENT_3D('',#347,#279,#280);
#229=DIRECTION('',(0.0,0.0,1.0));
#230=DIRECTION('',(1.0,0.0,0.0));
#231=DIRECTION('',(0.0,0.0,1.0));
#232=DIRECTION('',(1.0,0.0,0.0));
#233=DIRECTION('',(0.0,0.0,1.0));
#234=DIRECTION('',(1.0,0.0,0.0));
#235=DIRECTION('',(0.0,0.0,1.0));
#236=DIRECTION('',(-0.866025403784439,-0.500000000000001,0.0));
#237=DIRECTION('',(0.500000000000001,-0.866025403784438,0.0));
#238=DIRECTION('',(0.0,0.0,-1.0));
#239=DIRECTION('',(-0.866025403784439,-0.5,0.0));
#240=DIRECTION('',(-1.0,-1.11022302462516E-15,0.0));
#241=DIRECTION('',(0.0,0.0,-1.0));
#242=DIRECTION('',(-0.866025403784439,-0.5,0.0));
#243=DIRECTION('',(0.5,0.866025403784439,0.0));
#244=DIRECTION('',(0.0,0.0,-1.0));
#245=DIRECTION('',(-0.866025403784439,-0.5,0.0));
#246=DIRECTION('',(0.0,0.0,1.0));
#247=DIRECTION('',(-0.866025403784438,-0.5,0.0));
#248=DIRECTION('',(-8.02496239199442E-17,2.00772615214366E-16,1.0));
#249=DIRECTION('',(-0.5,-0.866025403784439,1.33749373199907E-16));
#250=DIRECTION('',(8.02496239199442E-17,-2.00772615214366E-16,-1.0));
#251=DIRECTION('',(-0.866025403784439,0.5,-1.69884520566002E-16));
#252=DIRECTION('',(-0.5,-0.866025403784439,0.0));
#253=DIRECTION('',(-8.02496239199442E-17,2.00772615214366E-16,1.0));
#254=DIRECTION('',(1.0,1.11022302462516E-15,8.0249623919944E-17));
#255=DIRECTION('',(8.02496239199442E-17,-2.00772615214366E-16,-1.0));
#256=DIRECTION('',(1.11022302462516E-15,-1.0,2.00772615214366E-16));
#257=DIRECTION('',(1.0,1.11022302462516E-15,0.0));
#258=DIRECTION('',(-0.500000000000001,0.866025403784438,-2.13998997119851E-16));
#259=DIRECTION('',(8.02496239199442E-17,-2.00772615214366E-16,-1.0));
#260=DIRECTION('',(-8.02496239199442E-17,2.00772615214366E-16,1.0));
#261=DIRECTION('',(0.866025403784438,0.500000000000001,-3.0888094648364E-17));
#262=DIRECTION('',(-0.500000000000001,0.866025403784438,0.0));
#263=DIRECTION('',(0.0,0.0,1.0));
#264=DIRECTION('',(-0.866025403784439,-0.500000000000001,0.0));
#265=DIRECTION('',(-8.02496239199442E-17,2.00772615214366E-16,1.0));
#266=DIRECTION('',(-0.5,0.866025403784439,-2.13998997119851E-16));
#267=DIRECTION('',(-8.02496239199442E-17,2.00772615214366E-16,1.0));
#268=DIRECTION('',(-0.500000000000001,0.866025403784439,-2.13998997119851E-16));
#269=DIRECTION('',(-8.02496239199442E-17,2.00772615214366E-16,1.0));
#270=DIRECTION('',(-0.5,0.866025403784439,-2.13998997119851E-16));
#271=DIRECTION('',(-8.02496239199442E-17,2.00772615214366E-16,1.0));
#272=DIRECTION('',(-0.5,0.866025403784438,-2.13998997119851E-16));
#273=DIRECTION('',(-8.02496239199442E-17,2.00772615214366E-16,1.0));
#274=DIRECTION('',(-0.5,0.866025403784439,-2.13998997119851E-16));
#275=DIRECTION('',(-8.02496239199442E-17,2.00772615214366E-16,1.0));
#276=DIRECTION('',(-0.5,0.866025403784439,-2.13998997119851E-16));
#277=DIRECTION('',(-8.02496239199442E-17,2.00772615214366E-16,1.0));
#278=DIRECTION('',(-0.500000000000001,0.866025403784439,-2.13998997119851E-16));
#279=DIRECTION('',(0.0,0.0,1.0));
#280=DIRECTION('',(-0.866025403784439,-0.500000000000001,0.0));
#281=CARTESIAN_POINT('',(0.0,0.0,0.0));
#284=CARTESIAN_POINT('',(25.4340835773942,3.571875,0.0));
#285=CARTESIAN_POINT('',(22.2261811442094,9.128125,0.0));
#286=CARTESIAN_POINT('',(19.0182787110245,14.684375,1.45061432002238E-15));
#287=CARTESIAN_POINT('',(15.8103762778396,20.240625,-3.67761376907081E-17));
#288=CARTESIAN_POINT('',(14.7792647814588,22.0265625,-5.14865927669915E-16));
#289=CARTESIAN_POINT('',(12.7170417886971,22.0265625,-2.67283715002112E-16));
#290=CARTESIAN_POINT('',(11.6859302923163,20.240625,-2.02268757298896E-16));
#291=CARTESIAN_POINT('',(8.47802785913141,14.684375,0.0));
#292=CARTESIAN_POINT('',(5.27012542594653,9.128125,-4.31098058485527E-16));
#293=CARTESIAN_POINT('',(2.06222299276168,3.57187499999997,-2.02268757298895E-16));
#294=CARTESIAN_POINT('',(1.03111149638084,1.78593749999997,-1.28716481917478E-16));
#295=CARTESIAN_POINT('',(2.06222299276169,-1.89848137210902E-14,3.15880754093405E-16));
#296=CARTESIAN_POINT('',(4.12444598552338,-1.59872115546023E-14,2.39044894989604E-16));
#297=CARTESIAN_POINT('',(10.5402508518931,-6.66133814775094E-15,0.0));
#298=CARTESIAN_POINT('',(16.9560557182628,-2.66453525910038E-15,-1.01951626153686E-15));
#299=CARTESIAN_POINT('',(23.3718605846326,7.99360577730113E-15,2.39044894989604E-16));
#300=CARTESIAN_POINT('',(25.4340835773942,1.19904086659517E-14,6.43582409587394E-16));
#301=CARTESIAN_POINT('',(26.4651950737751,1.78593750000001,3.67761376907082E-16));
#302=CARTESIAN_POINT('',(25.4340835773942,3.571875,-7.3552275381417E-17));
#303=CARTESIAN_POINT('',(0.0,0.0,0.0));
#304=CARTESIAN_POINT('',(13.7481532850779,7.9375,0.0));
#305=CARTESIAN_POINT('',(13.7481532850779,7.9375,-6.35));
#306=CARTESIAN_POINT('',(10.9985226280624,6.35,-6.35));
#307=CARTESIAN_POINT('',(20.6222299276169,11.90625,-6.35));
#308=CARTESIAN_POINT('',(15.8103762778396,20.240625,-6.35));
#309=CARTESIAN_POINT('',(25.4340835773942,3.571875,-6.35));
#310=CARTESIAN_POINT('',(23.3718605846326,2.38125,-6.35));
#311=CARTESIAN_POINT('',(23.3718605846326,5.20417042793042E-15,-6.35));
#312=CARTESIAN_POINT('',(11.2865464393848,-6.93889390390723E-15,-6.35));
#313=CARTESIAN_POINT('',(4.12444598552338,-1.38777878078145E-14,-6.35));
#314=CARTESIAN_POINT('',(4.12444598552338,2.38124999999998,-6.35));
#315=CARTESIAN_POINT('',(2.06222299276168,3.57187499999998,-6.35));
#316=CARTESIAN_POINT('',(5.64327321969237,9.77443593749999,-6.35));
#317=CARTESIAN_POINT('',(11.6859302923163,20.240625,-6.35));
#318=CARTESIAN_POINT('',(13.748153285078,19.05,-6.35));
#319=CARTESIAN_POINT('',(13.6108937586588,7.42524047358084,-6.35));
#320=CARTESIAN_POINT('',(2.06222299276168,3.57187499999998,-2.60208521396521E-15));
#321=CARTESIAN_POINT('',(2.06222299276168,3.57187499999998,-2.50754278452447E-15));
#322=CARTESIAN_POINT('',(6.87407664253898,11.90625,-3.79470760369927E-15));
#323=CARTESIAN_POINT('',(11.6859302923163,20.240625,-5.08187242287406E-15));
#324=CARTESIAN_POINT('',(11.6859302923163,20.240625,-5.20417042793042E-15));
#325=CARTESIAN_POINT('',(5.64327321969237,9.77443593749999,-3.4654692310232E-15));
#326=CARTESIAN_POINT('',(23.3718605846326,5.20417042793042E-15,3.85185988877447E-31));
#327=CARTESIAN_POINT('',(23.3718605846326,5.20417042793042E-15,-8.03176969377246E-17));
#328=CARTESIAN_POINT('',(13.748153285078,-3.46944695195361E-15,-8.52616588442601E-16));
#329=CARTESIAN_POINT('',(4.12444598552338,-1.21430643318377E-14,-1.62491547994748E-15));
#330=CARTESIAN_POINT('',(4.12444598552338,-1.21430643318377E-14,-1.73472347597681E-15));
#331=CARTESIAN_POINT('',(11.2865464393848,-5.20417042793042E-15,-1.05015961204824E-15));
#332=CARTESIAN_POINT('',(20.6222299276169,11.90625,-2.69142347297802E-15));
#333=CARTESIAN_POINT('',(25.4340835773942,3.571875,-6.31959762298349E-16));
#334=CARTESIAN_POINT('',(15.8103762778396,20.240625,-4.75088718365768E-15));
#335=CARTESIAN_POINT('',(25.4340835773942,3.571875,-8.67361737988404E-16));
#336=CARTESIAN_POINT('',(15.8103762778396,20.240625,-5.20417042793042E-15));
#337=CARTESIAN_POINT('',(20.6222299276169,11.90625,-2.69142347297802E-15));
#338=CARTESIAN_POINT('',(13.7481532850779,7.9375,0.0));
#339=CARTESIAN_POINT('',(10.9985226280624,6.35,0.0));
#340=CARTESIAN_POINT('',(23.3718605846325,2.38125,-5.58407486916932E-16));
#341=CARTESIAN_POINT('',(13.748153285078,19.05,-4.67733490827627E-15));
#342=CARTESIAN_POINT('',(4.12444598552338,2.38124999999998,-2.10300526992668E-15));
#343=CARTESIAN_POINT('',(13.7481532850779,7.9375,-2.44624922170663E-15));
#344=CARTESIAN_POINT('',(23.3718605846325,2.38125,-8.67361737988404E-16));
#345=CARTESIAN_POINT('',(4.12444598552338,2.38124999999998,-2.60208521396521E-15));
#346=CARTESIAN_POINT('',(13.748153285078,19.05,-5.20417042793042E-15));
#347=CARTESIAN_POINT('',(13.7481532850779,7.9375,-33.3676978394524));
#348=MECHANICAL_DESIGN_GEOMETRIC_PRESENTATION_REPRESENTATION('',(#193,#194,#195,
     #196),#349);
#349=(GEOMETRIC_REPRESENTATION_CONTEXT(3)GLOBAL_UNCERTAINTY_ASSIGNED_CONTEXT((#350))
     GLOBAL_UNIT_ASSIGNED_CONTEXT((#356,#352,#351))REPRESENTATION_CONTEXT('TNMM270624',
     'TOP_LEVEL_ASSEMBLY_PART'));
#350=UNCERTAINTY_MEASURE_WITH_UNIT(LENGTH_MEASURE(2.0E-5),#356,'DISTANCE_ACCURACY_VALUE',
     'Maximum Tolerance applied to model');
#351=(NAMED_UNIT(*)SI_UNIT($,.STERADIAN.)SOLID_ANGLE_UNIT());
#352=(CONVERSION_BASED_UNIT('DEGREE',#354)NAMED_UNIT(#353)PLANE_ANGLE_UNIT());
#353=DIMENSIONAL_EXPONENTS(0.0,0.0,0.0,0.0,0.0,0.0,0.0);
#354=PLANE_ANGLE_MEASURE_WITH_UNIT(PLANE_ANGLE_MEASURE(0.0174532925),#355);
#355=(NAMED_UNIT(*)PLANE_ANGLE_UNIT()SI_UNIT($,.RADIAN.));
#356=(LENGTH_UNIT()NAMED_UNIT(*)SI_UNIT(.MILLI.,.METRE.));
#357=CONSTRUCTIVE_GEOMETRY_REPRESENTATION('supplemental geometry',(#210,#211),#349);
#358=CONSTRUCTIVE_GEOMETRY_REPRESENTATION_RELATIONSHIP('supplemental geometry','contains PCS and MCS coordinate systems',
     #24,#357);
ENDSEC;
END-ISO-10303-21;
