ISO-10303-21;
HEADER;
FILE_DESCRIPTION(
/* description */ (''),
/* implementation_level */ '2;1');
FILE_NAME(
/* name */ 'SNMM190624.stp',
/* time_stamp */ '2017-03-21T10:54:24',
/* author */ ('Sandvik Coromant R&D'),
/* organization */ ('Sandvik Machining Solutions'),
/* preprocessor_version */ 'ST-DEVELOPER v15',
/* originating_system */ 'SIEMENS PLM Software NX v8.5.3.3(64 bits)',
/* authorization */ '');
FILE_SCHEMA(('AUTOMOTIVE_DESIGN'));
ENDSEC;
DATA;
#10=GEOMETRICALLY_BOUNDED_WIREFRAME_SHAPE_REPRESENTATION('IsoTurningInsert-None',
     (#25),#491);
#11=SHAPE_REPRESENTATION_RELATIONSHIP('None','relationship between IsoTurningInsert-None and IsoTurningInsert-None',
     #24,#13);
#12=SHAPE_REPRESENTATION_RELATIONSHIP('None','relationship between IsoTurningInsert-None and IsoTurningInsert-None',
     #24,#10);
#13=ADVANCED_BREP_SHAPE_REPRESENTATION('IsoTurningInsert-None',(#31),#491);
#14=SHAPE_DEFINITION_REPRESENTATION(#15,#24);
#15=PRODUCT_DEFINITION_SHAPE('','',#16);
#16=PRODUCT_DEFINITION(' ','',#18,#17);
#17=PRODUCT_DEFINITION_CONTEXT('part definition',#23,'design');
#18=PRODUCT_DEFINITION_FORMATION_WITH_SPECIFIED_SOURCE(' ',' ',#20,.NOT_KNOWN.);
#19=PRODUCT_RELATED_PRODUCT_CATEGORY('part','',(#20));
#20=PRODUCT('IsoTurningInsert','IsoTurningInsert',' ',(#21));
#21=PRODUCT_CONTEXT(' ',#23,'mechanical');
#22=APPLICATION_PROTOCOL_DEFINITION('international standard','automotive_design',
     2010,#23);
#23=APPLICATION_CONTEXT('core data for automotive mechanical design processes');
#24=SHAPE_REPRESENTATION('IsoTurningInsert-None',(#248),#491);
#25=GEOMETRIC_CURVE_SET('geometric curve set',(#228));
#26=SURFACE_STYLE_USAGE(.BOTH.,#27);
#27=SURFACE_SIDE_STYLE('',(#28));
#28=SURFACE_STYLE_FILL_AREA(#29);
#29=FILL_AREA_STYLE('',(#30));
#30=FILL_AREA_STYLE_COLOUR('',#247);
#31=MANIFOLD_SOLID_BREP('CUT',#32);
#32=CLOSED_SHELL('',(#46,#47,#48,#49,#50,#51,#52,#53,#54,#55,#56));
#33=CYLINDRICAL_SURFACE('',#267,2.38125);
#34=CYLINDRICAL_SURFACE('',#268,2.38125);
#35=CYLINDRICAL_SURFACE('',#269,2.38125);
#36=CYLINDRICAL_SURFACE('',#270,2.38125);
#37=CYLINDRICAL_SURFACE('',#271,3.9625);
#38=FACE_OUTER_BOUND('',#103,.T.);
#39=FACE_OUTER_BOUND('',#104,.T.);
#40=FACE_OUTER_BOUND('',#105,.T.);
#41=FACE_OUTER_BOUND('',#106,.T.);
#42=FACE_OUTER_BOUND('',#109,.T.);
#43=FACE_OUTER_BOUND('',#110,.T.);
#44=FACE_OUTER_BOUND('',#111,.T.);
#45=FACE_OUTER_BOUND('',#112,.T.);
#46=ADVANCED_FACE('',(#95,#96),#57,.F.);
#47=ADVANCED_FACE('',(#38),#58,.T.);
#48=ADVANCED_FACE('',(#39),#59,.T.);
#49=ADVANCED_FACE('',(#40),#60,.T.);
#50=ADVANCED_FACE('',(#41),#61,.T.);
#51=ADVANCED_FACE('',(#97,#98),#62,.T.);
#52=ADVANCED_FACE('',(#42),#33,.T.);
#53=ADVANCED_FACE('',(#43),#34,.T.);
#54=ADVANCED_FACE('',(#44),#35,.T.);
#55=ADVANCED_FACE('',(#45),#36,.T.);
#56=ADVANCED_FACE('',(#99,#100),#37,.F.);
#57=PLANE('',#256);
#58=PLANE('',#257);
#59=PLANE('',#258);
#60=PLANE('',#259);
#61=PLANE('',#260);
#62=PLANE('',#266);
#63=LINE('',#437,#79);
#64=LINE('',#442,#80);
#65=LINE('',#446,#81);
#66=LINE('',#450,#82);
#67=LINE('',#454,#83);
#68=LINE('',#457,#84);
#69=LINE('',#458,#85);
#70=LINE('',#460,#86);
#71=LINE('',#462,#87);
#72=LINE('',#464,#88);
#73=LINE('',#466,#89);
#74=LINE('',#468,#90);
#75=LINE('',#470,#91);
#76=LINE('',#472,#92);
#77=LINE('',#474,#93);
#78=LINE('',#476,#94);
#79=VECTOR('',#280,1.0);
#80=VECTOR('',#283,1.0);
#81=VECTOR('',#286,1.0);
#82=VECTOR('',#289,1.0);
#83=VECTOR('',#294,1.0);
#84=VECTOR('',#295,1.0);
#85=VECTOR('',#296,1.0);
#86=VECTOR('',#299,1.0);
#87=VECTOR('',#300,1.0);
#88=VECTOR('',#301,1.0);
#89=VECTOR('',#304,1.0);
#90=VECTOR('',#305,1.0);
#91=VECTOR('',#306,1.0);
#92=VECTOR('',#309,1.0);
#93=VECTOR('',#310,1.0);
#94=VECTOR('',#311,1.0);
#95=FACE_BOUND('',#101,.T.);
#96=FACE_BOUND('',#102,.T.);
#97=FACE_BOUND('',#107,.T.);
#98=FACE_BOUND('',#108,.T.);
#99=FACE_BOUND('',#113,.T.);
#100=FACE_BOUND('',#114,.T.);
#101=EDGE_LOOP('',(#115));
#102=EDGE_LOOP('',(#116,#117,#118,#119,#120,#121,#122,#123));
#103=EDGE_LOOP('',(#124,#125,#126,#127));
#104=EDGE_LOOP('',(#128,#129,#130,#131));
#105=EDGE_LOOP('',(#132,#133,#134,#135));
#106=EDGE_LOOP('',(#136,#137,#138,#139));
#107=EDGE_LOOP('',(#140));
#108=EDGE_LOOP('',(#141,#142,#143,#144,#145,#146,#147,#148));
#109=EDGE_LOOP('',(#149,#150,#151,#152));
#110=EDGE_LOOP('',(#153,#154,#155,#156));
#111=EDGE_LOOP('',(#157,#158,#159,#160));
#112=EDGE_LOOP('',(#161,#162,#163,#164));
#113=EDGE_LOOP('',(#165));
#114=EDGE_LOOP('',(#166));
#115=ORIENTED_EDGE('',*,*,#185,.T.);
#116=ORIENTED_EDGE('',*,*,#186,.T.);
#117=ORIENTED_EDGE('',*,*,#187,.T.);
#118=ORIENTED_EDGE('',*,*,#188,.T.);
#119=ORIENTED_EDGE('',*,*,#189,.T.);
#120=ORIENTED_EDGE('',*,*,#190,.T.);
#121=ORIENTED_EDGE('',*,*,#191,.T.);
#122=ORIENTED_EDGE('',*,*,#192,.T.);
#123=ORIENTED_EDGE('',*,*,#193,.T.);
#124=ORIENTED_EDGE('',*,*,#194,.F.);
#125=ORIENTED_EDGE('',*,*,#195,.T.);
#126=ORIENTED_EDGE('',*,*,#186,.F.);
#127=ORIENTED_EDGE('',*,*,#196,.T.);
#128=ORIENTED_EDGE('',*,*,#192,.F.);
#129=ORIENTED_EDGE('',*,*,#197,.T.);
#130=ORIENTED_EDGE('',*,*,#198,.F.);
#131=ORIENTED_EDGE('',*,*,#199,.T.);
#132=ORIENTED_EDGE('',*,*,#190,.F.);
#133=ORIENTED_EDGE('',*,*,#200,.T.);
#134=ORIENTED_EDGE('',*,*,#201,.F.);
#135=ORIENTED_EDGE('',*,*,#202,.T.);
#136=ORIENTED_EDGE('',*,*,#188,.F.);
#137=ORIENTED_EDGE('',*,*,#203,.T.);
#138=ORIENTED_EDGE('',*,*,#204,.F.);
#139=ORIENTED_EDGE('',*,*,#205,.T.);
#140=ORIENTED_EDGE('',*,*,#206,.F.);
#141=ORIENTED_EDGE('',*,*,#204,.T.);
#142=ORIENTED_EDGE('',*,*,#207,.T.);
#143=ORIENTED_EDGE('',*,*,#194,.T.);
#144=ORIENTED_EDGE('',*,*,#208,.T.);
#145=ORIENTED_EDGE('',*,*,#198,.T.);
#146=ORIENTED_EDGE('',*,*,#209,.T.);
#147=ORIENTED_EDGE('',*,*,#201,.T.);
#148=ORIENTED_EDGE('',*,*,#210,.T.);
#149=ORIENTED_EDGE('',*,*,#187,.F.);
#150=ORIENTED_EDGE('',*,*,#195,.F.);
#151=ORIENTED_EDGE('',*,*,#207,.F.);
#152=ORIENTED_EDGE('',*,*,#203,.F.);
#153=ORIENTED_EDGE('',*,*,#189,.F.);
#154=ORIENTED_EDGE('',*,*,#205,.F.);
#155=ORIENTED_EDGE('',*,*,#210,.F.);
#156=ORIENTED_EDGE('',*,*,#200,.F.);
#157=ORIENTED_EDGE('',*,*,#191,.F.);
#158=ORIENTED_EDGE('',*,*,#202,.F.);
#159=ORIENTED_EDGE('',*,*,#209,.F.);
#160=ORIENTED_EDGE('',*,*,#197,.F.);
#161=ORIENTED_EDGE('',*,*,#193,.F.);
#162=ORIENTED_EDGE('',*,*,#199,.F.);
#163=ORIENTED_EDGE('',*,*,#208,.F.);
#164=ORIENTED_EDGE('',*,*,#196,.F.);
#165=ORIENTED_EDGE('',*,*,#185,.F.);
#166=ORIENTED_EDGE('',*,*,#206,.T.);
#167=VERTEX_POINT('',#436);
#168=VERTEX_POINT('',#438);
#169=VERTEX_POINT('',#439);
#170=VERTEX_POINT('',#441);
#171=VERTEX_POINT('',#443);
#172=VERTEX_POINT('',#445);
#173=VERTEX_POINT('',#447);
#174=VERTEX_POINT('',#449);
#175=VERTEX_POINT('',#451);
#176=VERTEX_POINT('',#455);
#177=VERTEX_POINT('',#456);
#178=VERTEX_POINT('',#461);
#179=VERTEX_POINT('',#463);
#180=VERTEX_POINT('',#467);
#181=VERTEX_POINT('',#469);
#182=VERTEX_POINT('',#473);
#183=VERTEX_POINT('',#475);
#184=VERTEX_POINT('',#479);
#185=EDGE_CURVE('',#167,#167,#211,.T.);
#186=EDGE_CURVE('',#168,#169,#63,.T.);
#187=EDGE_CURVE('',#169,#170,#212,.T.);
#188=EDGE_CURVE('',#170,#171,#64,.T.);
#189=EDGE_CURVE('',#171,#172,#213,.T.);
#190=EDGE_CURVE('',#172,#173,#65,.T.);
#191=EDGE_CURVE('',#173,#174,#214,.T.);
#192=EDGE_CURVE('',#174,#175,#66,.T.);
#193=EDGE_CURVE('',#175,#168,#215,.T.);
#194=EDGE_CURVE('',#176,#177,#67,.T.);
#195=EDGE_CURVE('',#176,#169,#68,.T.);
#196=EDGE_CURVE('',#168,#177,#69,.T.);
#197=EDGE_CURVE('',#174,#178,#70,.T.);
#198=EDGE_CURVE('',#179,#178,#71,.T.);
#199=EDGE_CURVE('',#179,#175,#72,.T.);
#200=EDGE_CURVE('',#172,#180,#73,.T.);
#201=EDGE_CURVE('',#181,#180,#74,.T.);
#202=EDGE_CURVE('',#181,#173,#75,.T.);
#203=EDGE_CURVE('',#170,#182,#76,.T.);
#204=EDGE_CURVE('',#183,#182,#77,.T.);
#205=EDGE_CURVE('',#183,#171,#78,.T.);
#206=EDGE_CURVE('',#184,#184,#216,.T.);
#207=EDGE_CURVE('',#182,#176,#217,.T.);
#208=EDGE_CURVE('',#177,#179,#218,.T.);
#209=EDGE_CURVE('',#178,#181,#219,.T.);
#210=EDGE_CURVE('',#180,#183,#220,.T.);
#211=CIRCLE('',#251,3.9625);
#212=CIRCLE('',#252,2.38125);
#213=CIRCLE('',#253,2.38125);
#214=CIRCLE('',#254,2.38125);
#215=CIRCLE('',#255,2.38125);
#216=CIRCLE('',#261,3.9625);
#217=CIRCLE('',#262,2.38125);
#218=CIRCLE('',#263,2.38125);
#219=CIRCLE('',#264,2.38125);
#220=CIRCLE('',#265,2.38125);
#221=CURVE_STYLE('',#225,POSITIVE_LENGTH_MEASURE(0.18),#224);
#222=CURVE_STYLE('',#226,POSITIVE_LENGTH_MEASURE(0.18),#246);
#223=CURVE_STYLE('',#227,POSITIVE_LENGTH_MEASURE(0.18),#246);
#224=DRAUGHTING_PRE_DEFINED_COLOUR('blue');
#225=DRAUGHTING_PRE_DEFINED_CURVE_FONT('continuous');
#226=DRAUGHTING_PRE_DEFINED_CURVE_FONT('continuous');
#227=DRAUGHTING_PRE_DEFINED_CURVE_FONT('continuous');
#228=B_SPLINE_CURVE_WITH_KNOTS('CUTTING EDGE LINE',5,(#339,#340,#341,#342,#343,#344,
     #345,#346,#347,#348,#349,#350,#351,#352,#353,#354,#355,#356,#357,#358,#359,
     #360,#361,#362,#363,#364,#365,#366,#367,#368,#369,#370,#371,#372,#373,#374,
     #375,#376,#377,#378,#379,#380,#381,#382,#383,#384,#385,#386,#387,#388,#389,
     #390,#391,#392,#393,#394,#395,#396,#397,#398,#399,#400,#401,#402,#403,#404,
     #405,#406,#407,#408,#409,#410,#411,#412,#413,#414,#415,#416,#417,#418,#419,
     #420,#421,#422,#423,#424,#425,#426,#427,#428,#429,#430,#431,#432),.UNSPECIFIED.,
     .T.,.F.,(1,1,4,4,1,1,1,1,1,1,1,1,1,1,1,1,1,1,1,4,4,1,1,1,1,1,1,1,1,1,1,1,1,
     1,1,1,4,4,1,1,1,1,1,1,1,1,1,1,1,1,1,1,1,4,4,1,1,1,1,1,1,1,1,1,1,1,1,1,1,1,4,
     2),(-0.00648378097500002,-0.00324189048750001,0.0,0.1981297522,0.2013716426875,
     0.204613533175,0.2078554236625,0.21109731415,0.2143392046375,0.217581095125,
     0.2208229856125,0.2240648761,0.2273067665875,0.230548657075,0.2337905475625,
     0.23703243805,0.2402743285375,0.243516219025,0.2467581095125,0.25,0.4481297522,
     0.4513716426875,0.454613533175,0.4578554236625,0.46109731415,0.4643392046375,
     0.467581095125,0.4708229856125,0.4740648761,0.4773067665875,0.480548657075,
     0.4837905475625,0.48703243805,0.4902743285375,0.493516219025,0.4967581095125,
     0.5,0.6981297522,0.7013716426875,0.704613533175,0.7078554236625,0.71109731415,
     0.7143392046375,0.717581095125,0.7208229856125,0.7240648761,0.7273067665875,
     0.730548657075,0.7337905475625,0.73703243805,0.7402743285375,0.743516219025,
     0.7467581095125,0.75,0.9481297522,0.9513716426875,0.954613533175,0.9578554236625,
     0.96109731415,0.9643392046375,0.967581095125,0.9708229856125,0.9740648761,0.9773067665875,
     0.980548657075,0.9837905475625,0.98703243805,0.9902743285375,0.993516219025,
     0.9967581095125,1.0,1.1981297522),.UNSPECIFIED.);
#229=PRESENTATION_LAYER_ASSIGNMENT('1','Layer 1',(#228,#249,#250,#31));
#232=STYLED_ITEM('',(#238),#228);
#233=STYLED_ITEM('',(#239),#249);
#234=STYLED_ITEM('',(#240),#250);
#235=STYLED_ITEM('',(#241),#31);
#236=PRESENTATION_STYLE_ASSIGNMENT((#242));
#237=PRESENTATION_STYLE_ASSIGNMENT((#243));
#238=PRESENTATION_STYLE_ASSIGNMENT((#221));
#239=PRESENTATION_STYLE_ASSIGNMENT((#222));
#240=PRESENTATION_STYLE_ASSIGNMENT((#223));
#241=PRESENTATION_STYLE_ASSIGNMENT((#26));
#242=POINT_STYLE('',#244,POSITIVE_LENGTH_MEASURE(3.0),#246);
#243=POINT_STYLE('',#245,POSITIVE_LENGTH_MEASURE(3.0),#246);
#244=PRE_DEFINED_POINT_MARKER_SYMBOL('plus');
#245=PRE_DEFINED_POINT_MARKER_SYMBOL('plus');
#246=COLOUR_RGB('Medium Maroon',0.6,0.4,0.4);
#247=COLOUR_RGB('IsoInsertColor',0.8,0.8,0.8);
#248=AXIS2_PLACEMENT_3D('',#336,#272,#273);
#249=AXIS2_PLACEMENT_3D('PCS',#433,#274,#275);
#250=AXIS2_PLACEMENT_3D('MCS',#434,#276,#277);
#251=AXIS2_PLACEMENT_3D('',#435,#278,#279);
#252=AXIS2_PLACEMENT_3D('',#440,#281,#282);
#253=AXIS2_PLACEMENT_3D('',#444,#284,#285);
#254=AXIS2_PLACEMENT_3D('',#448,#287,#288);
#255=AXIS2_PLACEMENT_3D('',#452,#290,#291);
#256=AXIS2_PLACEMENT_3D('',#453,#292,#293);
#257=AXIS2_PLACEMENT_3D('',#459,#297,#298);
#258=AXIS2_PLACEMENT_3D('',#465,#302,#303);
#259=AXIS2_PLACEMENT_3D('',#471,#307,#308);
#260=AXIS2_PLACEMENT_3D('',#477,#312,#313);
#261=AXIS2_PLACEMENT_3D('',#478,#314,#315);
#262=AXIS2_PLACEMENT_3D('',#480,#316,#317);
#263=AXIS2_PLACEMENT_3D('',#481,#318,#319);
#264=AXIS2_PLACEMENT_3D('',#482,#320,#321);
#265=AXIS2_PLACEMENT_3D('',#483,#322,#323);
#266=AXIS2_PLACEMENT_3D('',#484,#324,#325);
#267=AXIS2_PLACEMENT_3D('',#485,#326,#327);
#268=AXIS2_PLACEMENT_3D('',#486,#328,#329);
#269=AXIS2_PLACEMENT_3D('',#487,#330,#331);
#270=AXIS2_PLACEMENT_3D('',#488,#332,#333);
#271=AXIS2_PLACEMENT_3D('',#489,#334,#335);
#272=DIRECTION('',(0.0,0.0,1.0));
#273=DIRECTION('',(1.0,0.0,0.0));
#274=DIRECTION('',(0.0,0.0,1.0));
#275=DIRECTION('',(1.0,0.0,0.0));
#276=DIRECTION('',(0.0,0.0,1.0));
#277=DIRECTION('',(1.0,0.0,0.0));
#278=DIRECTION('',(0.0,0.0,1.0));
#279=DIRECTION('',(-0.707106781186547,-0.707106781186548,0.0));
#280=DIRECTION('',(1.0,0.0,0.0));
#281=DIRECTION('',(0.0,0.0,-1.0));
#282=DIRECTION('',(-0.707106781186548,-0.707106781186548,0.0));
#283=DIRECTION('',(6.66133814775094E-16,-1.0,0.0));
#284=DIRECTION('',(0.0,0.0,-1.0));
#285=DIRECTION('',(-0.707106781186548,-0.707106781186548,0.0));
#286=DIRECTION('',(-1.0,0.0,0.0));
#287=DIRECTION('',(0.0,0.0,-1.0));
#288=DIRECTION('',(-0.707106781186547,-0.707106781186548,0.0));
#289=DIRECTION('',(-6.66133814775094E-16,1.0,0.0));
#290=DIRECTION('',(0.0,0.0,-1.0));
#291=DIRECTION('',(-0.707106781186547,-0.707106781186548,0.0));
#292=DIRECTION('',(0.0,0.0,1.0));
#293=DIRECTION('',(-0.707106781186547,-0.707106781186548,0.0));
#294=DIRECTION('',(-1.0,0.0,-6.99353086378051E-17));
#295=DIRECTION('',(6.99353086378051E-17,-2.45502073030628E-16,-1.0));
#296=DIRECTION('',(-6.99353086378051E-17,2.45502073030628E-16,1.0));
#297=DIRECTION('',(0.0,1.0,-2.45502073030628E-16));
#298=DIRECTION('',(-1.0,0.0,0.0));
#299=DIRECTION('',(-6.99353086378051E-17,2.45502073030628E-16,1.0));
#300=DIRECTION('',(6.66133814775094E-16,-1.0,2.45502073030628E-16));
#301=DIRECTION('',(6.99353086378051E-17,-2.45502073030628E-16,-1.0));
#302=DIRECTION('',(-1.0,-6.66133814775094E-16,-6.9935308637805E-17));
#303=DIRECTION('',(6.66133814775094E-16,-1.0,0.0));
#304=DIRECTION('',(-6.99353086378051E-17,2.45502073030628E-16,1.0));
#305=DIRECTION('',(1.0,0.0,6.99353086378051E-17));
#306=DIRECTION('',(6.99353086378051E-17,-2.45502073030628E-16,-1.0));
#307=DIRECTION('',(0.0,-1.0,2.45502073030628E-16));
#308=DIRECTION('',(1.0,0.0,0.0));
#309=DIRECTION('',(-6.99353086378051E-17,2.45502073030628E-16,1.0));
#310=DIRECTION('',(-6.66133814775094E-16,1.0,-2.45502073030628E-16));
#311=DIRECTION('',(6.99353086378051E-17,-2.45502073030628E-16,-1.0));
#312=DIRECTION('',(1.0,6.66133814775094E-16,6.9935308637805E-17));
#313=DIRECTION('',(-6.66133814775094E-16,1.0,0.0));
#314=DIRECTION('',(0.0,0.0,1.0));
#315=DIRECTION('',(-0.707106781186547,-0.707106781186548,0.0));
#316=DIRECTION('',(-6.99353086378051E-17,2.45502073030628E-16,1.0));
#317=DIRECTION('',(-0.707106781186548,0.707106781186548,-2.23047911617479E-16));
#318=DIRECTION('',(-6.99353086378051E-17,2.45502073030628E-16,1.0));
#319=DIRECTION('',(-0.707106781186548,0.707106781186548,-2.23047911617479E-16));
#320=DIRECTION('',(-6.99353086378051E-17,2.45502073030628E-16,1.0));
#321=DIRECTION('',(-0.707106781186548,0.707106781186547,-2.23047911617479E-16));
#322=DIRECTION('',(-6.99353086378051E-17,2.45502073030628E-16,1.0));
#323=DIRECTION('',(-0.707106781186548,0.707106781186547,-2.23047911617478E-16));
#324=DIRECTION('',(-6.99353086378051E-17,2.45502073030628E-16,1.0));
#325=DIRECTION('',(-0.707106781186548,0.707106781186547,-2.23047911617478E-16));
#326=DIRECTION('',(-6.99353086378051E-17,2.45502073030628E-16,1.0));
#327=DIRECTION('',(-0.707106781186548,0.707106781186548,-2.23047911617479E-16));
#328=DIRECTION('',(-6.99353086378051E-17,2.45502073030628E-16,1.0));
#329=DIRECTION('',(-0.707106781186548,0.707106781186547,-2.23047911617478E-16));
#330=DIRECTION('',(-6.99353086378051E-17,2.45502073030628E-16,1.0));
#331=DIRECTION('',(-0.707106781186548,0.707106781186547,-2.23047911617478E-16));
#332=DIRECTION('',(-6.99353086378051E-17,2.45502073030628E-16,1.0));
#333=DIRECTION('',(-0.707106781186548,0.707106781186548,-2.23047911617479E-16));
#334=DIRECTION('',(0.0,0.0,1.0));
#335=DIRECTION('',(-0.707106781186547,-0.707106781186548,0.0));
#336=CARTESIAN_POINT('',(0.0,0.0,0.0));
#339=CARTESIAN_POINT('',(16.7108449505675,-3.5527136788005E-15,5.87545734764216E-16));
#340=CARTESIAN_POINT('',(13.81125,-3.5527136788005E-15,0.0));
#341=CARTESIAN_POINT('',(10.95375,-3.5527136788005E-15,2.92300905702092E-17));
#342=CARTESIAN_POINT('',(8.09625,-5.32907051820075E-15,8.76902717106276E-17));
#343=CARTESIAN_POINT('',(5.23875,-3.5527136788005E-15,1.75380543421255E-16));
#344=CARTESIAN_POINT('',(2.33915504943249,-3.5527136788005E-15,2.94524181156283E-16));
#345=CARTESIAN_POINT('',(2.25496514829746,0.00186035156249353,2.98579064029854E-16));
#346=CARTESIAN_POINT('',(2.12393117138882,0.0104362455168996,3.03694198048343E-16));
#347=CARTESIAN_POINT('',(1.94894562427151,0.0342167959647597,3.07929562722208E-16));
#348=CARTESIAN_POINT('',(1.72578814651973,0.0861080301827641,3.08790896508652E-16));
#349=CARTESIAN_POINT('',(1.50373443800955,0.161262792671181,3.04696160517602E-16));
#350=CARTESIAN_POINT('',(1.28558696410323,0.260156891118248,2.9539716660603E-16));
#351=CARTESIAN_POINT('',(1.0753261047647,0.382544253278873,2.80735494785997E-16));
#352=CARTESIAN_POINT('',(0.876590181650203,0.527398142409918,2.60735147874359E-16));
#353=CARTESIAN_POINT('',(0.692919249883891,0.692919249883888,2.35587971678985E-16));
#354=CARTESIAN_POINT('',(0.527398142409927,0.876590181650203,2.05661036595652E-16));
#355=CARTESIAN_POINT('',(0.382544253278876,1.07532610476469,1.71470848135948E-16));
#356=CARTESIAN_POINT('',(0.260156891118246,1.28558696410325,1.33667677952799E-16));
#357=CARTESIAN_POINT('',(0.161262792671181,1.50373443800945,9.29632901327982E-17));
#358=CARTESIAN_POINT('',(0.086108030182773,1.72578814652006,5.018269517302E-17));
#359=CARTESIAN_POINT('',(0.0342167959647561,1.94894562427051,5.9410386193412E-18));
#360=CARTESIAN_POINT('',(0.0104362455169085,2.12393117139022,-2.96434547452292E-17));
#361=CARTESIAN_POINT('',(0.00186035156250064,2.25496514829746,-5.67776748234783E-17));
#362=CARTESIAN_POINT('',(-1.77635683940025E-15,2.33915504943248,-7.44042908984566E-17));
#363=CARTESIAN_POINT('',(-3.5527136788005E-15,5.23875,-4.99600361081319E-17));
#364=CARTESIAN_POINT('',(-7.105427357601E-15,8.09625,-3.33066907387546E-17));
#365=CARTESIAN_POINT('',(-8.88178419700125E-15,10.95375,-3.33066907387546E-17));
#366=CARTESIAN_POINT('',(-1.06581410364015E-14,13.81125,-4.9960036108132E-17));
#367=CARTESIAN_POINT('',(-1.24344978758018E-14,16.7108449505675,-9.50730861553486E-17));
#368=CARTESIAN_POINT('',(0.00186035156248465,16.7950348517025,-1.18327340428995E-16));
#369=CARTESIAN_POINT('',(0.0104362455169067,16.9260688286112,-1.53425946543587E-16));
#370=CARTESIAN_POINT('',(0.0342167959647348,17.1010543757285,-1.9792190788217E-16));
#371=CARTESIAN_POINT('',(0.0861080301827606,17.3242118534803,-2.50512092556262E-16));
#372=CARTESIAN_POINT('',(0.161262792671176,17.5462655619904,-2.98310139134324E-16));
#373=CARTESIAN_POINT('',(0.260156891118235,17.7644130358968,-3.40438359275838E-16));
#374=CARTESIAN_POINT('',(0.382544253278862,17.9746738952353,-3.75827791659132E-16));
#375=CARTESIAN_POINT('',(0.527398142409915,18.1734098183498,-4.03655835351735E-16));
#376=CARTESIAN_POINT('',(0.69291924988387,18.3570807501161,-4.23276314261412E-16));
#377=CARTESIAN_POINT('',(0.876590181650192,18.5226018575901,-4.34309093592309E-16));
#378=CARTESIAN_POINT('',(1.07532610476468,18.6674557467211,-4.36642525706851E-16));
#379=CARTESIAN_POINT('',(1.28558696410324,18.7898431088818,-4.30454079288369E-16));
#380=CARTESIAN_POINT('',(1.50373443800944,18.8887372073288,-4.16156840664925E-16));
#381=CARTESIAN_POINT('',(1.72578814652004,18.9638919698172,-3.94448758888463E-16));
#382=CARTESIAN_POINT('',(1.94894562427051,19.0157832040352,-3.66003280420098E-16));
#383=CARTESIAN_POINT('',(2.1239311713902,19.0395637544831,-3.38955679391311E-16));
#384=CARTESIAN_POINT('',(2.25496514829745,19.0481396484375,-3.16112499929348E-16));
#385=CARTESIAN_POINT('',(2.33915504943247,19.05,-3.00412027876347E-16));
#386=CARTESIAN_POINT('',(5.23874999999999,19.05,-1.75380543421255E-16));
#387=CARTESIAN_POINT('',(8.09624999999999,19.05,-1.16920362280837E-16));
#388=CARTESIAN_POINT('',(10.95375,19.05,-1.16920362280837E-16));
#389=CARTESIAN_POINT('',(13.81125,19.05,-1.75380543421255E-16));
#390=CARTESIAN_POINT('',(16.7108449505675,19.05,-2.94524181156283E-16));
#391=CARTESIAN_POINT('',(16.7950348517025,19.0481396484375,-2.98579064029854E-16));
#392=CARTESIAN_POINT('',(16.9260688286112,19.0395637544831,-3.03694198048343E-16));
#393=CARTESIAN_POINT('',(17.1010543757285,19.0157832040352,-3.07929562722208E-16));
#394=CARTESIAN_POINT('',(17.3242118534803,18.9638919698172,-3.08790896508652E-16));
#395=CARTESIAN_POINT('',(17.5462655619904,18.8887372073288,-3.04696160517602E-16));
#396=CARTESIAN_POINT('',(17.7644130358968,18.7898431088818,-2.9539716660603E-16));
#397=CARTESIAN_POINT('',(17.9746738952353,18.6674557467211,-2.80735494785996E-16));
#398=CARTESIAN_POINT('',(18.1734098183498,18.5226018575901,-2.60735147874359E-16));
#399=CARTESIAN_POINT('',(18.3570807501161,18.3570807501161,-2.35587971678984E-16));
#400=CARTESIAN_POINT('',(18.5226018575901,18.1734098183498,-2.05661036595652E-16));
#401=CARTESIAN_POINT('',(18.6674557467211,17.9746738952353,-1.71470848135948E-16));
#402=CARTESIAN_POINT('',(18.7898431088817,17.7644130358968,-1.33667677952799E-16));
#403=CARTESIAN_POINT('',(18.8887372073288,17.5462655619905,-9.29632901327978E-17));
#404=CARTESIAN_POINT('',(18.9638919698172,17.3242118534799,-5.01826951730199E-17));
#405=CARTESIAN_POINT('',(19.0157832040352,17.1010543757295,-5.94103861934087E-18));
#406=CARTESIAN_POINT('',(19.0395637544831,16.9260688286098,2.96434547452293E-17));
#407=CARTESIAN_POINT('',(19.0481396484375,16.7950348517025,5.67776748234785E-17));
#408=CARTESIAN_POINT('',(19.05,16.7108449505675,7.44042908984568E-17));
#409=CARTESIAN_POINT('',(19.05,13.81125,4.9960036108132E-17));
#410=CARTESIAN_POINT('',(19.05,10.95375,3.33066907387547E-17));
#411=CARTESIAN_POINT('',(19.05,8.09625,3.33066907387547E-17));
#412=CARTESIAN_POINT('',(19.05,5.23875,4.99600361081321E-17));
#413=CARTESIAN_POINT('',(19.05,2.33915504943248,9.50730861553488E-17));
#414=CARTESIAN_POINT('',(19.0481396484375,2.25496514829746,1.18555700511575E-16));
#415=CARTESIAN_POINT('',(19.0395637544831,2.12393117138883,1.54707006498117E-16));
#416=CARTESIAN_POINT('',(19.0157832040353,1.9489456242715,2.02122055053076E-16));
#417=CARTESIAN_POINT('',(18.9638919698172,1.72578814651973,2.61081942513489E-16));
#418=CARTESIAN_POINT('',(18.8887372073288,1.50373443800955,3.18105314086066E-16));
#419=CARTESIAN_POINT('',(18.7898431088818,1.28558696410323,3.72372887317205E-16));
#420=CARTESIAN_POINT('',(18.6674557467211,1.0753261047647,4.22785495262092E-16));
#421=CARTESIAN_POINT('',(18.5226018575901,0.876590181650217,4.68394503988805E-16));
#422=CARTESIAN_POINT('',(18.3570807501161,0.692919249883877,5.08332870406074E-16));
#423=CARTESIAN_POINT('',(18.1734098183498,0.527398142409936,5.41911446989019E-16));
#424=CARTESIAN_POINT('',(17.9746738952353,0.382544253278867,5.68639919658693E-16));
#425=CARTESIAN_POINT('',(17.7644130358967,0.260156891118259,5.88261211662619E-16));
#426=CARTESIAN_POINT('',(17.5462655619906,0.161262792671172,6.0074180157436E-16));
#427=CARTESIAN_POINT('',(17.3242118534799,0.0861080301827712,6.06291042679643E-16));
#428=CARTESIAN_POINT('',(17.1010543757295,0.0342167959647508,6.05238375911291E-16));
#429=CARTESIAN_POINT('',(16.9260688286098,0.0104362455169049,5.99670432166646E-16));
#430=CARTESIAN_POINT('',(16.7950348517025,0.00186035156249886,5.92911809188772E-16));
#431=CARTESIAN_POINT('',(16.7108449505675,-3.5527136788005E-15,5.87545734764216E-16));
#432=CARTESIAN_POINT('',(13.81125,-3.5527136788005E-15,0.0));
#433=CARTESIAN_POINT('',(0.0,0.0,0.0));
#434=CARTESIAN_POINT('',(9.525,9.525,0.0));
#435=CARTESIAN_POINT('',(9.525,9.525,-6.35));
#436=CARTESIAN_POINT('',(6.7230893795483,6.72308937954831,-6.35));
#437=CARTESIAN_POINT('',(9.525,19.05,-6.35));
#438=CARTESIAN_POINT('',(2.38124999999999,19.05,-6.35));
#439=CARTESIAN_POINT('',(16.66875,19.05,-6.35));
#440=CARTESIAN_POINT('',(16.66875,16.66875,-6.35));
#441=CARTESIAN_POINT('',(19.05,16.66875,-6.35));
#442=CARTESIAN_POINT('',(19.05,9.52500000000001,-6.35));
#443=CARTESIAN_POINT('',(19.05,2.38125,-6.35));
#444=CARTESIAN_POINT('',(16.66875,2.38125,-6.35));
#445=CARTESIAN_POINT('',(16.66875,-1.73472347597681E-15,-6.35));
#446=CARTESIAN_POINT('',(9.525,-1.73472347597681E-15,-6.35));
#447=CARTESIAN_POINT('',(2.38125,-1.73472347597681E-15,-6.35));
#448=CARTESIAN_POINT('',(2.38125,2.38124999999999,-6.35));
#449=CARTESIAN_POINT('',(-1.73472347597681E-15,2.38124999999999,-6.35));
#450=CARTESIAN_POINT('',(-8.67361737988404E-15,9.52499999999999,-6.35));
#451=CARTESIAN_POINT('',(-1.38777878078145E-14,16.66875,-6.35));
#452=CARTESIAN_POINT('',(2.38124999999999,16.66875,-6.35));
#453=CARTESIAN_POINT('',(9.525,8.99466991411009,-6.35));
#454=CARTESIAN_POINT('',(9.525,19.05,-5.27182464349352E-15));
#455=CARTESIAN_POINT('',(16.66875,19.05,-4.7722242824122E-15));
#456=CARTESIAN_POINT('',(2.38124999999998,19.05,-5.77142500457484E-15));
#457=CARTESIAN_POINT('',(16.66875,19.05,-4.33680868994202E-15));
#458=CARTESIAN_POINT('',(2.38124999999998,19.05,-5.20417042793042E-15));
#459=CARTESIAN_POINT('',(9.525,19.05,-5.27182464349352E-15));
#460=CARTESIAN_POINT('',(-3.46944695195361E-15,2.38124999999999,-1.73472347597681E-15));
#461=CARTESIAN_POINT('',(-3.46944695195361E-15,2.38124999999999,-1.84574577843932E-15));
#462=CARTESIAN_POINT('',(-6.93889390390723E-15,9.525,-3.59955121265187E-15));
#463=CARTESIAN_POINT('',(-1.38777878078145E-14,16.66875,-5.35335664686443E-15));
#464=CARTESIAN_POINT('',(-1.38777878078145E-14,16.66875,-5.20417042793042E-15));
#465=CARTESIAN_POINT('',(-8.67361737988404E-15,9.52499999999999,-3.59955121265187E-15));
#466=CARTESIAN_POINT('',(16.66875,-1.73472347597681E-15,-2.88889491658085E-31));
#467=CARTESIAN_POINT('',(16.66875,-1.73472347597681E-15,-9.54097911787234E-17));
#468=CARTESIAN_POINT('',(9.525,-1.73472347597681E-15,-5.95010152260044E-16));
#469=CARTESIAN_POINT('',(2.38125,-1.73472347597681E-15,-1.09461051334136E-15));
#470=CARTESIAN_POINT('',(2.38125,-1.73472347597681E-15,-8.67361737988404E-16));
#471=CARTESIAN_POINT('',(9.525,-1.73472347597681E-15,-5.95010152260044E-16));
#472=CARTESIAN_POINT('',(19.05,16.66875,-3.46944695195361E-15));
#473=CARTESIAN_POINT('',(19.05,16.66875,-4.02108901731424E-15));
#474=CARTESIAN_POINT('',(19.05,9.52500000000001,-2.26728358310169E-15));
#475=CARTESIAN_POINT('',(19.05,2.38125,-5.13478148889133E-16));
#476=CARTESIAN_POINT('',(19.05,2.38125,0.0));
#477=CARTESIAN_POINT('',(19.05,9.52500000000001,-2.26728358310169E-15));
#478=CARTESIAN_POINT('',(9.525,9.525,0.0));
#479=CARTESIAN_POINT('',(6.7230893795483,6.72308937954831,0.0));
#480=CARTESIAN_POINT('',(16.66875,16.66875,-4.18762247100801E-15));
#481=CARTESIAN_POINT('',(2.38124999999999,16.66875,-5.18682319317065E-15));
#482=CARTESIAN_POINT('',(2.38125,2.38125,-1.67921232474555E-15));
#483=CARTESIAN_POINT('',(16.66875,2.38125,-6.80011602582907E-16));
#484=CARTESIAN_POINT('',(9.525,9.525,-2.93341739787678E-15));
#485=CARTESIAN_POINT('',(16.66875,16.66875,-3.46944695195361E-15));
#486=CARTESIAN_POINT('',(16.66875,2.38125,0.0));
#487=CARTESIAN_POINT('',(2.38125,2.38125,-1.73472347597681E-15));
#488=CARTESIAN_POINT('',(2.38124999999999,16.66875,-5.20417042793042E-15));
#489=CARTESIAN_POINT('',(9.525,9.525,-33.3676978394524));
#490=MECHANICAL_DESIGN_GEOMETRIC_PRESENTATION_REPRESENTATION('',(#232,#233,#234,
     #235),#491);
#491=(GEOMETRIC_REPRESENTATION_CONTEXT(3)GLOBAL_UNCERTAINTY_ASSIGNED_CONTEXT((#492))
     GLOBAL_UNIT_ASSIGNED_CONTEXT((#498,#494,#493))REPRESENTATION_CONTEXT('SNMM190624',
     'TOP_LEVEL_ASSEMBLY_PART'));
#492=UNCERTAINTY_MEASURE_WITH_UNIT(LENGTH_MEASURE(2.0E-5),#498,'DISTANCE_ACCURACY_VALUE',
     'Maximum Tolerance applied to model');
#493=(NAMED_UNIT(*)SI_UNIT($,.STERADIAN.)SOLID_ANGLE_UNIT());
#494=(CONVERSION_BASED_UNIT('DEGREE',#496)NAMED_UNIT(#495)PLANE_ANGLE_UNIT());
#495=DIMENSIONAL_EXPONENTS(0.0,0.0,0.0,0.0,0.0,0.0,0.0);
#496=PLANE_ANGLE_MEASURE_WITH_UNIT(PLANE_ANGLE_MEASURE(0.0174532925),#497);
#497=(NAMED_UNIT(*)PLANE_ANGLE_UNIT()SI_UNIT($,.RADIAN.));
#498=(LENGTH_UNIT()NAMED_UNIT(*)SI_UNIT(.MILLI.,.METRE.));
#499=CONSTRUCTIVE_GEOMETRY_REPRESENTATION('supplemental geometry',(#249,#250),#491);
#500=CONSTRUCTIVE_GEOMETRY_REPRESENTATION_RELATIONSHIP('supplemental geometry','contains PCS and MCS coordinate systems',
     #24,#499);
ENDSEC;
END-ISO-10303-21;
