ISO-10303-21;
HEADER;
FILE_DESCRIPTION(
/* description */ (''),
/* implementation_level */ '2;1');
FILE_NAME(
/* name */ 'SNMG250716.stp',
/* time_stamp */ '2017-03-21T10:54:24',
/* author */ ('Sandvik Coromant R&D'),
/* organization */ ('Sandvik Machining Solutions'),
/* preprocessor_version */ 'ST-DEVELOPER v15',
/* originating_system */ 'SIEMENS PLM Software NX v8.5.3.3(64 bits)',
/* authorization */ '');
FILE_SCHEMA(('AUTOMOTIVE_DESIGN'));
ENDSEC;
DATA;
#10=GEOMETRICALLY_BOUNDED_WIREFRAME_SHAPE_REPRESENTATION('IsoTurningInsert-None',
     (#25),#459);
#11=SHAPE_REPRESENTATION_RELATIONSHIP('None','relationship between IsoTurningInsert-None and IsoTurningInsert-None',
     #24,#13);
#12=SHAPE_REPRESENTATION_RELATIONSHIP('None','relationship between IsoTurningInsert-None and IsoTurningInsert-None',
     #24,#10);
#13=ADVANCED_BREP_SHAPE_REPRESENTATION('IsoTurningInsert-None',(#31),#459);
#14=SHAPE_DEFINITION_REPRESENTATION(#15,#24);
#15=PRODUCT_DEFINITION_SHAPE('','',#16);
#16=PRODUCT_DEFINITION(' ','',#18,#17);
#17=PRODUCT_DEFINITION_CONTEXT('part definition',#23,'design');
#18=PRODUCT_DEFINITION_FORMATION_WITH_SPECIFIED_SOURCE(' ',' ',#20,.NOT_KNOWN.);
#19=PRODUCT_RELATED_PRODUCT_CATEGORY('part','',(#20));
#20=PRODUCT('IsoTurningInsert','IsoTurningInsert',' ',(#21));
#21=PRODUCT_CONTEXT(' ',#23,'mechanical');
#22=APPLICATION_PROTOCOL_DEFINITION('international standard','automotive_design',
     2010,#23);
#23=APPLICATION_CONTEXT('core data for automotive mechanical design processes');
#24=SHAPE_REPRESENTATION('IsoTurningInsert-None',(#248),#459);
#25=GEOMETRIC_CURVE_SET('geometric curve set',(#228));
#26=SURFACE_STYLE_USAGE(.BOTH.,#27);
#27=SURFACE_SIDE_STYLE('',(#28));
#28=SURFACE_STYLE_FILL_AREA(#29);
#29=FILL_AREA_STYLE('',(#30));
#30=FILL_AREA_STYLE_COLOUR('',#247);
#31=MANIFOLD_SOLID_BREP('CUT',#32);
#32=CLOSED_SHELL('',(#46,#47,#48,#49,#50,#51,#52,#53,#54,#55,#56));
#33=CYLINDRICAL_SURFACE('',#267,1.5875);
#34=CYLINDRICAL_SURFACE('',#268,1.5875);
#35=CYLINDRICAL_SURFACE('',#269,1.5875);
#36=CYLINDRICAL_SURFACE('',#270,1.5875);
#37=CYLINDRICAL_SURFACE('',#271,4.5595);
#38=FACE_OUTER_BOUND('',#103,.T.);
#39=FACE_OUTER_BOUND('',#104,.T.);
#40=FACE_OUTER_BOUND('',#105,.T.);
#41=FACE_OUTER_BOUND('',#106,.T.);
#42=FACE_OUTER_BOUND('',#109,.T.);
#43=FACE_OUTER_BOUND('',#110,.T.);
#44=FACE_OUTER_BOUND('',#111,.T.);
#45=FACE_OUTER_BOUND('',#112,.T.);
#46=ADVANCED_FACE('',(#95,#96),#57,.F.);
#47=ADVANCED_FACE('',(#38),#58,.T.);
#48=ADVANCED_FACE('',(#39),#59,.T.);
#49=ADVANCED_FACE('',(#40),#60,.T.);
#50=ADVANCED_FACE('',(#41),#61,.T.);
#51=ADVANCED_FACE('',(#97,#98),#62,.T.);
#52=ADVANCED_FACE('',(#42),#33,.T.);
#53=ADVANCED_FACE('',(#43),#34,.T.);
#54=ADVANCED_FACE('',(#44),#35,.T.);
#55=ADVANCED_FACE('',(#45),#36,.T.);
#56=ADVANCED_FACE('',(#99,#100),#37,.F.);
#57=PLANE('',#256);
#58=PLANE('',#257);
#59=PLANE('',#258);
#60=PLANE('',#259);
#61=PLANE('',#260);
#62=PLANE('',#266);
#63=LINE('',#405,#79);
#64=LINE('',#410,#80);
#65=LINE('',#414,#81);
#66=LINE('',#418,#82);
#67=LINE('',#422,#83);
#68=LINE('',#425,#84);
#69=LINE('',#426,#85);
#70=LINE('',#428,#86);
#71=LINE('',#430,#87);
#72=LINE('',#432,#88);
#73=LINE('',#434,#89);
#74=LINE('',#436,#90);
#75=LINE('',#438,#91);
#76=LINE('',#440,#92);
#77=LINE('',#442,#93);
#78=LINE('',#444,#94);
#79=VECTOR('',#280,1.0);
#80=VECTOR('',#283,1.0);
#81=VECTOR('',#286,1.0);
#82=VECTOR('',#289,1.0);
#83=VECTOR('',#294,1.0);
#84=VECTOR('',#295,1.0);
#85=VECTOR('',#296,1.0);
#86=VECTOR('',#299,1.0);
#87=VECTOR('',#300,1.0);
#88=VECTOR('',#301,1.0);
#89=VECTOR('',#304,1.0);
#90=VECTOR('',#305,1.0);
#91=VECTOR('',#306,1.0);
#92=VECTOR('',#309,1.0);
#93=VECTOR('',#310,1.0);
#94=VECTOR('',#311,1.0);
#95=FACE_BOUND('',#101,.T.);
#96=FACE_BOUND('',#102,.T.);
#97=FACE_BOUND('',#107,.T.);
#98=FACE_BOUND('',#108,.T.);
#99=FACE_BOUND('',#113,.T.);
#100=FACE_BOUND('',#114,.T.);
#101=EDGE_LOOP('',(#115));
#102=EDGE_LOOP('',(#116,#117,#118,#119,#120,#121,#122,#123));
#103=EDGE_LOOP('',(#124,#125,#126,#127));
#104=EDGE_LOOP('',(#128,#129,#130,#131));
#105=EDGE_LOOP('',(#132,#133,#134,#135));
#106=EDGE_LOOP('',(#136,#137,#138,#139));
#107=EDGE_LOOP('',(#140));
#108=EDGE_LOOP('',(#141,#142,#143,#144,#145,#146,#147,#148));
#109=EDGE_LOOP('',(#149,#150,#151,#152));
#110=EDGE_LOOP('',(#153,#154,#155,#156));
#111=EDGE_LOOP('',(#157,#158,#159,#160));
#112=EDGE_LOOP('',(#161,#162,#163,#164));
#113=EDGE_LOOP('',(#165));
#114=EDGE_LOOP('',(#166));
#115=ORIENTED_EDGE('',*,*,#185,.T.);
#116=ORIENTED_EDGE('',*,*,#186,.T.);
#117=ORIENTED_EDGE('',*,*,#187,.T.);
#118=ORIENTED_EDGE('',*,*,#188,.T.);
#119=ORIENTED_EDGE('',*,*,#189,.T.);
#120=ORIENTED_EDGE('',*,*,#190,.T.);
#121=ORIENTED_EDGE('',*,*,#191,.T.);
#122=ORIENTED_EDGE('',*,*,#192,.T.);
#123=ORIENTED_EDGE('',*,*,#193,.T.);
#124=ORIENTED_EDGE('',*,*,#194,.F.);
#125=ORIENTED_EDGE('',*,*,#195,.T.);
#126=ORIENTED_EDGE('',*,*,#186,.F.);
#127=ORIENTED_EDGE('',*,*,#196,.T.);
#128=ORIENTED_EDGE('',*,*,#192,.F.);
#129=ORIENTED_EDGE('',*,*,#197,.T.);
#130=ORIENTED_EDGE('',*,*,#198,.F.);
#131=ORIENTED_EDGE('',*,*,#199,.T.);
#132=ORIENTED_EDGE('',*,*,#190,.F.);
#133=ORIENTED_EDGE('',*,*,#200,.T.);
#134=ORIENTED_EDGE('',*,*,#201,.F.);
#135=ORIENTED_EDGE('',*,*,#202,.T.);
#136=ORIENTED_EDGE('',*,*,#188,.F.);
#137=ORIENTED_EDGE('',*,*,#203,.T.);
#138=ORIENTED_EDGE('',*,*,#204,.F.);
#139=ORIENTED_EDGE('',*,*,#205,.T.);
#140=ORIENTED_EDGE('',*,*,#206,.F.);
#141=ORIENTED_EDGE('',*,*,#204,.T.);
#142=ORIENTED_EDGE('',*,*,#207,.T.);
#143=ORIENTED_EDGE('',*,*,#194,.T.);
#144=ORIENTED_EDGE('',*,*,#208,.T.);
#145=ORIENTED_EDGE('',*,*,#198,.T.);
#146=ORIENTED_EDGE('',*,*,#209,.T.);
#147=ORIENTED_EDGE('',*,*,#201,.T.);
#148=ORIENTED_EDGE('',*,*,#210,.T.);
#149=ORIENTED_EDGE('',*,*,#187,.F.);
#150=ORIENTED_EDGE('',*,*,#195,.F.);
#151=ORIENTED_EDGE('',*,*,#207,.F.);
#152=ORIENTED_EDGE('',*,*,#203,.F.);
#153=ORIENTED_EDGE('',*,*,#189,.F.);
#154=ORIENTED_EDGE('',*,*,#205,.F.);
#155=ORIENTED_EDGE('',*,*,#210,.F.);
#156=ORIENTED_EDGE('',*,*,#200,.F.);
#157=ORIENTED_EDGE('',*,*,#191,.F.);
#158=ORIENTED_EDGE('',*,*,#202,.F.);
#159=ORIENTED_EDGE('',*,*,#209,.F.);
#160=ORIENTED_EDGE('',*,*,#197,.F.);
#161=ORIENTED_EDGE('',*,*,#193,.F.);
#162=ORIENTED_EDGE('',*,*,#199,.F.);
#163=ORIENTED_EDGE('',*,*,#208,.F.);
#164=ORIENTED_EDGE('',*,*,#196,.F.);
#165=ORIENTED_EDGE('',*,*,#185,.F.);
#166=ORIENTED_EDGE('',*,*,#206,.T.);
#167=VERTEX_POINT('',#404);
#168=VERTEX_POINT('',#406);
#169=VERTEX_POINT('',#407);
#170=VERTEX_POINT('',#409);
#171=VERTEX_POINT('',#411);
#172=VERTEX_POINT('',#413);
#173=VERTEX_POINT('',#415);
#174=VERTEX_POINT('',#417);
#175=VERTEX_POINT('',#419);
#176=VERTEX_POINT('',#423);
#177=VERTEX_POINT('',#424);
#178=VERTEX_POINT('',#429);
#179=VERTEX_POINT('',#431);
#180=VERTEX_POINT('',#435);
#181=VERTEX_POINT('',#437);
#182=VERTEX_POINT('',#441);
#183=VERTEX_POINT('',#443);
#184=VERTEX_POINT('',#447);
#185=EDGE_CURVE('',#167,#167,#211,.T.);
#186=EDGE_CURVE('',#168,#169,#63,.T.);
#187=EDGE_CURVE('',#169,#170,#212,.T.);
#188=EDGE_CURVE('',#170,#171,#64,.T.);
#189=EDGE_CURVE('',#171,#172,#213,.T.);
#190=EDGE_CURVE('',#172,#173,#65,.T.);
#191=EDGE_CURVE('',#173,#174,#214,.T.);
#192=EDGE_CURVE('',#174,#175,#66,.T.);
#193=EDGE_CURVE('',#175,#168,#215,.T.);
#194=EDGE_CURVE('',#176,#177,#67,.T.);
#195=EDGE_CURVE('',#176,#169,#68,.T.);
#196=EDGE_CURVE('',#168,#177,#69,.T.);
#197=EDGE_CURVE('',#174,#178,#70,.T.);
#198=EDGE_CURVE('',#179,#178,#71,.T.);
#199=EDGE_CURVE('',#179,#175,#72,.T.);
#200=EDGE_CURVE('',#172,#180,#73,.T.);
#201=EDGE_CURVE('',#181,#180,#74,.T.);
#202=EDGE_CURVE('',#181,#173,#75,.T.);
#203=EDGE_CURVE('',#170,#182,#76,.T.);
#204=EDGE_CURVE('',#183,#182,#77,.T.);
#205=EDGE_CURVE('',#183,#171,#78,.T.);
#206=EDGE_CURVE('',#184,#184,#216,.T.);
#207=EDGE_CURVE('',#182,#176,#217,.T.);
#208=EDGE_CURVE('',#177,#179,#218,.T.);
#209=EDGE_CURVE('',#178,#181,#219,.T.);
#210=EDGE_CURVE('',#180,#183,#220,.T.);
#211=CIRCLE('',#251,4.5595);
#212=CIRCLE('',#252,1.5875);
#213=CIRCLE('',#253,1.5875);
#214=CIRCLE('',#254,1.5875);
#215=CIRCLE('',#255,1.5875);
#216=CIRCLE('',#261,4.5595);
#217=CIRCLE('',#262,1.5875);
#218=CIRCLE('',#263,1.5875);
#219=CIRCLE('',#264,1.5875);
#220=CIRCLE('',#265,1.5875);
#221=CURVE_STYLE('',#225,POSITIVE_LENGTH_MEASURE(0.18),#224);
#222=CURVE_STYLE('',#226,POSITIVE_LENGTH_MEASURE(0.18),#246);
#223=CURVE_STYLE('',#227,POSITIVE_LENGTH_MEASURE(0.18),#246);
#224=DRAUGHTING_PRE_DEFINED_COLOUR('blue');
#225=DRAUGHTING_PRE_DEFINED_CURVE_FONT('continuous');
#226=DRAUGHTING_PRE_DEFINED_CURVE_FONT('continuous');
#227=DRAUGHTING_PRE_DEFINED_CURVE_FONT('continuous');
#228=B_SPLINE_CURVE_WITH_KNOTS('CUTTING EDGE LINE',5,(#339,#340,#341,#342,#343,#344,
     #345,#346,#347,#348,#349,#350,#351,#352,#353,#354,#355,#356,#357,#358,#359,
     #360,#361,#362,#363,#364,#365,#366,#367,#368,#369,#370,#371,#372,#373,#374,
     #375,#376,#377,#378,#379,#380,#381,#382,#383,#384,#385,#386,#387,#388,#389,
     #390,#391,#392,#393,#394,#395,#396,#397,#398,#399,#400),.UNSPECIFIED.,.T.,.F.,
     (2,4,1,1,1,1,1,1,1,4,4,1,1,1,1,1,1,1,4,4,1,1,1,1,1,1,1,4,4,1,1,1,1,1,1,1,4,
     4,1,1),(-0.224779769,0.0,0.00315252887499995,0.00630505775000001,0.00945758662499996,
     0.0126101155,0.015762644375,0.01891517325,0.022067702125,0.025220231,0.25,0.253152528875,
     0.25630505775,0.259457586625,0.2626101155,0.265762644375,0.26891517325,0.272067702125,
     0.275220231,0.5,0.503152528875,0.50630505775,0.509457586625,0.5126101155,0.515762644375,
     0.51891517325,0.522067702125,0.525220231,0.75,0.753152528875,0.75630505775,
     0.759457586625,0.7626101155,0.765762644375,0.76891517325,0.772067702125,0.775220231,
     1.0,1.003152528875,1.00630505775),.UNSPECIFIED.);
#229=PRESENTATION_LAYER_ASSIGNMENT('1','Layer 1',(#228,#249,#250,#31));
#232=STYLED_ITEM('',(#238),#228);
#233=STYLED_ITEM('',(#239),#249);
#234=STYLED_ITEM('',(#240),#250);
#235=STYLED_ITEM('',(#241),#31);
#236=PRESENTATION_STYLE_ASSIGNMENT((#242));
#237=PRESENTATION_STYLE_ASSIGNMENT((#243));
#238=PRESENTATION_STYLE_ASSIGNMENT((#221));
#239=PRESENTATION_STYLE_ASSIGNMENT((#222));
#240=PRESENTATION_STYLE_ASSIGNMENT((#223));
#241=PRESENTATION_STYLE_ASSIGNMENT((#26));
#242=POINT_STYLE('',#244,POSITIVE_LENGTH_MEASURE(3.0),#246);
#243=POINT_STYLE('',#245,POSITIVE_LENGTH_MEASURE(3.0),#246);
#244=PRE_DEFINED_POINT_MARKER_SYMBOL('plus');
#245=PRE_DEFINED_POINT_MARKER_SYMBOL('plus');
#246=COLOUR_RGB('Medium Maroon',0.6,0.4,0.4);
#247=COLOUR_RGB('IsoInsertColor',0.8,0.8,0.8);
#248=AXIS2_PLACEMENT_3D('',#336,#272,#273);
#249=AXIS2_PLACEMENT_3D('PCS',#401,#274,#275);
#250=AXIS2_PLACEMENT_3D('MCS',#402,#276,#277);
#251=AXIS2_PLACEMENT_3D('',#403,#278,#279);
#252=AXIS2_PLACEMENT_3D('',#408,#281,#282);
#253=AXIS2_PLACEMENT_3D('',#412,#284,#285);
#254=AXIS2_PLACEMENT_3D('',#416,#287,#288);
#255=AXIS2_PLACEMENT_3D('',#420,#290,#291);
#256=AXIS2_PLACEMENT_3D('',#421,#292,#293);
#257=AXIS2_PLACEMENT_3D('',#427,#297,#298);
#258=AXIS2_PLACEMENT_3D('',#433,#302,#303);
#259=AXIS2_PLACEMENT_3D('',#439,#307,#308);
#260=AXIS2_PLACEMENT_3D('',#445,#312,#313);
#261=AXIS2_PLACEMENT_3D('',#446,#314,#315);
#262=AXIS2_PLACEMENT_3D('',#448,#316,#317);
#263=AXIS2_PLACEMENT_3D('',#449,#318,#319);
#264=AXIS2_PLACEMENT_3D('',#450,#320,#321);
#265=AXIS2_PLACEMENT_3D('',#451,#322,#323);
#266=AXIS2_PLACEMENT_3D('',#452,#324,#325);
#267=AXIS2_PLACEMENT_3D('',#453,#326,#327);
#268=AXIS2_PLACEMENT_3D('',#454,#328,#329);
#269=AXIS2_PLACEMENT_3D('',#455,#330,#331);
#270=AXIS2_PLACEMENT_3D('',#456,#332,#333);
#271=AXIS2_PLACEMENT_3D('',#457,#334,#335);
#272=DIRECTION('',(0.0,0.0,1.0));
#273=DIRECTION('',(1.0,0.0,0.0));
#274=DIRECTION('',(0.0,0.0,1.0));
#275=DIRECTION('',(1.0,0.0,0.0));
#276=DIRECTION('',(0.0,0.0,1.0));
#277=DIRECTION('',(1.0,0.0,0.0));
#278=DIRECTION('',(0.0,0.0,1.0));
#279=DIRECTION('',(-0.707106781186548,-0.707106781186547,0.0));
#280=DIRECTION('',(1.0,-6.66133814775094E-16,0.0));
#281=DIRECTION('',(0.0,0.0,-1.0));
#282=DIRECTION('',(-0.707106781186548,-0.707106781186548,0.0));
#283=DIRECTION('',(-1.11022302462516E-16,-1.0,0.0));
#284=DIRECTION('',(0.0,0.0,-1.0));
#285=DIRECTION('',(-0.707106781186548,-0.707106781186547,0.0));
#286=DIRECTION('',(-1.0,1.11022302462516E-16,0.0));
#287=DIRECTION('',(0.0,0.0,-1.0));
#288=DIRECTION('',(-0.707106781186548,-0.707106781186547,0.0));
#289=DIRECTION('',(-1.11022302462516E-16,1.0,0.0));
#290=DIRECTION('',(0.0,0.0,-1.0));
#291=DIRECTION('',(-0.707106781186548,-0.707106781186548,0.0));
#292=DIRECTION('',(0.0,0.0,1.0));
#293=DIRECTION('',(-0.707106781186548,-0.707106781186547,0.0));
#294=DIRECTION('',(-1.0,6.66133814775094E-16,-5.24514814783538E-17));
#295=DIRECTION('',(5.24514814783537E-17,-1.84126554772971E-16,-1.0));
#296=DIRECTION('',(-5.24514814783537E-17,1.84126554772971E-16,1.0));
#297=DIRECTION('',(6.66133814775094E-16,1.0,-1.84126554772971E-16));
#298=DIRECTION('',(-1.0,6.66133814775094E-16,0.0));
#299=DIRECTION('',(-5.24514814783537E-17,1.84126554772971E-16,1.0));
#300=DIRECTION('',(1.11022302462516E-16,-1.0,1.84126554772971E-16));
#301=DIRECTION('',(5.24514814783537E-17,-1.84126554772971E-16,-1.0));
#302=DIRECTION('',(-1.0,-1.11022302462516E-16,-5.24514814783537E-17));
#303=DIRECTION('',(1.11022302462516E-16,-1.0,0.0));
#304=DIRECTION('',(-5.24514814783537E-17,1.84126554772971E-16,1.0));
#305=DIRECTION('',(1.0,-1.11022302462516E-16,5.24514814783537E-17));
#306=DIRECTION('',(5.24514814783537E-17,-1.84126554772971E-16,-1.0));
#307=DIRECTION('',(-1.11022302462516E-16,-1.0,1.84126554772971E-16));
#308=DIRECTION('',(1.0,-1.11022302462516E-16,0.0));
#309=DIRECTION('',(-5.24514814783537E-17,1.84126554772971E-16,1.0));
#310=DIRECTION('',(1.11022302462516E-16,1.0,-1.84126554772971E-16));
#311=DIRECTION('',(5.24514814783537E-17,-1.84126554772971E-16,-1.0));
#312=DIRECTION('',(1.0,-1.11022302462516E-16,5.24514814783537E-17));
#313=DIRECTION('',(1.11022302462516E-16,1.0,0.0));
#314=DIRECTION('',(0.0,0.0,1.0));
#315=DIRECTION('',(-0.707106781186548,-0.707106781186547,0.0));
#316=DIRECTION('',(-5.24514814783537E-17,1.84126554772971E-16,1.0));
#317=DIRECTION('',(-0.707106781186548,0.707106781186548,-1.67285933713109E-16));
#318=DIRECTION('',(-5.24514814783537E-17,1.84126554772971E-16,1.0));
#319=DIRECTION('',(-0.707106781186547,0.707106781186548,-1.67285933713109E-16));
#320=DIRECTION('',(-5.24514814783537E-17,1.84126554772971E-16,1.0));
#321=DIRECTION('',(-0.707106781186547,0.707106781186548,-1.67285933713109E-16));
#322=DIRECTION('',(-5.24514814783537E-17,1.84126554772971E-16,1.0));
#323=DIRECTION('',(-0.707106781186548,0.707106781186548,-1.67285933713109E-16));
#324=DIRECTION('',(-5.24514814783537E-17,1.84126554772971E-16,1.0));
#325=DIRECTION('',(-0.707106781186547,0.707106781186548,-1.67285933713109E-16));
#326=DIRECTION('',(-5.24514814783537E-17,1.84126554772971E-16,1.0));
#327=DIRECTION('',(-0.707106781186548,0.707106781186548,-1.67285933713109E-16));
#328=DIRECTION('',(-5.24514814783537E-17,1.84126554772971E-16,1.0));
#329=DIRECTION('',(-0.707106781186548,0.707106781186548,-1.67285933713109E-16));
#330=DIRECTION('',(-5.24514814783537E-17,1.84126554772971E-16,1.0));
#331=DIRECTION('',(-0.707106781186547,0.707106781186548,-1.67285933713109E-16));
#332=DIRECTION('',(-5.24514814783537E-17,1.84126554772971E-16,1.0));
#333=DIRECTION('',(-0.707106781186547,0.707106781186548,-1.67285933713108E-16));
#334=DIRECTION('',(0.0,0.0,1.0));
#335=DIRECTION('',(-0.707106781186547,-0.707106781186547,0.0));
#336=CARTESIAN_POINT('',(0.0,0.0,0.0));
#339=CARTESIAN_POINT('',(19.3675,0.0,0.0));
#340=CARTESIAN_POINT('',(23.8686266007567,-3.5527136788005E-15,2.95244829062124E-16));
#341=CARTESIAN_POINT('',(23.9808798022701,0.00496093749999638,3.00089131191171E-16));
#342=CARTESIAN_POINT('',(24.1615050060496,0.0283622609060981,3.04640668625242E-16));
#343=CARTESIAN_POINT('',(24.3984680967191,0.0954977873401575,3.02947621690723E-16));
#344=CARTESIAN_POINT('',(24.6893728120661,0.24350682809769,2.8707196349982E-16));
#345=CARTESIAN_POINT('',(24.9470963018709,0.452903698129093,2.56542830067683E-16));
#346=CARTESIAN_POINT('',(25.1564931719023,0.71062718793387,2.13313278429931E-16));
#347=CARTESIAN_POINT('',(25.3045022126598,1.00153190328134,1.59884097241197E-16));
#348=CARTESIAN_POINT('',(25.3716377390939,1.23849499394916,1.13559724988867E-16));
#349=CARTESIAN_POINT('',(25.3950390625,1.41912019772995,7.6792232827433E-17));
#350=CARTESIAN_POINT('',(25.4,1.53137339924331,5.34397227319056E-17));
#351=CARTESIAN_POINT('',(25.4,6.03249999999999,2.49800180540662E-17));
#352=CARTESIAN_POINT('',(25.4,10.4775,1.66533453693775E-17));
#353=CARTESIAN_POINT('',(25.4,14.9225,1.66533453693775E-17));
#354=CARTESIAN_POINT('',(25.4,19.3675,2.49800180540662E-17));
#355=CARTESIAN_POINT('',(25.4,23.8686266007567,3.27709274750139E-17));
#356=CARTESIAN_POINT('',(25.3950390625,23.98087980227,1.52425672219171E-17));
#357=CARTESIAN_POINT('',(25.3716377390939,24.1615050060496,-1.23513310431475E-17));
#358=CARTESIAN_POINT('',(25.3045022126598,24.3984680967191,-4.71086371845356E-17));
#359=CARTESIAN_POINT('',(25.1564931719023,24.6893728120661,-8.71798246290565E-17));
#360=CARTESIAN_POINT('',(24.9470963018709,24.9470963018709,-1.19579987385372E-16));
#361=CARTESIAN_POINT('',(24.6893728120661,25.1564931719023,-1.42435033340594E-16));
#362=CARTESIAN_POINT('',(24.3984680967187,25.3045022126598,-1.54282523147498E-16));
#363=CARTESIAN_POINT('',(24.1615050060508,25.3716377390939,-1.55496743836736E-16));
#364=CARTESIAN_POINT('',(23.9808798022701,25.3950390625,-1.52036943143998E-16));
#365=CARTESIAN_POINT('',(23.8686266007567,25.4,-1.48373728305237E-16));
#366=CARTESIAN_POINT('',(19.3675,25.4,-8.76902717106274E-17));
#367=CARTESIAN_POINT('',(14.9225,25.4,-5.84601811404183E-17));
#368=CARTESIAN_POINT('',(10.4775,25.4,-5.84601811404183E-17));
#369=CARTESIAN_POINT('',(6.0325,25.4,-8.76902717106275E-17));
#370=CARTESIAN_POINT('',(1.53137339924331,25.4,-1.54261575025301E-16));
#371=CARTESIAN_POINT('',(1.41912019772994,25.3950390625,-1.69440274782794E-16));
#372=CARTESIAN_POINT('',(1.23849499395043,25.3716377390939,-1.9062076045541E-16));
#373=CARTESIAN_POINT('',(1.0015319032809,25.3045022126598,-2.10743312267557E-16));
#374=CARTESIAN_POINT('',(0.710627187933886,25.1564931719023,-2.21649295578686E-16));
#375=CARTESIAN_POINT('',(0.452903698129104,24.9470963018709,-2.14847031277457E-16));
#376=CARTESIAN_POINT('',(0.24350682809766,24.6893728120661,-1.90895241769275E-16));
#377=CARTESIAN_POINT('',(0.0954977873401752,24.3984680967187,-1.51092257955501E-16));
#378=CARTESIAN_POINT('',(0.0283622609060981,24.1615050060508,-1.10948602295761E-16));
#379=CARTESIAN_POINT('',(0.0049609374999946,23.9808798022701,-7.63355126622734E-17));
#380=CARTESIAN_POINT('',(-5.32907051820075E-15,23.8686266007567,-5.34397227319054E-17));
#381=CARTESIAN_POINT('',(-5.32907051820075E-15,19.3675,-2.49800180540661E-17));
#382=CARTESIAN_POINT('',(-5.32907051820075E-15,14.9225,-1.66533453693773E-17));
#383=CARTESIAN_POINT('',(-3.5527136788005E-15,10.4775,-1.66533453693773E-17));
#384=CARTESIAN_POINT('',(-1.77635683940025E-15,6.0325,-2.49800180540658E-17));
#385=CARTESIAN_POINT('',(0.0,1.53137339924331,-3.27709274750131E-17));
#386=CARTESIAN_POINT('',(0.00496093750001592,1.41912019772996,-1.52425672219163E-17));
#387=CARTESIAN_POINT('',(0.0283622609060874,1.23849499395041,1.23513310431484E-17));
#388=CARTESIAN_POINT('',(0.0954977873401663,1.0015319032809,4.71086371845367E-17));
#389=CARTESIAN_POINT('',(0.243506828097692,0.710627187933888,8.71798246290574E-17));
#390=CARTESIAN_POINT('',(0.452903698129102,0.452903698129107,1.19579987385373E-16));
#391=CARTESIAN_POINT('',(0.710627187933875,0.243506828097647,1.42435033340595E-16));
#392=CARTESIAN_POINT('',(1.00153190328136,0.095497787340193,1.54282523147499E-16));
#393=CARTESIAN_POINT('',(1.23849499394917,0.0283622609060945,1.55496743836737E-16));
#394=CARTESIAN_POINT('',(1.41912019772996,0.00496093749999993,1.52036943143998E-16));
#395=CARTESIAN_POINT('',(1.53137339924332,-1.77635683940025E-15,1.48373728305237E-16));
#396=CARTESIAN_POINT('',(6.0325,-1.77635683940025E-15,8.76902717106276E-17));
#397=CARTESIAN_POINT('',(10.4775,0.0,4.38451358553138E-17));
#398=CARTESIAN_POINT('',(14.9225,0.0,1.46150452851046E-17));
#399=CARTESIAN_POINT('',(19.3675,0.0,0.0));
#400=CARTESIAN_POINT('',(23.8686266007567,-3.5527136788005E-15,2.95244829062124E-16));
#401=CARTESIAN_POINT('',(0.0,0.0,0.0));
#402=CARTESIAN_POINT('',(12.7,12.7,0.0));
#403=CARTESIAN_POINT('',(12.7,12.7,-7.9375));
#404=CARTESIAN_POINT('',(9.47594663117994,9.47594663117994,-7.9375));
#405=CARTESIAN_POINT('',(12.7,25.4,-7.9375));
#406=CARTESIAN_POINT('',(1.5875,25.4,-7.9375));
#407=CARTESIAN_POINT('',(23.8125,25.4,-7.9375));
#408=CARTESIAN_POINT('',(23.8125,23.8125,-7.9375));
#409=CARTESIAN_POINT('',(25.4,23.8125,-7.9375));
#410=CARTESIAN_POINT('',(25.4,12.7,-7.9375));
#411=CARTESIAN_POINT('',(25.4,1.58749999999999,-7.9375));
#412=CARTESIAN_POINT('',(23.8125,1.58749999999999,-7.9375));
#413=CARTESIAN_POINT('',(23.8125,-3.46944695195361E-15,-7.9375));
#414=CARTESIAN_POINT('',(12.7,-3.46944695195361E-15,-7.9375));
#415=CARTESIAN_POINT('',(1.5875,-1.73472347597681E-15,-7.9375));
#416=CARTESIAN_POINT('',(1.5875,1.58749999999999,-7.9375));
#417=CARTESIAN_POINT('',(0.0,1.58749999999999,-7.9375));
#418=CARTESIAN_POINT('',(-3.46944695195361E-15,12.7,-7.9375));
#419=CARTESIAN_POINT('',(-3.46944695195361E-15,23.8125,-7.9375));
#420=CARTESIAN_POINT('',(1.5875,23.8125,-7.9375));
#421=CARTESIAN_POINT('',(12.7,12.1696699141101,-7.9375));
#422=CARTESIAN_POINT('',(12.7,25.4,-5.27182464349352E-15));
#423=CARTESIAN_POINT('',(23.8125,25.4,-4.68895755556531E-15));
#424=CARTESIAN_POINT('',(1.5875,25.4,-5.85469173142172E-15));
#425=CARTESIAN_POINT('',(23.8125,25.4,-5.20417042793042E-15));
#426=CARTESIAN_POINT('',(1.5875,25.4,-6.93889390390723E-15));
#427=CARTESIAN_POINT('',(12.7,25.4,-5.27182464349352E-15));
#428=CARTESIAN_POINT('',(-1.73472347597681E-15,1.58749999999999,-1.73472347597681E-15));
#429=CARTESIAN_POINT('',(-1.73472347597681E-15,1.58749999999999,-1.55344487273723E-15));
#430=CARTESIAN_POINT('',(-5.20417042793042E-15,12.7,-3.59955121265187E-15));
#431=CARTESIAN_POINT('',(-1.73472347597681E-15,23.8125,-5.64565755256652E-15));
#432=CARTESIAN_POINT('',(-1.73472347597681E-15,23.8125,-6.93889390390723E-15));
#433=CARTESIAN_POINT('',(-3.46944695195361E-15,12.7,-3.59955121265187E-15));
#434=CARTESIAN_POINT('',(23.8125,-3.46944695195361E-15,-9.62964972193618E-32));
#435=CARTESIAN_POINT('',(23.8125,-3.46944695195361E-15,-1.21430643318403E-17));
#436=CARTESIAN_POINT('',(12.7,0.0,-5.95010152260046E-16));
#437=CARTESIAN_POINT('',(1.5875,-1.73472347597681E-15,-1.17787724018825E-15));
#438=CARTESIAN_POINT('',(1.5875,-1.73472347597681E-15,-1.73472347597681E-15));
#439=CARTESIAN_POINT('',(12.7,-1.73472347597681E-15,-5.95010152260046E-16));
#440=CARTESIAN_POINT('',(25.4,23.8125,-5.20417042793042E-15));
#441=CARTESIAN_POINT('',(25.4,23.8125,-4.31338992301633E-15));
#442=CARTESIAN_POINT('',(25.4,12.7,-2.26728358310169E-15));
#443=CARTESIAN_POINT('',(25.4,1.58749999999999,-2.21177243187045E-16));
#444=CARTESIAN_POINT('',(25.4,1.58749999999999,7.70371977754894E-31));
#445=CARTESIAN_POINT('',(25.4,12.7,-2.26728358310169E-15));
#446=CARTESIAN_POINT('',(12.7,12.7,0.0));
#447=CARTESIAN_POINT('',(9.47594663117994,9.47594663117994,0.0));
#448=CARTESIAN_POINT('',(23.8125,23.8125,-4.39665664986322E-15));
#449=CARTESIAN_POINT('',(1.5875,23.8125,-5.56239082571963E-15));
#450=CARTESIAN_POINT('',(1.5875,1.5875,-1.47017814589034E-15));
#451=CARTESIAN_POINT('',(23.8125,1.5875,-3.04443970033932E-16));
#452=CARTESIAN_POINT('',(12.7,12.7,-2.93341739787678E-15));
#453=CARTESIAN_POINT('',(23.8125,23.8125,-5.20417042793042E-15));
#454=CARTESIAN_POINT('',(23.8125,1.5875,0.0));
#455=CARTESIAN_POINT('',(1.5875,1.5875,-1.73472347597681E-15));
#456=CARTESIAN_POINT('',(1.5875,23.8125,-6.93889390390723E-15));
#457=CARTESIAN_POINT('',(12.7,12.7,-33.3676978394524));
#458=MECHANICAL_DESIGN_GEOMETRIC_PRESENTATION_REPRESENTATION('',(#232,#233,#234,
     #235),#459);
#459=(GEOMETRIC_REPRESENTATION_CONTEXT(3)GLOBAL_UNCERTAINTY_ASSIGNED_CONTEXT((#460))
     GLOBAL_UNIT_ASSIGNED_CONTEXT((#466,#462,#461))REPRESENTATION_CONTEXT('SNMG250716',
     'TOP_LEVEL_ASSEMBLY_PART'));
#460=UNCERTAINTY_MEASURE_WITH_UNIT(LENGTH_MEASURE(2.0E-5),#466,'DISTANCE_ACCURACY_VALUE',
     'Maximum Tolerance applied to model');
#461=(NAMED_UNIT(*)SI_UNIT($,.STERADIAN.)SOLID_ANGLE_UNIT());
#462=(CONVERSION_BASED_UNIT('DEGREE',#464)NAMED_UNIT(#463)PLANE_ANGLE_UNIT());
#463=DIMENSIONAL_EXPONENTS(0.0,0.0,0.0,0.0,0.0,0.0,0.0);
#464=PLANE_ANGLE_MEASURE_WITH_UNIT(PLANE_ANGLE_MEASURE(0.0174532925),#465);
#465=(NAMED_UNIT(*)PLANE_ANGLE_UNIT()SI_UNIT($,.RADIAN.));
#466=(LENGTH_UNIT()NAMED_UNIT(*)SI_UNIT(.MILLI.,.METRE.));
#467=CONSTRUCTIVE_GEOMETRY_REPRESENTATION('supplemental geometry',(#249,#250),#459);
#468=CONSTRUCTIVE_GEOMETRY_REPRESENTATION_RELATIONSHIP('supplemental geometry','contains PCS and MCS coordinate systems',
     #24,#467);
ENDSEC;
END-ISO-10303-21;
