ISO-10303-21;
HEADER;
FILE_DESCRIPTION(
/* description */ (''),
/* implementation_level */ '2;1');
FILE_NAME(
/* name */ 'SNMG150624.stp',
/* time_stamp */ '2017-03-21T10:54:22',
/* author */ ('Sandvik Coromant R&D'),
/* organization */ ('Sandvik Machining Solutions'),
/* preprocessor_version */ 'ST-DEVELOPER v15',
/* originating_system */ 'SIEMENS PLM Software NX v8.5.3.3(64 bits)',
/* authorization */ '');
FILE_SCHEMA(('AUTOMOTIVE_DESIGN'));
ENDSEC;
DATA;
#10=GEOMETRICALLY_BOUNDED_WIREFRAME_SHAPE_REPRESENTATION('IsoTurningInsert-None',
     (#25),#491);
#11=SHAPE_REPRESENTATION_RELATIONSHIP('None','relationship between IsoTurningInsert-None and IsoTurningInsert-None',
     #24,#13);
#12=SHAPE_REPRESENTATION_RELATIONSHIP('None','relationship between IsoTurningInsert-None and IsoTurningInsert-None',
     #24,#10);
#13=ADVANCED_BREP_SHAPE_REPRESENTATION('IsoTurningInsert-None',(#31),#491);
#14=SHAPE_DEFINITION_REPRESENTATION(#15,#24);
#15=PRODUCT_DEFINITION_SHAPE('','',#16);
#16=PRODUCT_DEFINITION(' ','',#18,#17);
#17=PRODUCT_DEFINITION_CONTEXT('part definition',#23,'design');
#18=PRODUCT_DEFINITION_FORMATION_WITH_SPECIFIED_SOURCE(' ',' ',#20,.NOT_KNOWN.);
#19=PRODUCT_RELATED_PRODUCT_CATEGORY('part','',(#20));
#20=PRODUCT('IsoTurningInsert','IsoTurningInsert',' ',(#21));
#21=PRODUCT_CONTEXT(' ',#23,'mechanical');
#22=APPLICATION_PROTOCOL_DEFINITION('international standard','automotive_design',
     2010,#23);
#23=APPLICATION_CONTEXT('core data for automotive mechanical design processes');
#24=SHAPE_REPRESENTATION('IsoTurningInsert-None',(#248),#491);
#25=GEOMETRIC_CURVE_SET('geometric curve set',(#228));
#26=SURFACE_STYLE_USAGE(.BOTH.,#27);
#27=SURFACE_SIDE_STYLE('',(#28));
#28=SURFACE_STYLE_FILL_AREA(#29);
#29=FILL_AREA_STYLE('',(#30));
#30=FILL_AREA_STYLE_COLOUR('',#247);
#31=MANIFOLD_SOLID_BREP('CUT',#32);
#32=CLOSED_SHELL('',(#46,#47,#48,#49,#50,#51,#52,#53,#54,#55,#56));
#33=CYLINDRICAL_SURFACE('',#267,2.38125);
#34=CYLINDRICAL_SURFACE('',#268,2.38125);
#35=CYLINDRICAL_SURFACE('',#269,2.38125);
#36=CYLINDRICAL_SURFACE('',#270,2.38125);
#37=CYLINDRICAL_SURFACE('',#271,3.175);
#38=FACE_OUTER_BOUND('',#103,.T.);
#39=FACE_OUTER_BOUND('',#104,.T.);
#40=FACE_OUTER_BOUND('',#105,.T.);
#41=FACE_OUTER_BOUND('',#106,.T.);
#42=FACE_OUTER_BOUND('',#109,.T.);
#43=FACE_OUTER_BOUND('',#110,.T.);
#44=FACE_OUTER_BOUND('',#111,.T.);
#45=FACE_OUTER_BOUND('',#112,.T.);
#46=ADVANCED_FACE('',(#95,#96),#57,.F.);
#47=ADVANCED_FACE('',(#38),#58,.T.);
#48=ADVANCED_FACE('',(#39),#59,.T.);
#49=ADVANCED_FACE('',(#40),#60,.T.);
#50=ADVANCED_FACE('',(#41),#61,.T.);
#51=ADVANCED_FACE('',(#97,#98),#62,.T.);
#52=ADVANCED_FACE('',(#42),#33,.T.);
#53=ADVANCED_FACE('',(#43),#34,.T.);
#54=ADVANCED_FACE('',(#44),#35,.T.);
#55=ADVANCED_FACE('',(#45),#36,.T.);
#56=ADVANCED_FACE('',(#99,#100),#37,.F.);
#57=PLANE('',#256);
#58=PLANE('',#257);
#59=PLANE('',#258);
#60=PLANE('',#259);
#61=PLANE('',#260);
#62=PLANE('',#266);
#63=LINE('',#437,#79);
#64=LINE('',#442,#80);
#65=LINE('',#446,#81);
#66=LINE('',#450,#82);
#67=LINE('',#454,#83);
#68=LINE('',#457,#84);
#69=LINE('',#458,#85);
#70=LINE('',#460,#86);
#71=LINE('',#462,#87);
#72=LINE('',#464,#88);
#73=LINE('',#466,#89);
#74=LINE('',#468,#90);
#75=LINE('',#470,#91);
#76=LINE('',#472,#92);
#77=LINE('',#474,#93);
#78=LINE('',#476,#94);
#79=VECTOR('',#280,1.0);
#80=VECTOR('',#283,1.0);
#81=VECTOR('',#286,1.0);
#82=VECTOR('',#289,1.0);
#83=VECTOR('',#294,1.0);
#84=VECTOR('',#295,1.0);
#85=VECTOR('',#296,1.0);
#86=VECTOR('',#299,1.0);
#87=VECTOR('',#300,1.0);
#88=VECTOR('',#301,1.0);
#89=VECTOR('',#304,1.0);
#90=VECTOR('',#305,1.0);
#91=VECTOR('',#306,1.0);
#92=VECTOR('',#309,1.0);
#93=VECTOR('',#310,1.0);
#94=VECTOR('',#311,1.0);
#95=FACE_BOUND('',#101,.T.);
#96=FACE_BOUND('',#102,.T.);
#97=FACE_BOUND('',#107,.T.);
#98=FACE_BOUND('',#108,.T.);
#99=FACE_BOUND('',#113,.T.);
#100=FACE_BOUND('',#114,.T.);
#101=EDGE_LOOP('',(#115));
#102=EDGE_LOOP('',(#116,#117,#118,#119,#120,#121,#122,#123));
#103=EDGE_LOOP('',(#124,#125,#126,#127));
#104=EDGE_LOOP('',(#128,#129,#130,#131));
#105=EDGE_LOOP('',(#132,#133,#134,#135));
#106=EDGE_LOOP('',(#136,#137,#138,#139));
#107=EDGE_LOOP('',(#140));
#108=EDGE_LOOP('',(#141,#142,#143,#144,#145,#146,#147,#148));
#109=EDGE_LOOP('',(#149,#150,#151,#152));
#110=EDGE_LOOP('',(#153,#154,#155,#156));
#111=EDGE_LOOP('',(#157,#158,#159,#160));
#112=EDGE_LOOP('',(#161,#162,#163,#164));
#113=EDGE_LOOP('',(#165));
#114=EDGE_LOOP('',(#166));
#115=ORIENTED_EDGE('',*,*,#185,.T.);
#116=ORIENTED_EDGE('',*,*,#186,.T.);
#117=ORIENTED_EDGE('',*,*,#187,.T.);
#118=ORIENTED_EDGE('',*,*,#188,.T.);
#119=ORIENTED_EDGE('',*,*,#189,.T.);
#120=ORIENTED_EDGE('',*,*,#190,.T.);
#121=ORIENTED_EDGE('',*,*,#191,.T.);
#122=ORIENTED_EDGE('',*,*,#192,.T.);
#123=ORIENTED_EDGE('',*,*,#193,.T.);
#124=ORIENTED_EDGE('',*,*,#194,.F.);
#125=ORIENTED_EDGE('',*,*,#195,.T.);
#126=ORIENTED_EDGE('',*,*,#186,.F.);
#127=ORIENTED_EDGE('',*,*,#196,.T.);
#128=ORIENTED_EDGE('',*,*,#192,.F.);
#129=ORIENTED_EDGE('',*,*,#197,.T.);
#130=ORIENTED_EDGE('',*,*,#198,.F.);
#131=ORIENTED_EDGE('',*,*,#199,.T.);
#132=ORIENTED_EDGE('',*,*,#190,.F.);
#133=ORIENTED_EDGE('',*,*,#200,.T.);
#134=ORIENTED_EDGE('',*,*,#201,.F.);
#135=ORIENTED_EDGE('',*,*,#202,.T.);
#136=ORIENTED_EDGE('',*,*,#188,.F.);
#137=ORIENTED_EDGE('',*,*,#203,.T.);
#138=ORIENTED_EDGE('',*,*,#204,.F.);
#139=ORIENTED_EDGE('',*,*,#205,.T.);
#140=ORIENTED_EDGE('',*,*,#206,.F.);
#141=ORIENTED_EDGE('',*,*,#204,.T.);
#142=ORIENTED_EDGE('',*,*,#207,.T.);
#143=ORIENTED_EDGE('',*,*,#194,.T.);
#144=ORIENTED_EDGE('',*,*,#208,.T.);
#145=ORIENTED_EDGE('',*,*,#198,.T.);
#146=ORIENTED_EDGE('',*,*,#209,.T.);
#147=ORIENTED_EDGE('',*,*,#201,.T.);
#148=ORIENTED_EDGE('',*,*,#210,.T.);
#149=ORIENTED_EDGE('',*,*,#187,.F.);
#150=ORIENTED_EDGE('',*,*,#195,.F.);
#151=ORIENTED_EDGE('',*,*,#207,.F.);
#152=ORIENTED_EDGE('',*,*,#203,.F.);
#153=ORIENTED_EDGE('',*,*,#189,.F.);
#154=ORIENTED_EDGE('',*,*,#205,.F.);
#155=ORIENTED_EDGE('',*,*,#210,.F.);
#156=ORIENTED_EDGE('',*,*,#200,.F.);
#157=ORIENTED_EDGE('',*,*,#191,.F.);
#158=ORIENTED_EDGE('',*,*,#202,.F.);
#159=ORIENTED_EDGE('',*,*,#209,.F.);
#160=ORIENTED_EDGE('',*,*,#197,.F.);
#161=ORIENTED_EDGE('',*,*,#193,.F.);
#162=ORIENTED_EDGE('',*,*,#199,.F.);
#163=ORIENTED_EDGE('',*,*,#208,.F.);
#164=ORIENTED_EDGE('',*,*,#196,.F.);
#165=ORIENTED_EDGE('',*,*,#185,.F.);
#166=ORIENTED_EDGE('',*,*,#206,.T.);
#167=VERTEX_POINT('',#436);
#168=VERTEX_POINT('',#438);
#169=VERTEX_POINT('',#439);
#170=VERTEX_POINT('',#441);
#171=VERTEX_POINT('',#443);
#172=VERTEX_POINT('',#445);
#173=VERTEX_POINT('',#447);
#174=VERTEX_POINT('',#449);
#175=VERTEX_POINT('',#451);
#176=VERTEX_POINT('',#455);
#177=VERTEX_POINT('',#456);
#178=VERTEX_POINT('',#461);
#179=VERTEX_POINT('',#463);
#180=VERTEX_POINT('',#467);
#181=VERTEX_POINT('',#469);
#182=VERTEX_POINT('',#473);
#183=VERTEX_POINT('',#475);
#184=VERTEX_POINT('',#479);
#185=EDGE_CURVE('',#167,#167,#211,.T.);
#186=EDGE_CURVE('',#168,#169,#63,.T.);
#187=EDGE_CURVE('',#169,#170,#212,.T.);
#188=EDGE_CURVE('',#170,#171,#64,.T.);
#189=EDGE_CURVE('',#171,#172,#213,.T.);
#190=EDGE_CURVE('',#172,#173,#65,.T.);
#191=EDGE_CURVE('',#173,#174,#214,.T.);
#192=EDGE_CURVE('',#174,#175,#66,.T.);
#193=EDGE_CURVE('',#175,#168,#215,.T.);
#194=EDGE_CURVE('',#176,#177,#67,.T.);
#195=EDGE_CURVE('',#176,#169,#68,.T.);
#196=EDGE_CURVE('',#168,#177,#69,.T.);
#197=EDGE_CURVE('',#174,#178,#70,.T.);
#198=EDGE_CURVE('',#179,#178,#71,.T.);
#199=EDGE_CURVE('',#179,#175,#72,.T.);
#200=EDGE_CURVE('',#172,#180,#73,.T.);
#201=EDGE_CURVE('',#181,#180,#74,.T.);
#202=EDGE_CURVE('',#181,#173,#75,.T.);
#203=EDGE_CURVE('',#170,#182,#76,.T.);
#204=EDGE_CURVE('',#183,#182,#77,.T.);
#205=EDGE_CURVE('',#183,#171,#78,.T.);
#206=EDGE_CURVE('',#184,#184,#216,.T.);
#207=EDGE_CURVE('',#182,#176,#217,.T.);
#208=EDGE_CURVE('',#177,#179,#218,.T.);
#209=EDGE_CURVE('',#178,#181,#219,.T.);
#210=EDGE_CURVE('',#180,#183,#220,.T.);
#211=CIRCLE('',#251,3.175);
#212=CIRCLE('',#252,2.38125);
#213=CIRCLE('',#253,2.38125);
#214=CIRCLE('',#254,2.38125);
#215=CIRCLE('',#255,2.38125);
#216=CIRCLE('',#261,3.175);
#217=CIRCLE('',#262,2.38125);
#218=CIRCLE('',#263,2.38125);
#219=CIRCLE('',#264,2.38125);
#220=CIRCLE('',#265,2.38125);
#221=CURVE_STYLE('',#225,POSITIVE_LENGTH_MEASURE(0.18),#224);
#222=CURVE_STYLE('',#226,POSITIVE_LENGTH_MEASURE(0.18),#246);
#223=CURVE_STYLE('',#227,POSITIVE_LENGTH_MEASURE(0.18),#246);
#224=DRAUGHTING_PRE_DEFINED_COLOUR('blue');
#225=DRAUGHTING_PRE_DEFINED_CURVE_FONT('continuous');
#226=DRAUGHTING_PRE_DEFINED_CURVE_FONT('continuous');
#227=DRAUGHTING_PRE_DEFINED_CURVE_FONT('continuous');
#228=B_SPLINE_CURVE_WITH_KNOTS('CUTTING EDGE LINE',5,(#339,#340,#341,#342,#343,#344,
     #345,#346,#347,#348,#349,#350,#351,#352,#353,#354,#355,#356,#357,#358,#359,
     #360,#361,#362,#363,#364,#365,#366,#367,#368,#369,#370,#371,#372,#373,#374,
     #375,#376,#377,#378,#379,#380,#381,#382,#383,#384,#385,#386,#387,#388,#389,
     #390,#391,#392,#393,#394,#395,#396,#397,#398,#399,#400,#401,#402,#403,#404,
     #405,#406,#407,#408,#409,#410,#411,#412,#413,#414,#415,#416,#417,#418,#419,
     #420,#421,#422,#423,#424,#425,#426,#427,#428,#429,#430,#431,#432),.UNSPECIFIED.,
     .T.,.F.,(2,4,1,1,1,1,1,1,1,1,1,1,1,1,1,1,1,4,4,1,1,1,1,1,1,1,1,1,1,1,1,1,1,
     1,4,4,1,1,1,1,1,1,1,1,1,1,1,1,1,1,1,4,4,1,1,1,1,1,1,1,1,1,1,1,1,1,1,1,4,4,1,
     1),(-0.1870418579,0.0,0.00393488388124996,0.00786976776250004,0.01180465164375,
     0.015739535525,0.01967441940625,0.0236093032875,0.02754418716875,0.03147907105,
     0.03541395493125,0.0393488388125,0.04328372269375,0.047218606575,0.05115349045625,
     0.0550883743375,0.05902325821875,0.0629581421000001,0.25,0.25393488388125,0.2578697677625,
     0.26180465164375,0.265739535525,0.26967441940625,0.2736093032875,0.27754418716875,
     0.28147907105,0.28541395493125,0.2893488388125,0.29328372269375,0.297218606575,
     0.30115349045625,0.3050883743375,0.30902325821875,0.3129581421,0.5,0.50393488388125,
     0.5078697677625,0.51180465164375,0.515739535525,0.51967441940625,0.5236093032875,
     0.52754418716875,0.53147907105,0.53541395493125,0.5393488388125,0.54328372269375,
     0.547218606575,0.55115349045625,0.5550883743375,0.55902325821875,0.5629581421,
     0.75,0.75393488388125,0.7578697677625,0.76180465164375,0.765739535525,0.76967441940625,
     0.7736093032875,0.77754418716875,0.78147907105,0.78541395493125,0.7893488388125,
     0.79328372269375,0.797218606575,0.80115349045625,0.8050883743375,0.80902325821875,
     0.8129581421,1.0,1.00393488388125,1.0078697677625),.UNSPECIFIED.);
#229=PRESENTATION_LAYER_ASSIGNMENT('1','Layer 1',(#228,#249,#250,#31));
#232=STYLED_ITEM('',(#238),#228);
#233=STYLED_ITEM('',(#239),#249);
#234=STYLED_ITEM('',(#240),#250);
#235=STYLED_ITEM('',(#241),#31);
#236=PRESENTATION_STYLE_ASSIGNMENT((#242));
#237=PRESENTATION_STYLE_ASSIGNMENT((#243));
#238=PRESENTATION_STYLE_ASSIGNMENT((#221));
#239=PRESENTATION_STYLE_ASSIGNMENT((#222));
#240=PRESENTATION_STYLE_ASSIGNMENT((#223));
#241=PRESENTATION_STYLE_ASSIGNMENT((#26));
#242=POINT_STYLE('',#244,POSITIVE_LENGTH_MEASURE(3.0),#246);
#243=POINT_STYLE('',#245,POSITIVE_LENGTH_MEASURE(3.0),#246);
#244=PRE_DEFINED_POINT_MARKER_SYMBOL('plus');
#245=PRE_DEFINED_POINT_MARKER_SYMBOL('plus');
#246=COLOUR_RGB('Medium Maroon',0.6,0.4,0.4);
#247=COLOUR_RGB('IsoInsertColor',0.8,0.8,0.8);
#248=AXIS2_PLACEMENT_3D('',#336,#272,#273);
#249=AXIS2_PLACEMENT_3D('PCS',#433,#274,#275);
#250=AXIS2_PLACEMENT_3D('MCS',#434,#276,#277);
#251=AXIS2_PLACEMENT_3D('',#435,#278,#279);
#252=AXIS2_PLACEMENT_3D('',#440,#281,#282);
#253=AXIS2_PLACEMENT_3D('',#444,#284,#285);
#254=AXIS2_PLACEMENT_3D('',#448,#287,#288);
#255=AXIS2_PLACEMENT_3D('',#452,#290,#291);
#256=AXIS2_PLACEMENT_3D('',#453,#292,#293);
#257=AXIS2_PLACEMENT_3D('',#459,#297,#298);
#258=AXIS2_PLACEMENT_3D('',#465,#302,#303);
#259=AXIS2_PLACEMENT_3D('',#471,#307,#308);
#260=AXIS2_PLACEMENT_3D('',#477,#312,#313);
#261=AXIS2_PLACEMENT_3D('',#478,#314,#315);
#262=AXIS2_PLACEMENT_3D('',#480,#316,#317);
#263=AXIS2_PLACEMENT_3D('',#481,#318,#319);
#264=AXIS2_PLACEMENT_3D('',#482,#320,#321);
#265=AXIS2_PLACEMENT_3D('',#483,#322,#323);
#266=AXIS2_PLACEMENT_3D('',#484,#324,#325);
#267=AXIS2_PLACEMENT_3D('',#485,#326,#327);
#268=AXIS2_PLACEMENT_3D('',#486,#328,#329);
#269=AXIS2_PLACEMENT_3D('',#487,#330,#331);
#270=AXIS2_PLACEMENT_3D('',#488,#332,#333);
#271=AXIS2_PLACEMENT_3D('',#489,#334,#335);
#272=DIRECTION('',(0.0,0.0,1.0));
#273=DIRECTION('',(1.0,0.0,0.0));
#274=DIRECTION('',(0.0,0.0,1.0));
#275=DIRECTION('',(1.0,0.0,0.0));
#276=DIRECTION('',(0.0,0.0,1.0));
#277=DIRECTION('',(1.0,0.0,0.0));
#278=DIRECTION('',(0.0,0.0,1.0));
#279=DIRECTION('',(-0.707106781186548,-0.707106781186548,0.0));
#280=DIRECTION('',(1.0,0.0,0.0));
#281=DIRECTION('',(0.0,0.0,-1.0));
#282=DIRECTION('',(-0.707106781186548,-0.707106781186548,0.0));
#283=DIRECTION('',(2.22044604925031E-16,-1.0,0.0));
#284=DIRECTION('',(0.0,0.0,-1.0));
#285=DIRECTION('',(-0.707106781186548,-0.707106781186547,0.0));
#286=DIRECTION('',(-1.0,2.22044604925031E-16,0.0));
#287=DIRECTION('',(0.0,0.0,-1.0));
#288=DIRECTION('',(-0.707106781186548,-0.707106781186547,0.0));
#289=DIRECTION('',(-1.11022302462516E-16,1.0,0.0));
#290=DIRECTION('',(0.0,0.0,-1.0));
#291=DIRECTION('',(-0.707106781186548,-0.707106781186548,0.0));
#292=DIRECTION('',(0.0,0.0,1.0));
#293=DIRECTION('',(-0.707106781186548,-0.707106781186547,0.0));
#294=DIRECTION('',(-1.0,0.0,-8.39223703653662E-17));
#295=DIRECTION('',(8.39223703653662E-17,-2.94602487636754E-16,-1.0));
#296=DIRECTION('',(-8.39223703653662E-17,2.94602487636754E-16,1.0));
#297=DIRECTION('',(0.0,1.0,-2.94602487636754E-16));
#298=DIRECTION('',(-1.0,0.0,0.0));
#299=DIRECTION('',(-8.39223703653662E-17,2.94602487636754E-16,1.0));
#300=DIRECTION('',(1.11022302462516E-16,-1.0,2.94602487636754E-16));
#301=DIRECTION('',(8.39223703653662E-17,-2.94602487636754E-16,-1.0));
#302=DIRECTION('',(-1.0,-1.11022302462516E-16,-8.39223703653661E-17));
#303=DIRECTION('',(1.11022302462516E-16,-1.0,0.0));
#304=DIRECTION('',(-8.39223703653662E-17,2.94602487636754E-16,1.0));
#305=DIRECTION('',(1.0,-2.22044604925031E-16,8.39223703653662E-17));
#306=DIRECTION('',(8.39223703653662E-17,-2.94602487636754E-16,-1.0));
#307=DIRECTION('',(-2.22044604925031E-16,-1.0,2.94602487636754E-16));
#308=DIRECTION('',(1.0,-2.22044604925031E-16,0.0));
#309=DIRECTION('',(-8.39223703653662E-17,2.94602487636754E-16,1.0));
#310=DIRECTION('',(-2.22044604925031E-16,1.0,-2.94602487636754E-16));
#311=DIRECTION('',(8.39223703653662E-17,-2.94602487636754E-16,-1.0));
#312=DIRECTION('',(1.0,2.22044604925031E-16,8.39223703653661E-17));
#313=DIRECTION('',(-2.22044604925031E-16,1.0,0.0));
#314=DIRECTION('',(0.0,0.0,1.0));
#315=DIRECTION('',(-0.707106781186548,-0.707106781186548,0.0));
#316=DIRECTION('',(-8.39223703653662E-17,2.94602487636754E-16,1.0));
#317=DIRECTION('',(-0.707106781186548,0.707106781186548,-2.67657493940974E-16));
#318=DIRECTION('',(-8.39223703653662E-17,2.94602487636754E-16,1.0));
#319=DIRECTION('',(-0.707106781186547,0.707106781186548,-2.67657493940974E-16));
#320=DIRECTION('',(-8.39223703653662E-17,2.94602487636754E-16,1.0));
#321=DIRECTION('',(-0.707106781186547,0.707106781186548,-2.67657493940974E-16));
#322=DIRECTION('',(-8.39223703653662E-17,2.94602487636754E-16,1.0));
#323=DIRECTION('',(-0.707106781186548,0.707106781186548,-2.67657493940974E-16));
#324=DIRECTION('',(-8.39223703653662E-17,2.94602487636754E-16,1.0));
#325=DIRECTION('',(-0.707106781186547,0.707106781186548,-2.67657493940974E-16));
#326=DIRECTION('',(-8.39223703653662E-17,2.94602487636754E-16,1.0));
#327=DIRECTION('',(-0.707106781186548,0.707106781186548,-2.67657493940974E-16));
#328=DIRECTION('',(-8.39223703653662E-17,2.94602487636754E-16,1.0));
#329=DIRECTION('',(-0.707106781186548,0.707106781186548,-2.67657493940974E-16));
#330=DIRECTION('',(-8.39223703653662E-17,2.94602487636754E-16,1.0));
#331=DIRECTION('',(-0.707106781186547,0.707106781186548,-2.67657493940974E-16));
#332=DIRECTION('',(-8.39223703653662E-17,2.94602487636754E-16,1.0));
#333=DIRECTION('',(-0.707106781186547,0.707106781186548,-2.67657493940974E-16));
#334=DIRECTION('',(0.0,0.0,1.0));
#335=DIRECTION('',(-0.707106781186548,-0.707106781186548,0.0));
#336=CARTESIAN_POINT('',(0.0,0.0,0.0));
#339=CARTESIAN_POINT('',(11.27125,-2.66453525910038E-15,0.0));
#340=CARTESIAN_POINT('',(13.5358449505675,-4.44089209850063E-15,7.05054881717058E-16));
#341=CARTESIAN_POINT('',(13.6200348517025,0.00186035156249442,7.11494171026525E-16));
#342=CARTESIAN_POINT('',(13.7510688286098,0.0104362455169111,7.19604518599974E-16));
#343=CARTESIAN_POINT('',(13.9260543757295,0.0342167959647455,7.26286051093547E-16));
#344=CARTESIAN_POINT('',(14.1492118534799,0.086108030182765,7.27549251215572E-16));
#345=CARTESIAN_POINT('',(14.3712655619905,0.161262792671181,7.2089016188923E-16));
#346=CARTESIAN_POINT('',(14.5894130358967,0.260156891118243,7.05913453995143E-16));
#347=CARTESIAN_POINT('',(14.7996738952353,0.38254425327888,6.8236790359043E-16));
#348=CARTESIAN_POINT('',(14.9984098183498,0.527398142409923,6.50293736386823E-16));
#349=CARTESIAN_POINT('',(15.1820807501161,0.692919249883886,6.09999444487288E-16));
#350=CARTESIAN_POINT('',(15.3476018575901,0.876590181650204,5.62073404786565E-16));
#351=CARTESIAN_POINT('',(15.4924557467211,1.0753261047647,5.07342594314509E-16));
#352=CARTESIAN_POINT('',(15.6148431088818,1.28558696410323,4.46847464780646E-16));
#353=CARTESIAN_POINT('',(15.7137372073288,1.50373443800955,3.81726376903279E-16));
#354=CARTESIAN_POINT('',(15.7888919698172,1.72578814651973,3.13298331016187E-16));
#355=CARTESIAN_POINT('',(15.8407832040352,1.9489456242715,2.42546466063691E-16));
#356=CARTESIAN_POINT('',(15.8645637544831,2.12393117138883,1.8564840779774E-16));
#357=CARTESIAN_POINT('',(15.8731396484375,2.25496514829746,1.42266840613889E-16));
#358=CARTESIAN_POINT('',(15.875,2.33915504943249,1.14087703386418E-16));
#359=CARTESIAN_POINT('',(15.875,4.60375,5.99520433297583E-17));
#360=CARTESIAN_POINT('',(15.875,6.82625,3.99680288865056E-17));
#361=CARTESIAN_POINT('',(15.875,9.04875,3.99680288865056E-17));
#362=CARTESIAN_POINT('',(15.875,11.27125,5.99520433297585E-17));
#363=CARTESIAN_POINT('',(15.875,13.5358449505675,8.92851490781483E-17));
#364=CARTESIAN_POINT('',(15.8731396484375,13.6200348517025,6.81332097881744E-17));
#365=CARTESIAN_POINT('',(15.8645637544831,13.7510688286098,3.55721456942754E-17));
#366=CARTESIAN_POINT('',(15.8407832040352,13.9260543757295,-7.12924634320897E-18));
#367=CARTESIAN_POINT('',(15.7888919698172,14.1492118534799,-6.02192342076235E-17));
#368=CARTESIAN_POINT('',(15.7137372073288,14.3712655619905,-1.11555948159357E-16));
#369=CARTESIAN_POINT('',(15.6148431088817,14.5894130358967,-1.60401213543358E-16));
#370=CARTESIAN_POINT('',(15.4924557467211,14.7996738952353,-2.05765017763138E-16));
#371=CARTESIAN_POINT('',(15.3476018575901,14.9984098183498,-2.46793243914782E-16));
#372=CARTESIAN_POINT('',(15.1820807501161,15.1820807501161,-2.82705566014781E-16));
#373=CARTESIAN_POINT('',(14.9984098183498,15.3476018575901,-3.12882177449231E-16));
#374=CARTESIAN_POINT('',(14.7996738952353,15.4924557467211,-3.36882593743195E-16));
#375=CARTESIAN_POINT('',(14.5894130358968,15.6148431088817,-3.54476599927235E-16));
#376=CARTESIAN_POINT('',(14.3712655619905,15.7137372073288,-3.65635392621123E-16));
#377=CARTESIAN_POINT('',(14.1492118534803,15.7888919698172,-3.70549075810381E-16));
#378=CARTESIAN_POINT('',(13.9260543757285,15.8407832040353,-3.6951547526665E-16));
#379=CARTESIAN_POINT('',(13.7510688286112,15.8645637544831,-3.64433037658011E-16));
#380=CARTESIAN_POINT('',(13.6200348517025,15.8731396484375,-3.58294876835825E-16));
#381=CARTESIAN_POINT('',(13.5358449505675,15.875,-3.53429017387539E-16));
#382=CARTESIAN_POINT('',(11.27125,15.875,-2.10456652105506E-16));
#383=CARTESIAN_POINT('',(9.04875,15.875,-1.40304434737004E-16));
#384=CARTESIAN_POINT('',(6.82625,15.875,-1.40304434737004E-16));
#385=CARTESIAN_POINT('',(4.60375,15.875,-2.10456652105506E-16));
#386=CARTESIAN_POINT('',(2.33915504943249,15.875,-3.60494433451616E-16));
#387=CARTESIAN_POINT('',(2.25496514829746,15.8731396484375,-3.79334999915218E-16));
#388=CARTESIAN_POINT('',(2.12393117139021,15.8645637544831,-4.06746815269573E-16));
#389=CARTESIAN_POINT('',(1.94894562427052,15.8407832040352,-4.39203936504117E-16));
#390=CARTESIAN_POINT('',(1.72578814652006,15.7888919698172,-4.73338510666154E-16));
#391=CARTESIAN_POINT('',(1.50373443800945,15.7137372073288,-4.9938820879791E-16));
#392=CARTESIAN_POINT('',(1.28558696410325,15.6148431088818,-5.16544895146042E-16));
#393=CARTESIAN_POINT('',(1.0753261047647,15.4924557467211,-5.2397103084822E-16));
#394=CARTESIAN_POINT('',(0.876590181650202,15.3476018575901,-5.2117091231077E-16));
#395=CARTESIAN_POINT('',(0.692919249883889,15.1820807501161,-5.07931577113693E-16));
#396=CARTESIAN_POINT('',(0.527398142409928,14.9984098183498,-4.84387002422082E-16));
#397=CARTESIAN_POINT('',(0.382544253278877,14.7996738952353,-4.50993349990958E-16));
#398=CARTESIAN_POINT('',(0.260156891118247,14.5894130358968,-4.08526031131005E-16));
#399=CARTESIAN_POINT('',(0.161262792671181,14.3712655619905,-3.57972166961189E-16));
#400=CARTESIAN_POINT('',(0.0861080301827739,14.1492118534803,-3.00614511067514E-16));
#401=CARTESIAN_POINT('',(0.0342167959647499,13.9260543757285,-2.37506289458604E-16));
#402=CARTESIAN_POINT('',(0.0104362455169102,13.7510688286112,-1.84111135852305E-16));
#403=CARTESIAN_POINT('',(0.00186035156249353,13.6200348517025,-1.41992808514794E-16));
#404=CARTESIAN_POINT('',(-3.5527136788005E-15,13.5358449505675,-1.14087703386419E-16));
#405=CARTESIAN_POINT('',(-3.5527136788005E-15,11.27125,-5.99520433297587E-17));
#406=CARTESIAN_POINT('',(-2.66453525910038E-15,9.04875,-3.99680288865057E-17));
#407=CARTESIAN_POINT('',(-3.5527136788005E-15,6.82625,-3.99680288865056E-17));
#408=CARTESIAN_POINT('',(-3.5527136788005E-15,4.60375,-5.99520433297583E-17));
#409=CARTESIAN_POINT('',(-3.5527136788005E-15,2.33915504943248,-8.92851490781479E-17));
#410=CARTESIAN_POINT('',(0.00186035156250064,2.25496514829746,-6.81332097881739E-17));
#411=CARTESIAN_POINT('',(0.0104362455168978,2.12393117139021,-3.5572145694275E-17));
#412=CARTESIAN_POINT('',(0.034216795964757,1.94894562427052,7.12924634320921E-18));
#413=CARTESIAN_POINT('',(0.0861080301827641,1.72578814652006,6.0219234207624E-17));
#414=CARTESIAN_POINT('',(0.161262792671183,1.50373443800945,1.11555948159357E-16));
#415=CARTESIAN_POINT('',(0.260156891118244,1.28558696410325,1.60401213543358E-16));
#416=CARTESIAN_POINT('',(0.382544253278883,1.0753261047647,2.05765017763137E-16));
#417=CARTESIAN_POINT('',(0.527398142409922,0.876590181650198,2.46793243914782E-16));
#418=CARTESIAN_POINT('',(0.692919249883891,0.69291924988389,2.82705566014781E-16));
#419=CARTESIAN_POINT('',(0.876590181650201,0.527398142409922,3.1288217744923E-16));
#420=CARTESIAN_POINT('',(1.0753261047647,0.382544253278872,3.36882593743196E-16));
#421=CARTESIAN_POINT('',(1.28558696410324,0.260156891118259,3.54476599927235E-16));
#422=CARTESIAN_POINT('',(1.50373443800954,0.161262792671173,3.65635392621123E-16));
#423=CARTESIAN_POINT('',(1.72578814651973,0.0861080301827712,3.70549075810382E-16));
#424=CARTESIAN_POINT('',(1.9489456242715,0.0342167959647544,3.69515475266649E-16));
#425=CARTESIAN_POINT('',(2.12393117138883,0.0104362455169058,3.64433037658011E-16));
#426=CARTESIAN_POINT('',(2.25496514829746,0.0018603515624962,3.58294876835825E-16));
#427=CARTESIAN_POINT('',(2.33915504943248,-1.77635683940025E-15,3.53429017387539E-16));
#428=CARTESIAN_POINT('',(4.60375,-1.77635683940025E-15,2.10456652105506E-16));
#429=CARTESIAN_POINT('',(6.82625,-3.5527136788005E-15,1.05228326052753E-16));
#430=CARTESIAN_POINT('',(9.04875,-3.5527136788005E-15,3.5076108684251E-17));
#431=CARTESIAN_POINT('',(11.27125,-2.66453525910038E-15,0.0));
#432=CARTESIAN_POINT('',(13.5358449505675,-4.44089209850063E-15,7.05054881717058E-16));
#433=CARTESIAN_POINT('',(0.0,0.0,0.0));
#434=CARTESIAN_POINT('',(7.9375,7.9375,0.0));
#435=CARTESIAN_POINT('',(7.9375,7.9375,-6.35));
#436=CARTESIAN_POINT('',(5.69243596973271,5.69243596973271,-6.35));
#437=CARTESIAN_POINT('',(7.9375,15.875,-6.35));
#438=CARTESIAN_POINT('',(2.38125,15.875,-6.35));
#439=CARTESIAN_POINT('',(13.49375,15.875,-6.35));
#440=CARTESIAN_POINT('',(13.49375,13.49375,-6.35));
#441=CARTESIAN_POINT('',(15.875,13.49375,-6.35));
#442=CARTESIAN_POINT('',(15.875,7.9375,-6.35));
#443=CARTESIAN_POINT('',(15.875,2.38124999999999,-6.35));
#444=CARTESIAN_POINT('',(13.49375,2.38124999999999,-6.35));
#445=CARTESIAN_POINT('',(13.49375,-5.20417042793042E-15,-6.35));
#446=CARTESIAN_POINT('',(7.9375,-5.20417042793042E-15,-6.35));
#447=CARTESIAN_POINT('',(2.38125,-3.46944695195361E-15,-6.35));
#448=CARTESIAN_POINT('',(2.38125,2.38124999999999,-6.35));
#449=CARTESIAN_POINT('',(-3.46944695195361E-15,2.38124999999999,-6.35));
#450=CARTESIAN_POINT('',(-1.73472347597681E-15,7.9375,-6.35));
#451=CARTESIAN_POINT('',(-3.46944695195361E-15,13.49375,-6.35));
#452=CARTESIAN_POINT('',(2.38125,13.49375,-6.35));
#453=CARTESIAN_POINT('',(7.9375,7.40716991411009,-6.35));
#454=CARTESIAN_POINT('',(7.9375,15.875,-5.27182464349352E-15));
#455=CARTESIAN_POINT('',(13.49375,15.875,-4.80553097315095E-15));
#456=CARTESIAN_POINT('',(2.38125,15.875,-5.73811831383608E-15));
#457=CARTESIAN_POINT('',(13.49375,15.875,-4.33680868994202E-15));
#458=CARTESIAN_POINT('',(2.38125,15.875,-5.20417042793042E-15));
#459=CARTESIAN_POINT('',(7.9375,15.875,-5.27182464349352E-15));
#460=CARTESIAN_POINT('',(-1.73472347597681E-15,2.38124999999999,-1.73472347597681E-15));
#461=CARTESIAN_POINT('',(-1.73472347597681E-15,2.38124999999999,-1.96266614072016E-15));
#462=CARTESIAN_POINT('',(-3.46944695195361E-15,7.9375,-3.59955121265187E-15));
#463=CARTESIAN_POINT('',(-3.46944695195361E-15,13.49375,-5.23643628458359E-15));
#464=CARTESIAN_POINT('',(-3.46944695195361E-15,13.49375,-5.20417042793042E-15));
#465=CARTESIAN_POINT('',(-1.73472347597681E-15,7.9375,-3.59955121265187E-15));
#466=CARTESIAN_POINT('',(13.49375,-3.46944695195361E-15,1.92592994438724E-31));
#467=CARTESIAN_POINT('',(13.49375,-3.46944695195361E-15,-1.28716481917479E-16));
#468=CARTESIAN_POINT('',(7.9375,-1.73472347597681E-15,-5.95010152260045E-16));
#469=CARTESIAN_POINT('',(2.38125,0.0,-1.06130382260261E-15));
#470=CARTESIAN_POINT('',(2.38125,0.0,-8.67361737988403E-16));
#471=CARTESIAN_POINT('',(7.9375,-1.73472347597681E-15,-5.95010152260045E-16));
#472=CARTESIAN_POINT('',(15.875,13.49375,-3.46944695195361E-15));
#473=CARTESIAN_POINT('',(15.875,13.49375,-3.9041686550334E-15));
#474=CARTESIAN_POINT('',(15.875,7.9375,-2.26728358310169E-15));
#475=CARTESIAN_POINT('',(15.875,2.38125,-6.30398511169972E-16));
#476=CARTESIAN_POINT('',(15.875,2.38125,0.0));
#477=CARTESIAN_POINT('',(15.875,7.9375,-2.26728358310169E-15));
#478=CARTESIAN_POINT('',(7.9375,7.9375,-6.93889390390723E-15));
#479=CARTESIAN_POINT('',(5.69243596973271,5.69243596973271,-6.93889390390723E-15));
#480=CARTESIAN_POINT('',(13.49375,13.49375,-4.10400879946593E-15));
#481=CARTESIAN_POINT('',(2.38125,13.49375,-5.03659614015106E-15));
#482=CARTESIAN_POINT('',(2.38125,2.38125,-1.76282599628763E-15));
#483=CARTESIAN_POINT('',(13.49375,2.38125,-8.30238655602499E-16));
#484=CARTESIAN_POINT('',(7.9375,7.9375,-2.93341739787678E-15));
#485=CARTESIAN_POINT('',(13.49375,13.49375,-3.46944695195361E-15));
#486=CARTESIAN_POINT('',(13.49375,2.38125,-8.67361737988404E-16));
#487=CARTESIAN_POINT('',(2.38125,2.38125,-1.73472347597681E-15));
#488=CARTESIAN_POINT('',(2.38125,13.49375,-4.33680868994202E-15));
#489=CARTESIAN_POINT('',(7.9375,7.9375,-33.3676978394524));
#490=MECHANICAL_DESIGN_GEOMETRIC_PRESENTATION_REPRESENTATION('',(#232,#233,#234,
     #235),#491);
#491=(GEOMETRIC_REPRESENTATION_CONTEXT(3)GLOBAL_UNCERTAINTY_ASSIGNED_CONTEXT((#492))
     GLOBAL_UNIT_ASSIGNED_CONTEXT((#498,#494,#493))REPRESENTATION_CONTEXT('SNMG150624',
     'TOP_LEVEL_ASSEMBLY_PART'));
#492=UNCERTAINTY_MEASURE_WITH_UNIT(LENGTH_MEASURE(2.0E-5),#498,'DISTANCE_ACCURACY_VALUE',
     'Maximum Tolerance applied to model');
#493=(NAMED_UNIT(*)SI_UNIT($,.STERADIAN.)SOLID_ANGLE_UNIT());
#494=(CONVERSION_BASED_UNIT('DEGREE',#496)NAMED_UNIT(#495)PLANE_ANGLE_UNIT());
#495=DIMENSIONAL_EXPONENTS(0.0,0.0,0.0,0.0,0.0,0.0,0.0);
#496=PLANE_ANGLE_MEASURE_WITH_UNIT(PLANE_ANGLE_MEASURE(0.0174532925),#497);
#497=(NAMED_UNIT(*)PLANE_ANGLE_UNIT()SI_UNIT($,.RADIAN.));
#498=(LENGTH_UNIT()NAMED_UNIT(*)SI_UNIT(.MILLI.,.METRE.));
#499=CONSTRUCTIVE_GEOMETRY_REPRESENTATION('supplemental geometry',(#249,#250),#491);
#500=CONSTRUCTIVE_GEOMETRY_REPRESENTATION_RELATIONSHIP('supplemental geometry','contains PCS and MCS coordinate systems',
     #24,#499);
ENDSEC;
END-ISO-10303-21;
