ISO-10303-21;
HEADER;
FILE_DESCRIPTION(
/* description */ (''),
/* implementation_level */ '2;1');
FILE_NAME(
/* name */ 'SNMG090304.stp',
/* time_stamp */ '2017-03-21T10:54:18',
/* author */ ('Sandvik Coromant R&D'),
/* organization */ ('Sandvik Machining Solutions'),
/* preprocessor_version */ 'ST-DEVELOPER v15',
/* originating_system */ 'SIEMENS PLM Software NX v8.5.3.3(64 bits)',
/* authorization */ '');
FILE_SCHEMA(('AUTOMOTIVE_DESIGN'));
ENDSEC;
DATA;
#10=GEOMETRICALLY_BOUNDED_WIREFRAME_SHAPE_REPRESENTATION('IsoTurningInsert-None',
     (#25),#443);
#11=SHAPE_REPRESENTATION_RELATIONSHIP('None','relationship between IsoTurningInsert-None and IsoTurningInsert-None',
     #24,#13);
#12=SHAPE_REPRESENTATION_RELATIONSHIP('None','relationship between IsoTurningInsert-None and IsoTurningInsert-None',
     #24,#10);
#13=ADVANCED_BREP_SHAPE_REPRESENTATION('IsoTurningInsert-None',(#31),#443);
#14=SHAPE_DEFINITION_REPRESENTATION(#15,#24);
#15=PRODUCT_DEFINITION_SHAPE('','',#16);
#16=PRODUCT_DEFINITION(' ','',#18,#17);
#17=PRODUCT_DEFINITION_CONTEXT('part definition',#23,'design');
#18=PRODUCT_DEFINITION_FORMATION_WITH_SPECIFIED_SOURCE(' ',' ',#20,.NOT_KNOWN.);
#19=PRODUCT_RELATED_PRODUCT_CATEGORY('part','',(#20));
#20=PRODUCT('IsoTurningInsert','IsoTurningInsert',' ',(#21));
#21=PRODUCT_CONTEXT(' ',#23,'mechanical');
#22=APPLICATION_PROTOCOL_DEFINITION('international standard','automotive_design',
     2010,#23);
#23=APPLICATION_CONTEXT('core data for automotive mechanical design processes');
#24=SHAPE_REPRESENTATION('IsoTurningInsert-None',(#248),#443);
#25=GEOMETRIC_CURVE_SET('geometric curve set',(#228));
#26=SURFACE_STYLE_USAGE(.BOTH.,#27);
#27=SURFACE_SIDE_STYLE('',(#28));
#28=SURFACE_STYLE_FILL_AREA(#29);
#29=FILL_AREA_STYLE('',(#30));
#30=FILL_AREA_STYLE_COLOUR('',#247);
#31=MANIFOLD_SOLID_BREP('CUT',#32);
#32=CLOSED_SHELL('',(#46,#47,#48,#49,#50,#51,#52,#53,#54,#55,#56));
#33=CYLINDRICAL_SURFACE('',#267,0.396874999999999);
#34=CYLINDRICAL_SURFACE('',#268,0.396874999999999);
#35=CYLINDRICAL_SURFACE('',#269,0.396874999999999);
#36=CYLINDRICAL_SURFACE('',#270,0.396874999999999);
#37=CYLINDRICAL_SURFACE('',#271,1.905);
#38=FACE_OUTER_BOUND('',#103,.T.);
#39=FACE_OUTER_BOUND('',#104,.T.);
#40=FACE_OUTER_BOUND('',#105,.T.);
#41=FACE_OUTER_BOUND('',#106,.T.);
#42=FACE_OUTER_BOUND('',#109,.T.);
#43=FACE_OUTER_BOUND('',#110,.T.);
#44=FACE_OUTER_BOUND('',#111,.T.);
#45=FACE_OUTER_BOUND('',#112,.T.);
#46=ADVANCED_FACE('',(#95,#96),#57,.F.);
#47=ADVANCED_FACE('',(#38),#58,.T.);
#48=ADVANCED_FACE('',(#39),#59,.T.);
#49=ADVANCED_FACE('',(#40),#60,.T.);
#50=ADVANCED_FACE('',(#41),#61,.T.);
#51=ADVANCED_FACE('',(#97,#98),#62,.T.);
#52=ADVANCED_FACE('',(#42),#33,.T.);
#53=ADVANCED_FACE('',(#43),#34,.T.);
#54=ADVANCED_FACE('',(#44),#35,.T.);
#55=ADVANCED_FACE('',(#45),#36,.T.);
#56=ADVANCED_FACE('',(#99,#100),#37,.F.);
#57=PLANE('',#256);
#58=PLANE('',#257);
#59=PLANE('',#258);
#60=PLANE('',#259);
#61=PLANE('',#260);
#62=PLANE('',#266);
#63=LINE('',#389,#79);
#64=LINE('',#394,#80);
#65=LINE('',#398,#81);
#66=LINE('',#402,#82);
#67=LINE('',#406,#83);
#68=LINE('',#409,#84);
#69=LINE('',#410,#85);
#70=LINE('',#412,#86);
#71=LINE('',#414,#87);
#72=LINE('',#416,#88);
#73=LINE('',#418,#89);
#74=LINE('',#420,#90);
#75=LINE('',#422,#91);
#76=LINE('',#424,#92);
#77=LINE('',#426,#93);
#78=LINE('',#428,#94);
#79=VECTOR('',#280,1.0);
#80=VECTOR('',#283,1.0);
#81=VECTOR('',#286,1.0);
#82=VECTOR('',#289,1.0);
#83=VECTOR('',#294,1.0);
#84=VECTOR('',#295,1.0);
#85=VECTOR('',#296,1.0);
#86=VECTOR('',#299,1.0);
#87=VECTOR('',#300,1.0);
#88=VECTOR('',#301,1.0);
#89=VECTOR('',#304,1.0);
#90=VECTOR('',#305,1.0);
#91=VECTOR('',#306,1.0);
#92=VECTOR('',#309,1.0);
#93=VECTOR('',#310,1.0);
#94=VECTOR('',#311,1.0);
#95=FACE_BOUND('',#101,.T.);
#96=FACE_BOUND('',#102,.T.);
#97=FACE_BOUND('',#107,.T.);
#98=FACE_BOUND('',#108,.T.);
#99=FACE_BOUND('',#113,.T.);
#100=FACE_BOUND('',#114,.T.);
#101=EDGE_LOOP('',(#115));
#102=EDGE_LOOP('',(#116,#117,#118,#119,#120,#121,#122,#123));
#103=EDGE_LOOP('',(#124,#125,#126,#127));
#104=EDGE_LOOP('',(#128,#129,#130,#131));
#105=EDGE_LOOP('',(#132,#133,#134,#135));
#106=EDGE_LOOP('',(#136,#137,#138,#139));
#107=EDGE_LOOP('',(#140));
#108=EDGE_LOOP('',(#141,#142,#143,#144,#145,#146,#147,#148));
#109=EDGE_LOOP('',(#149,#150,#151,#152));
#110=EDGE_LOOP('',(#153,#154,#155,#156));
#111=EDGE_LOOP('',(#157,#158,#159,#160));
#112=EDGE_LOOP('',(#161,#162,#163,#164));
#113=EDGE_LOOP('',(#165));
#114=EDGE_LOOP('',(#166));
#115=ORIENTED_EDGE('',*,*,#185,.T.);
#116=ORIENTED_EDGE('',*,*,#186,.T.);
#117=ORIENTED_EDGE('',*,*,#187,.T.);
#118=ORIENTED_EDGE('',*,*,#188,.T.);
#119=ORIENTED_EDGE('',*,*,#189,.T.);
#120=ORIENTED_EDGE('',*,*,#190,.T.);
#121=ORIENTED_EDGE('',*,*,#191,.T.);
#122=ORIENTED_EDGE('',*,*,#192,.T.);
#123=ORIENTED_EDGE('',*,*,#193,.T.);
#124=ORIENTED_EDGE('',*,*,#194,.F.);
#125=ORIENTED_EDGE('',*,*,#195,.T.);
#126=ORIENTED_EDGE('',*,*,#186,.F.);
#127=ORIENTED_EDGE('',*,*,#196,.T.);
#128=ORIENTED_EDGE('',*,*,#192,.F.);
#129=ORIENTED_EDGE('',*,*,#197,.T.);
#130=ORIENTED_EDGE('',*,*,#198,.F.);
#131=ORIENTED_EDGE('',*,*,#199,.T.);
#132=ORIENTED_EDGE('',*,*,#190,.F.);
#133=ORIENTED_EDGE('',*,*,#200,.T.);
#134=ORIENTED_EDGE('',*,*,#201,.F.);
#135=ORIENTED_EDGE('',*,*,#202,.T.);
#136=ORIENTED_EDGE('',*,*,#188,.F.);
#137=ORIENTED_EDGE('',*,*,#203,.T.);
#138=ORIENTED_EDGE('',*,*,#204,.F.);
#139=ORIENTED_EDGE('',*,*,#205,.T.);
#140=ORIENTED_EDGE('',*,*,#206,.F.);
#141=ORIENTED_EDGE('',*,*,#204,.T.);
#142=ORIENTED_EDGE('',*,*,#207,.T.);
#143=ORIENTED_EDGE('',*,*,#194,.T.);
#144=ORIENTED_EDGE('',*,*,#208,.T.);
#145=ORIENTED_EDGE('',*,*,#198,.T.);
#146=ORIENTED_EDGE('',*,*,#209,.T.);
#147=ORIENTED_EDGE('',*,*,#201,.T.);
#148=ORIENTED_EDGE('',*,*,#210,.T.);
#149=ORIENTED_EDGE('',*,*,#187,.F.);
#150=ORIENTED_EDGE('',*,*,#195,.F.);
#151=ORIENTED_EDGE('',*,*,#207,.F.);
#152=ORIENTED_EDGE('',*,*,#203,.F.);
#153=ORIENTED_EDGE('',*,*,#189,.F.);
#154=ORIENTED_EDGE('',*,*,#205,.F.);
#155=ORIENTED_EDGE('',*,*,#210,.F.);
#156=ORIENTED_EDGE('',*,*,#200,.F.);
#157=ORIENTED_EDGE('',*,*,#191,.F.);
#158=ORIENTED_EDGE('',*,*,#202,.F.);
#159=ORIENTED_EDGE('',*,*,#209,.F.);
#160=ORIENTED_EDGE('',*,*,#197,.F.);
#161=ORIENTED_EDGE('',*,*,#193,.F.);
#162=ORIENTED_EDGE('',*,*,#199,.F.);
#163=ORIENTED_EDGE('',*,*,#208,.F.);
#164=ORIENTED_EDGE('',*,*,#196,.F.);
#165=ORIENTED_EDGE('',*,*,#185,.F.);
#166=ORIENTED_EDGE('',*,*,#206,.T.);
#167=VERTEX_POINT('',#388);
#168=VERTEX_POINT('',#390);
#169=VERTEX_POINT('',#391);
#170=VERTEX_POINT('',#393);
#171=VERTEX_POINT('',#395);
#172=VERTEX_POINT('',#397);
#173=VERTEX_POINT('',#399);
#174=VERTEX_POINT('',#401);
#175=VERTEX_POINT('',#403);
#176=VERTEX_POINT('',#407);
#177=VERTEX_POINT('',#408);
#178=VERTEX_POINT('',#413);
#179=VERTEX_POINT('',#415);
#180=VERTEX_POINT('',#419);
#181=VERTEX_POINT('',#421);
#182=VERTEX_POINT('',#425);
#183=VERTEX_POINT('',#427);
#184=VERTEX_POINT('',#431);
#185=EDGE_CURVE('',#167,#167,#211,.T.);
#186=EDGE_CURVE('',#168,#169,#63,.T.);
#187=EDGE_CURVE('',#169,#170,#212,.T.);
#188=EDGE_CURVE('',#170,#171,#64,.T.);
#189=EDGE_CURVE('',#171,#172,#213,.T.);
#190=EDGE_CURVE('',#172,#173,#65,.T.);
#191=EDGE_CURVE('',#173,#174,#214,.T.);
#192=EDGE_CURVE('',#174,#175,#66,.T.);
#193=EDGE_CURVE('',#175,#168,#215,.T.);
#194=EDGE_CURVE('',#176,#177,#67,.T.);
#195=EDGE_CURVE('',#176,#169,#68,.T.);
#196=EDGE_CURVE('',#168,#177,#69,.T.);
#197=EDGE_CURVE('',#174,#178,#70,.T.);
#198=EDGE_CURVE('',#179,#178,#71,.T.);
#199=EDGE_CURVE('',#179,#175,#72,.T.);
#200=EDGE_CURVE('',#172,#180,#73,.T.);
#201=EDGE_CURVE('',#181,#180,#74,.T.);
#202=EDGE_CURVE('',#181,#173,#75,.T.);
#203=EDGE_CURVE('',#170,#182,#76,.T.);
#204=EDGE_CURVE('',#183,#182,#77,.T.);
#205=EDGE_CURVE('',#183,#171,#78,.T.);
#206=EDGE_CURVE('',#184,#184,#216,.T.);
#207=EDGE_CURVE('',#182,#176,#217,.T.);
#208=EDGE_CURVE('',#177,#179,#218,.T.);
#209=EDGE_CURVE('',#178,#181,#219,.T.);
#210=EDGE_CURVE('',#180,#183,#220,.T.);
#211=CIRCLE('',#251,1.905);
#212=CIRCLE('',#252,0.396874999999999);
#213=CIRCLE('',#253,0.396874999999999);
#214=CIRCLE('',#254,0.396874999999999);
#215=CIRCLE('',#255,0.396874999999999);
#216=CIRCLE('',#261,1.905);
#217=CIRCLE('',#262,0.396874999999999);
#218=CIRCLE('',#263,0.396874999999999);
#219=CIRCLE('',#264,0.396874999999999);
#220=CIRCLE('',#265,0.396874999999999);
#221=CURVE_STYLE('',#225,POSITIVE_LENGTH_MEASURE(0.18),#224);
#222=CURVE_STYLE('',#226,POSITIVE_LENGTH_MEASURE(0.18),#246);
#223=CURVE_STYLE('',#227,POSITIVE_LENGTH_MEASURE(0.18),#246);
#224=DRAUGHTING_PRE_DEFINED_COLOUR('blue');
#225=DRAUGHTING_PRE_DEFINED_CURVE_FONT('continuous');
#226=DRAUGHTING_PRE_DEFINED_CURVE_FONT('continuous');
#227=DRAUGHTING_PRE_DEFINED_CURVE_FONT('continuous');
#228=B_SPLINE_CURVE_WITH_KNOTS('CUTTING EDGE LINE',5,(#339,#340,#341,#342,#343,#344,
     #345,#346,#347,#348,#349,#350,#351,#352,#353,#354,#355,#356,#357,#358,#359,
     #360,#361,#362,#363,#364,#365,#366,#367,#368,#369,#370,#371,#372,#373,#374,
     #375,#376,#377,#378,#379,#380,#381,#382,#383,#384),.UNSPECIFIED.,.T.,.F.,(2,
     4,1,1,1,4,4,1,1,1,4,4,1,1,1,4,4,1,1,1,4,4,1,1),(-0.2333395921,0.0,0.00416510197499997,
     0.00833020394999995,0.012495305925,0.0166604079,0.25,0.254165101975,0.25833020395,
     0.262495305925,0.2666604079,0.5,0.504165101975,0.50833020395,0.512495305925,
     0.5166604079,0.75,0.754165101975,0.75833020395,0.762495305925,0.7666604079,
     1.0,1.004165101975,1.00833020395),.UNSPECIFIED.);
#229=PRESENTATION_LAYER_ASSIGNMENT('1','Layer 1',(#228,#249,#250,#31));
#232=STYLED_ITEM('',(#238),#228);
#233=STYLED_ITEM('',(#239),#249);
#234=STYLED_ITEM('',(#240),#250);
#235=STYLED_ITEM('',(#241),#31);
#236=PRESENTATION_STYLE_ASSIGNMENT((#242));
#237=PRESENTATION_STYLE_ASSIGNMENT((#243));
#238=PRESENTATION_STYLE_ASSIGNMENT((#221));
#239=PRESENTATION_STYLE_ASSIGNMENT((#222));
#240=PRESENTATION_STYLE_ASSIGNMENT((#223));
#241=PRESENTATION_STYLE_ASSIGNMENT((#26));
#242=POINT_STYLE('',#244,POSITIVE_LENGTH_MEASURE(3.0),#246);
#243=POINT_STYLE('',#245,POSITIVE_LENGTH_MEASURE(3.0),#246);
#244=PRE_DEFINED_POINT_MARKER_SYMBOL('plus');
#245=PRE_DEFINED_POINT_MARKER_SYMBOL('plus');
#246=COLOUR_RGB('Medium Maroon',0.6,0.4,0.4);
#247=COLOUR_RGB('IsoInsertColor',0.8,0.8,0.8);
#248=AXIS2_PLACEMENT_3D('',#336,#272,#273);
#249=AXIS2_PLACEMENT_3D('PCS',#385,#274,#275);
#250=AXIS2_PLACEMENT_3D('MCS',#386,#276,#277);
#251=AXIS2_PLACEMENT_3D('',#387,#278,#279);
#252=AXIS2_PLACEMENT_3D('',#392,#281,#282);
#253=AXIS2_PLACEMENT_3D('',#396,#284,#285);
#254=AXIS2_PLACEMENT_3D('',#400,#287,#288);
#255=AXIS2_PLACEMENT_3D('',#404,#290,#291);
#256=AXIS2_PLACEMENT_3D('',#405,#292,#293);
#257=AXIS2_PLACEMENT_3D('',#411,#297,#298);
#258=AXIS2_PLACEMENT_3D('',#417,#302,#303);
#259=AXIS2_PLACEMENT_3D('',#423,#307,#308);
#260=AXIS2_PLACEMENT_3D('',#429,#312,#313);
#261=AXIS2_PLACEMENT_3D('',#430,#314,#315);
#262=AXIS2_PLACEMENT_3D('',#432,#316,#317);
#263=AXIS2_PLACEMENT_3D('',#433,#318,#319);
#264=AXIS2_PLACEMENT_3D('',#434,#320,#321);
#265=AXIS2_PLACEMENT_3D('',#435,#322,#323);
#266=AXIS2_PLACEMENT_3D('',#436,#324,#325);
#267=AXIS2_PLACEMENT_3D('',#437,#326,#327);
#268=AXIS2_PLACEMENT_3D('',#438,#328,#329);
#269=AXIS2_PLACEMENT_3D('',#439,#330,#331);
#270=AXIS2_PLACEMENT_3D('',#440,#332,#333);
#271=AXIS2_PLACEMENT_3D('',#441,#334,#335);
#272=DIRECTION('',(0.0,0.0,1.0));
#273=DIRECTION('',(1.0,0.0,0.0));
#274=DIRECTION('',(0.0,0.0,1.0));
#275=DIRECTION('',(1.0,0.0,0.0));
#276=DIRECTION('',(0.0,0.0,1.0));
#277=DIRECTION('',(1.0,0.0,0.0));
#278=DIRECTION('',(0.0,0.0,1.0));
#279=DIRECTION('',(-0.707106781186548,-0.707106781186548,0.0));
#280=DIRECTION('',(1.0,0.0,0.0));
#281=DIRECTION('',(0.0,0.0,-1.0));
#282=DIRECTION('',(-0.707106781186547,-0.707106781186547,0.0));
#283=DIRECTION('',(-2.22044604925031E-16,-1.0,0.0));
#284=DIRECTION('',(0.0,0.0,-1.0));
#285=DIRECTION('',(-0.707106781186547,-0.707106781186548,0.0));
#286=DIRECTION('',(-1.0,-2.22044604925031E-16,0.0));
#287=DIRECTION('',(0.0,0.0,-1.0));
#288=DIRECTION('',(-0.707106781186548,-0.707106781186548,0.0));
#289=DIRECTION('',(0.0,1.0,0.0));
#290=DIRECTION('',(0.0,0.0,-1.0));
#291=DIRECTION('',(-0.707106781186548,-0.707106781186547,0.0));
#292=DIRECTION('',(0.0,0.0,1.0));
#293=DIRECTION('',(-0.707106781186548,-0.707106781186548,0.0));
#294=DIRECTION('',(-1.0,0.0,-1.3987061727561E-16));
#295=DIRECTION('',(1.3987061727561E-16,-4.91004146061257E-16,-1.0));
#296=DIRECTION('',(-1.3987061727561E-16,4.91004146061257E-16,1.0));
#297=DIRECTION('',(0.0,1.0,-4.91004146061257E-16));
#298=DIRECTION('',(-1.0,0.0,0.0));
#299=DIRECTION('',(-1.3987061727561E-16,4.91004146061257E-16,1.0));
#300=DIRECTION('',(0.0,-1.0,4.91004146061257E-16));
#301=DIRECTION('',(1.3987061727561E-16,-4.91004146061257E-16,-1.0));
#302=DIRECTION('',(-1.0,0.0,-1.3987061727561E-16));
#303=DIRECTION('',(0.0,-1.0,0.0));
#304=DIRECTION('',(-1.3987061727561E-16,4.91004146061257E-16,1.0));
#305=DIRECTION('',(1.0,2.22044604925031E-16,1.3987061727561E-16));
#306=DIRECTION('',(1.3987061727561E-16,-4.91004146061257E-16,-1.0));
#307=DIRECTION('',(2.22044604925031E-16,-1.0,4.91004146061257E-16));
#308=DIRECTION('',(1.0,2.22044604925031E-16,0.0));
#309=DIRECTION('',(-1.3987061727561E-16,4.91004146061257E-16,1.0));
#310=DIRECTION('',(2.22044604925031E-16,1.0,-4.91004146061257E-16));
#311=DIRECTION('',(1.3987061727561E-16,-4.91004146061257E-16,-1.0));
#312=DIRECTION('',(1.0,-2.22044604925031E-16,1.3987061727561E-16));
#313=DIRECTION('',(2.22044604925031E-16,1.0,0.0));
#314=DIRECTION('',(0.0,0.0,1.0));
#315=DIRECTION('',(-0.707106781186548,-0.707106781186548,0.0));
#316=DIRECTION('',(-1.3987061727561E-16,4.91004146061257E-16,1.0));
#317=DIRECTION('',(-0.707106781186547,0.707106781186547,-4.46095823234957E-16));
#318=DIRECTION('',(-1.3987061727561E-16,4.91004146061257E-16,1.0));
#319=DIRECTION('',(-0.707106781186548,0.707106781186547,-4.46095823234957E-16));
#320=DIRECTION('',(-1.3987061727561E-16,4.91004146061257E-16,1.0));
#321=DIRECTION('',(-0.707106781186548,0.707106781186548,-4.46095823234957E-16));
#322=DIRECTION('',(-1.3987061727561E-16,4.91004146061257E-16,1.0));
#323=DIRECTION('',(-0.707106781186547,0.707106781186548,-4.46095823234957E-16));
#324=DIRECTION('',(-1.3987061727561E-16,4.91004146061257E-16,1.0));
#325=DIRECTION('',(-0.707106781186548,0.707106781186548,-4.46095823234957E-16));
#326=DIRECTION('',(-1.3987061727561E-16,4.91004146061257E-16,1.0));
#327=DIRECTION('',(-0.707106781186547,0.707106781186547,-4.46095823234957E-16));
#328=DIRECTION('',(-1.3987061727561E-16,4.91004146061257E-16,1.0));
#329=DIRECTION('',(-0.707106781186547,0.707106781186548,-4.46095823234957E-16));
#330=DIRECTION('',(-1.3987061727561E-16,4.91004146061257E-16,1.0));
#331=DIRECTION('',(-0.707106781186548,0.707106781186548,-4.46095823234957E-16));
#332=DIRECTION('',(-1.3987061727561E-16,4.91004146061257E-16,1.0));
#333=DIRECTION('',(-0.707106781186548,0.707106781186547,-4.46095823234957E-16));
#334=DIRECTION('',(0.0,0.0,1.0));
#335=DIRECTION('',(-0.707106781186547,-0.707106781186547,0.0));
#336=CARTESIAN_POINT('',(0.0,0.0,0.0));
#339=CARTESIAN_POINT('',(7.381875,0.0,0.0));
#340=CARTESIAN_POINT('',(9.15618830037834,-8.88178419700125E-16,1.9879250161477E-16));
#341=CARTESIAN_POINT('',(9.21231490113502,0.00496093749999726,2.03860178332143E-16));
#342=CARTESIAN_POINT('',(9.30791126309467,0.0290837384929965,2.03699869653915E-16));
#343=CARTESIAN_POINT('',(9.42029137067685,0.104708629322942,1.76997559647111E-16));
#344=CARTESIAN_POINT('',(9.49591626150709,0.217088736905589,1.24536823542501E-16));
#345=CARTESIAN_POINT('',(9.5200390625,0.312685098864978,7.42871234590856E-17));
#346=CARTESIAN_POINT('',(9.525,0.368811699621658,4.34973880269111E-17));
#347=CARTESIAN_POINT('',(9.525,2.143125,1.66533453693771E-17));
#348=CARTESIAN_POINT('',(9.525,3.889375,1.11022302462515E-17));
#349=CARTESIAN_POINT('',(9.525,5.635625,1.11022302462516E-17));
#350=CARTESIAN_POINT('',(9.525,7.381875,1.66533453693774E-17));
#351=CARTESIAN_POINT('',(9.525,9.15618830037834,1.59389943510559E-17));
#352=CARTESIAN_POINT('',(9.5200390625,9.21231490113502,-7.17013712805574E-18));
#353=CARTESIAN_POINT('',(9.495916261507,9.30791126309466,-4.48746595345356E-17));
#354=CARTESIAN_POINT('',(9.42029137067707,9.42029137067686,-8.42060534740095E-17));
#355=CARTESIAN_POINT('',(9.30791126309441,9.49591626150709,-1.04178463974309E-16));
#356=CARTESIAN_POINT('',(9.21231490113502,9.5200390625,-1.04237840865138E-16));
#357=CARTESIAN_POINT('',(9.15618830037834,9.525,-1.00398002506285E-16));
#358=CARTESIAN_POINT('',(7.381875,9.525,-5.84601811404182E-17));
#359=CARTESIAN_POINT('',(5.635625,9.525,-3.89734540936121E-17));
#360=CARTESIAN_POINT('',(3.889375,9.525,-3.89734540936121E-17));
#361=CARTESIAN_POINT('',(2.143125,9.525,-5.84601811404182E-17));
#362=CARTESIAN_POINT('',(0.368811699621654,9.525,-1.08248464799704E-16));
#363=CARTESIAN_POINT('',(0.312685098864967,9.5200390625,-1.27095338355004E-16));
#364=CARTESIAN_POINT('',(0.217088736905334,9.495916261507,-1.50404134712055E-16));
#365=CARTESIAN_POINT('',(0.104708629323134,9.42029137067707,-1.51291374084085E-16));
#366=CARTESIAN_POINT('',(0.0290837384929077,9.30791126309441,-1.17396705451011E-16));
#367=CARTESIAN_POINT('',(0.00496093749999726,9.21231490113502,-7.30692030186604E-17));
#368=CARTESIAN_POINT('',(-3.5527136788005E-15,9.15618830037834,-4.34973880269113E-17));
#369=CARTESIAN_POINT('',(-3.5527136788005E-15,7.381875,-1.66533453693772E-17));
#370=CARTESIAN_POINT('',(-3.5527136788005E-15,5.635625,-1.11022302462515E-17));
#371=CARTESIAN_POINT('',(-2.66453525910038E-15,3.889375,-1.11022302462515E-17));
#372=CARTESIAN_POINT('',(-3.5527136788005E-15,2.143125,-1.66533453693772E-17));
#373=CARTESIAN_POINT('',(-4.44089209850063E-15,0.368811699621653,-1.59389943510554E-17));
#374=CARTESIAN_POINT('',(0.00496093749999638,0.312685098864971,7.17013712805625E-18));
#375=CARTESIAN_POINT('',(0.0290837384929956,0.217088736905327,4.48746595345364E-17));
#376=CARTESIAN_POINT('',(0.104708629322936,0.104708629323136,8.42060534740101E-17));
#377=CARTESIAN_POINT('',(0.217088736905589,0.0290837384929077,1.0417846397431E-16));
#378=CARTESIAN_POINT('',(0.312685098864974,0.00496093749999726,1.04237840865139E-16));
#379=CARTESIAN_POINT('',(0.368811699621656,-1.77635683940025E-15,1.00398002506285E-16));
#380=CARTESIAN_POINT('',(2.143125,-1.77635683940025E-15,5.84601811404183E-17));
#381=CARTESIAN_POINT('',(3.889375,-1.77635683940025E-15,2.92300905702091E-17));
#382=CARTESIAN_POINT('',(5.635625,-8.88178419700125E-16,9.74336352340304E-18));
#383=CARTESIAN_POINT('',(7.381875,0.0,0.0));
#384=CARTESIAN_POINT('',(9.15618830037834,-8.88178419700125E-16,1.9879250161477E-16));
#385=CARTESIAN_POINT('',(0.0,0.0,0.0));
#386=CARTESIAN_POINT('',(4.7625,4.7625,0.0));
#387=CARTESIAN_POINT('',(4.7625,4.7625,-3.175));
#388=CARTESIAN_POINT('',(3.41546158183963,3.41546158183963,-3.175));
#389=CARTESIAN_POINT('',(4.7625,9.525,-3.175));
#390=CARTESIAN_POINT('',(0.396874999999995,9.525,-3.175));
#391=CARTESIAN_POINT('',(9.128125,9.525,-3.175));
#392=CARTESIAN_POINT('',(9.128125,9.128125,-3.175));
#393=CARTESIAN_POINT('',(9.525,9.128125,-3.175));
#394=CARTESIAN_POINT('',(9.525,4.7625,-3.175));
#395=CARTESIAN_POINT('',(9.525,0.396874999999998,-3.175));
#396=CARTESIAN_POINT('',(9.128125,0.396874999999997,-3.175));
#397=CARTESIAN_POINT('',(9.128125,-1.73472347597681E-15,-3.175));
#398=CARTESIAN_POINT('',(4.7625,-1.73472347597681E-15,-3.175));
#399=CARTESIAN_POINT('',(0.396874999999997,-2.60208521396521E-15,-3.175));
#400=CARTESIAN_POINT('',(0.396874999999996,0.396874999999994,-3.175));
#401=CARTESIAN_POINT('',(-2.60208521396521E-15,0.396874999999994,-3.175));
#402=CARTESIAN_POINT('',(-1.73472347597681E-15,4.7625,-3.175));
#403=CARTESIAN_POINT('',(-2.60208521396521E-15,9.128125,-3.175));
#404=CARTESIAN_POINT('',(0.396874999999996,9.128125,-3.175));
#405=CARTESIAN_POINT('',(4.7625,4.23216991411009,-3.175));
#406=CARTESIAN_POINT('',(4.7625,9.525,-5.27182464349352E-15));
#407=CARTESIAN_POINT('',(9.128125,9.525,-4.66120197994968E-15));
#408=CARTESIAN_POINT('',(0.396874999999995,9.525,-5.88244730703735E-15));
#409=CARTESIAN_POINT('',(9.128125,9.525,-4.77048955893622E-15));
#410=CARTESIAN_POINT('',(0.396874999999995,9.525,-6.07153216591882E-15));
#411=CARTESIAN_POINT('',(4.7625,9.525,-5.27182464349352E-15));
#412=CARTESIAN_POINT('',(-3.46944695195361E-15,0.396874999999994,-1.73472347597681E-15));
#413=CARTESIAN_POINT('',(-3.46944695195361E-15,0.396874999999994,-1.4560112375032E-15));
#414=CARTESIAN_POINT('',(-3.46944695195361E-15,4.7625,-3.59955121265187E-15));
#415=CARTESIAN_POINT('',(-2.60208521396521E-15,9.128125,-5.74309118780055E-15));
#416=CARTESIAN_POINT('',(-2.60208521396521E-15,9.128125,-5.63785129692462E-15));
#417=CARTESIAN_POINT('',(-3.46944695195361E-15,4.7625,-3.59955121265188E-15));
#418=CARTESIAN_POINT('',(9.128125,8.67361737988404E-16,-6.74075480535533E-31));
#419=CARTESIAN_POINT('',(9.128125,8.67361737988404E-16,1.561251128379E-17));
#420=CARTESIAN_POINT('',(4.7625,0.0,-5.95010152260046E-16));
#421=CARTESIAN_POINT('',(0.396874999999996,-1.73472347597681E-15,-1.20563281580388E-15));
#422=CARTESIAN_POINT('',(0.396874999999996,-1.73472347597681E-15,-1.30104260698261E-15));
#423=CARTESIAN_POINT('',(4.7625,0.0,-5.95010152260046E-16));
#424=CARTESIAN_POINT('',(9.525,9.128125,-4.33680868994202E-15));
#425=CARTESIAN_POINT('',(9.525,9.128125,-4.41082355825036E-15));
#426=CARTESIAN_POINT('',(9.525,4.7625,-2.26728358310169E-15));
#427=CARTESIAN_POINT('',(9.525,0.396875,-1.23743607953014E-16));
#428=CARTESIAN_POINT('',(9.525,0.396875,-4.33680868994202E-16));
#429=CARTESIAN_POINT('',(9.525,4.7625,-2.26728358310169E-15));
#430=CARTESIAN_POINT('',(4.7625,4.7625,0.0));
#431=CARTESIAN_POINT('',(3.41546158183963,3.41546158183963,0.0));
#432=CARTESIAN_POINT('',(9.128125,9.128125,-4.46633470948162E-15));
#433=CARTESIAN_POINT('',(0.396874999999994,9.128125,-5.68758003656929E-15));
#434=CARTESIAN_POINT('',(0.396874999999995,0.396874999999995,-1.40050008627194E-15));
#435=CARTESIAN_POINT('',(9.128125,0.396874999999998,-1.7925475918427E-16));
#436=CARTESIAN_POINT('',(4.7625,4.7625,-2.93341739787678E-15));
#437=CARTESIAN_POINT('',(9.128125,9.128125,-4.77048955893622E-15));
#438=CARTESIAN_POINT('',(9.128125,0.396874999999998,-4.33680868994202E-16));
#439=CARTESIAN_POINT('',(0.396874999999995,0.396874999999995,-1.30104260698261E-15));
#440=CARTESIAN_POINT('',(0.396874999999994,9.128125,-5.63785129692462E-15));
#441=CARTESIAN_POINT('',(4.7625,4.7625,-33.3676978394524));
#442=MECHANICAL_DESIGN_GEOMETRIC_PRESENTATION_REPRESENTATION('',(#232,#233,#234,
     #235),#443);
#443=(GEOMETRIC_REPRESENTATION_CONTEXT(3)GLOBAL_UNCERTAINTY_ASSIGNED_CONTEXT((#444))
     GLOBAL_UNIT_ASSIGNED_CONTEXT((#450,#446,#445))REPRESENTATION_CONTEXT('SNMG090304',
     'TOP_LEVEL_ASSEMBLY_PART'));
#444=UNCERTAINTY_MEASURE_WITH_UNIT(LENGTH_MEASURE(2.0E-5),#450,'DISTANCE_ACCURACY_VALUE',
     'Maximum Tolerance applied to model');
#445=(NAMED_UNIT(*)SI_UNIT($,.STERADIAN.)SOLID_ANGLE_UNIT());
#446=(CONVERSION_BASED_UNIT('DEGREE',#448)NAMED_UNIT(#447)PLANE_ANGLE_UNIT());
#447=DIMENSIONAL_EXPONENTS(0.0,0.0,0.0,0.0,0.0,0.0,0.0);
#448=PLANE_ANGLE_MEASURE_WITH_UNIT(PLANE_ANGLE_MEASURE(0.0174532925),#449);
#449=(NAMED_UNIT(*)PLANE_ANGLE_UNIT()SI_UNIT($,.RADIAN.));
#450=(LENGTH_UNIT()NAMED_UNIT(*)SI_UNIT(.MILLI.,.METRE.));
#451=CONSTRUCTIVE_GEOMETRY_REPRESENTATION('supplemental geometry',(#249,#250),#443);
#452=CONSTRUCTIVE_GEOMETRY_REPRESENTATION_RELATIONSHIP('supplemental geometry','contains PCS and MCS coordinate systems',
     #24,#451);
ENDSEC;
END-ISO-10303-21;
