ISO-10303-21;
HEADER;
FILE_DESCRIPTION(
/* description */ (''),
/* implementation_level */ '2;1');
FILE_NAME(
/* name */ 'RCMX320900.stp',
/* time_stamp */ '2017-03-21T10:54:13',
/* author */ ('Sandvik Coromant R&D'),
/* organization */ ('Sandvik Machining Solutions'),
/* preprocessor_version */ 'ST-DEVELOPER v15',
/* originating_system */ 'SIEMENS PLM Software NX v8.5.3.3(64 bits)',
/* authorization */ '');
FILE_SCHEMA(('AUTOMOTIVE_DESIGN'));
ENDSEC;
DATA;
#10=GEOMETRICALLY_BOUNDED_WIREFRAME_SHAPE_REPRESENTATION('IsoTurningInsert-None',
     (#25),#179);
#11=SHAPE_REPRESENTATION_RELATIONSHIP('None','relationship between IsoTurningInsert-None and IsoTurningInsert-None',
     #24,#13);
#12=SHAPE_REPRESENTATION_RELATIONSHIP('None','relationship between IsoTurningInsert-None and IsoTurningInsert-None',
     #24,#10);
#13=ADVANCED_BREP_SHAPE_REPRESENTATION('IsoTurningInsert-None',(#31),#179);
#14=SHAPE_DEFINITION_REPRESENTATION(#15,#24);
#15=PRODUCT_DEFINITION_SHAPE('','',#16);
#16=PRODUCT_DEFINITION(' ','',#18,#17);
#17=PRODUCT_DEFINITION_CONTEXT('part definition',#23,'design');
#18=PRODUCT_DEFINITION_FORMATION_WITH_SPECIFIED_SOURCE(' ',' ',#20,.NOT_KNOWN.);
#19=PRODUCT_RELATED_PRODUCT_CATEGORY('part','',(#20));
#20=PRODUCT('IsoTurningInsert','IsoTurningInsert',' ',(#21));
#21=PRODUCT_CONTEXT(' ',#23,'mechanical');
#22=APPLICATION_PROTOCOL_DEFINITION('international standard','automotive_design',
     2010,#23);
#23=APPLICATION_CONTEXT('core data for automotive mechanical design processes');
#24=SHAPE_REPRESENTATION('IsoTurningInsert-None',(#115),#179);
#25=GEOMETRIC_CURVE_SET('geometric curve set',(#90));
#26=SURFACE_STYLE_USAGE(.BOTH.,#27);
#27=SURFACE_SIDE_STYLE('',(#28));
#28=SURFACE_STYLE_FILL_AREA(#29);
#29=FILL_AREA_STYLE('',(#30));
#30=FILL_AREA_STYLE_COLOUR('',#114);
#31=MANIFOLD_SOLID_BREP('CUT',#32);
#32=CLOSED_SHELL('',(#36,#37,#38,#39,#40));
#33=CYLINDRICAL_SURFACE('',#127,4.7498);
#34=CONICAL_SURFACE('',#125,16.0,6.99999999999999);
#35=CONICAL_SURFACE('',#128,4.7498,10.0569260528183);
#36=ADVANCED_FACE('',(#43,#44),#41,.F.);
#37=ADVANCED_FACE('',(#45,#46),#42,.F.);
#38=ADVANCED_FACE('',(#47,#48),#34,.T.);
#39=ADVANCED_FACE('',(#49,#50),#33,.F.);
#40=ADVANCED_FACE('',(#51,#52),#35,.F.);
#41=PLANE('',#121);
#42=PLANE('',#124);
#43=FACE_BOUND('',#53,.T.);
#44=FACE_BOUND('',#54,.T.);
#45=FACE_BOUND('',#55,.T.);
#46=FACE_BOUND('',#56,.T.);
#47=FACE_BOUND('',#57,.T.);
#48=FACE_BOUND('',#58,.T.);
#49=FACE_BOUND('',#59,.T.);
#50=FACE_BOUND('',#60,.T.);
#51=FACE_BOUND('',#61,.T.);
#52=FACE_BOUND('',#62,.T.);
#53=EDGE_LOOP('',(#63));
#54=EDGE_LOOP('',(#64));
#55=EDGE_LOOP('',(#65));
#56=EDGE_LOOP('',(#66));
#57=EDGE_LOOP('',(#67));
#58=EDGE_LOOP('',(#68));
#59=EDGE_LOOP('',(#69));
#60=EDGE_LOOP('',(#70));
#61=EDGE_LOOP('',(#71));
#62=EDGE_LOOP('',(#72));
#63=ORIENTED_EDGE('',*,*,#78,.F.);
#64=ORIENTED_EDGE('',*,*,#79,.F.);
#65=ORIENTED_EDGE('',*,*,#80,.T.);
#66=ORIENTED_EDGE('',*,*,#81,.F.);
#67=ORIENTED_EDGE('',*,*,#78,.T.);
#68=ORIENTED_EDGE('',*,*,#81,.T.);
#69=ORIENTED_EDGE('',*,*,#82,.T.);
#70=ORIENTED_EDGE('',*,*,#79,.T.);
#71=ORIENTED_EDGE('',*,*,#80,.F.);
#72=ORIENTED_EDGE('',*,*,#82,.F.);
#73=VERTEX_POINT('',#164);
#74=VERTEX_POINT('',#166);
#75=VERTEX_POINT('',#169);
#76=VERTEX_POINT('',#171);
#77=VERTEX_POINT('',#175);
#78=EDGE_CURVE('',#73,#73,#91,.T.);
#79=EDGE_CURVE('',#74,#74,#92,.T.);
#80=EDGE_CURVE('',#75,#75,#93,.T.);
#81=EDGE_CURVE('',#76,#76,#94,.T.);
#82=EDGE_CURVE('',#77,#77,#95,.T.);
#83=CURVE_STYLE('',#87,POSITIVE_LENGTH_MEASURE(0.18),#86);
#84=CURVE_STYLE('',#88,POSITIVE_LENGTH_MEASURE(0.18),#113);
#85=CURVE_STYLE('',#89,POSITIVE_LENGTH_MEASURE(0.18),#113);
#86=DRAUGHTING_PRE_DEFINED_COLOUR('blue');
#87=DRAUGHTING_PRE_DEFINED_CURVE_FONT('continuous');
#88=DRAUGHTING_PRE_DEFINED_CURVE_FONT('continuous');
#89=DRAUGHTING_PRE_DEFINED_CURVE_FONT('continuous');
#90=CIRCLE('CUTTING EDGE LINE',#116,16.0);
#91=CIRCLE('',#119,14.8304770573999);
#92=CIRCLE('',#120,4.7498);
#93=CIRCLE('',#122,5.915);
#94=CIRCLE('',#123,16.0);
#95=CIRCLE('',#126,4.7498);
#96=PRESENTATION_LAYER_ASSIGNMENT('1','Layer 1',(#90,#117,#118,#31));
#99=STYLED_ITEM('',(#105),#90);
#100=STYLED_ITEM('',(#106),#117);
#101=STYLED_ITEM('',(#107),#118);
#102=STYLED_ITEM('',(#108),#31);
#103=PRESENTATION_STYLE_ASSIGNMENT((#109));
#104=PRESENTATION_STYLE_ASSIGNMENT((#110));
#105=PRESENTATION_STYLE_ASSIGNMENT((#83));
#106=PRESENTATION_STYLE_ASSIGNMENT((#84));
#107=PRESENTATION_STYLE_ASSIGNMENT((#85));
#108=PRESENTATION_STYLE_ASSIGNMENT((#26));
#109=POINT_STYLE('',#111,POSITIVE_LENGTH_MEASURE(3.0),#113);
#110=POINT_STYLE('',#112,POSITIVE_LENGTH_MEASURE(3.0),#113);
#111=PRE_DEFINED_POINT_MARKER_SYMBOL('plus');
#112=PRE_DEFINED_POINT_MARKER_SYMBOL('plus');
#113=COLOUR_RGB('Medium Maroon',0.6,0.4,0.4);
#114=COLOUR_RGB('IsoInsertColor',0.8,0.8,0.8);
#115=AXIS2_PLACEMENT_3D('',#157,#129,#130);
#116=AXIS2_PLACEMENT_3D('',#160,#131,#132);
#117=AXIS2_PLACEMENT_3D('PCS',#161,#133,#134);
#118=AXIS2_PLACEMENT_3D('MCS',#162,#135,#136);
#119=AXIS2_PLACEMENT_3D('',#163,#137,#138);
#120=AXIS2_PLACEMENT_3D('',#165,#139,#140);
#121=AXIS2_PLACEMENT_3D('',#167,#141,#142);
#122=AXIS2_PLACEMENT_3D('',#168,#143,#144);
#123=AXIS2_PLACEMENT_3D('',#170,#145,#146);
#124=AXIS2_PLACEMENT_3D('',#172,#147,#148);
#125=AXIS2_PLACEMENT_3D('',#173,#149,#150);
#126=AXIS2_PLACEMENT_3D('',#174,#151,#152);
#127=AXIS2_PLACEMENT_3D('',#176,#153,#154);
#128=AXIS2_PLACEMENT_3D('',#177,#155,#156);
#129=DIRECTION('',(0.0,0.0,1.0));
#130=DIRECTION('',(1.0,0.0,0.0));
#131=DIRECTION('',(0.0,0.0,1.0));
#132=DIRECTION('',(-0.882015164970351,-0.471221019015837,0.0));
#133=DIRECTION('',(0.0,0.0,1.0));
#134=DIRECTION('',(1.0,0.0,0.0));
#135=DIRECTION('',(0.0,0.0,1.0));
#136=DIRECTION('',(1.0,0.0,0.0));
#137=DIRECTION('',(0.0,0.0,1.0));
#138=DIRECTION('',(-0.707106781186548,-0.707106781186548,0.0));
#139=DIRECTION('',(0.0,0.0,-1.0));
#140=DIRECTION('',(0.707106781186547,0.707106781186547,0.0));
#141=DIRECTION('',(0.0,0.0,1.0));
#142=DIRECTION('',(-0.707106781186548,-0.707106781186548,0.0));
#143=DIRECTION('',(0.0,0.0,-1.0));
#144=DIRECTION('',(0.707106781186548,0.707106781186547,0.0));
#145=DIRECTION('',(0.0,0.0,-1.0));
#146=DIRECTION('',(-0.882015164970351,-0.471221019015837,0.0));
#147=DIRECTION('',(0.0,0.0,-1.0));
#148=DIRECTION('',(0.707106781186548,0.707106781186548,0.0));
#149=DIRECTION('',(0.0,0.0,1.0));
#150=DIRECTION('',(-0.707106781186548,-0.707106781186547,-2.49987961872854E-17));
#151=DIRECTION('',(0.0,0.0,1.0));
#152=DIRECTION('',(0.707106781186547,0.707106781186547,0.0));
#153=DIRECTION('',(0.0,0.0,-1.0));
#154=DIRECTION('',(0.707106781186547,0.707106781186547,0.0));
#155=DIRECTION('',(0.0,0.0,1.0));
#156=DIRECTION('',(-0.707106781186548,-0.707106781186548,1.90522806895076E-16));
#157=CARTESIAN_POINT('',(0.0,0.0,0.0));
#160=CARTESIAN_POINT('',(16.0,16.0,0.0));
#161=CARTESIAN_POINT('',(0.0,0.0,0.0));
#162=CARTESIAN_POINT('',(16.0,16.0,0.0));
#163=CARTESIAN_POINT('',(16.0,16.0,-9.525));
#164=CARTESIAN_POINT('',(5.51326910448105,5.51326910448104,-9.525));
#165=CARTESIAN_POINT('',(16.0,16.0,-9.525));
#166=CARTESIAN_POINT('',(19.3586157892799,19.3586157892799,-9.525));
#167=CARTESIAN_POINT('',(16.0,15.4696699141101,-9.525));
#168=CARTESIAN_POINT('',(16.0,16.0,0.0));
#169=CARTESIAN_POINT('',(20.1825366107184,20.1825366107184,0.0));
#170=CARTESIAN_POINT('',(16.0,16.0,4.26685108753951E-15));
#171=CARTESIAN_POINT('',(1.88775736047436,8.46046369574659,4.26685108753951E-15));
#172=CARTESIAN_POINT('',(16.0,16.0,4.26685108753951E-15));
#173=CARTESIAN_POINT('',(16.0,16.0,3.46944695195361E-15));
#174=CARTESIAN_POINT('',(16.0,16.0,-6.57));
#175=CARTESIAN_POINT('',(19.3586157892799,19.3586157892799,-6.57));
#176=CARTESIAN_POINT('',(16.0,16.0,-29.1328042564319));
#177=CARTESIAN_POINT('',(16.0,16.0,-6.57));
#178=MECHANICAL_DESIGN_GEOMETRIC_PRESENTATION_REPRESENTATION('',(#99,#100,#101,#102),
     #179);
#179=(GEOMETRIC_REPRESENTATION_CONTEXT(3)GLOBAL_UNCERTAINTY_ASSIGNED_CONTEXT((#180))
     GLOBAL_UNIT_ASSIGNED_CONTEXT((#186,#182,#181))REPRESENTATION_CONTEXT('RCMX320900',
     'TOP_LEVEL_ASSEMBLY_PART'));
#180=UNCERTAINTY_MEASURE_WITH_UNIT(LENGTH_MEASURE(2.0E-5),#186,'DISTANCE_ACCURACY_VALUE',
     'Maximum Tolerance applied to model');
#181=(NAMED_UNIT(*)SI_UNIT($,.STERADIAN.)SOLID_ANGLE_UNIT());
#182=(CONVERSION_BASED_UNIT('DEGREE',#184)NAMED_UNIT(#183)PLANE_ANGLE_UNIT());
#183=DIMENSIONAL_EXPONENTS(0.0,0.0,0.0,0.0,0.0,0.0,0.0);
#184=PLANE_ANGLE_MEASURE_WITH_UNIT(PLANE_ANGLE_MEASURE(0.0174532925),#185);
#185=(NAMED_UNIT(*)PLANE_ANGLE_UNIT()SI_UNIT($,.RADIAN.));
#186=(LENGTH_UNIT()NAMED_UNIT(*)SI_UNIT(.MILLI.,.METRE.));
#187=CONSTRUCTIVE_GEOMETRY_REPRESENTATION('supplemental geometry',(#117,#118),#179);
#188=CONSTRUCTIVE_GEOMETRY_REPRESENTATION_RELATIONSHIP('supplemental geometry','contains PCS and MCS coordinate systems',
     #24,#187);
ENDSEC;
END-ISO-10303-21;
