ISO-10303-21;
HEADER;
FILE_DESCRIPTION(
/* description */ (''),
/* implementation_level */ '2;1');
FILE_NAME(
/* name */ 'DNMG190612.stp',
/* time_stamp */ '2017-03-21T10:54:10',
/* author */ ('Sandvik Coromant R&D'),
/* organization */ ('Sandvik Machining Solutions'),
/* preprocessor_version */ 'ST-DEVELOPER v15',
/* originating_system */ 'SIEMENS PLM Software NX v8.5.3.3(64 bits)',
/* authorization */ '');
FILE_SCHEMA(('AUTOMOTIVE_DESIGN'));
ENDSEC;
DATA;
#10=GEOMETRICALLY_BOUNDED_WIREFRAME_SHAPE_REPRESENTATION('IsoTurningInsert-None',
     (#25),#467);
#11=SHAPE_REPRESENTATION_RELATIONSHIP('None','relationship between IsoTurningInsert-None and IsoTurningInsert-None',
     #24,#13);
#12=SHAPE_REPRESENTATION_RELATIONSHIP('None','relationship between IsoTurningInsert-None and IsoTurningInsert-None',
     #24,#10);
#13=ADVANCED_BREP_SHAPE_REPRESENTATION('IsoTurningInsert-None',(#31),#467);
#14=SHAPE_DEFINITION_REPRESENTATION(#15,#24);
#15=PRODUCT_DEFINITION_SHAPE('','',#16);
#16=PRODUCT_DEFINITION(' ','',#18,#17);
#17=PRODUCT_DEFINITION_CONTEXT('part definition',#23,'design');
#18=PRODUCT_DEFINITION_FORMATION_WITH_SPECIFIED_SOURCE(' ',' ',#20,.NOT_KNOWN.);
#19=PRODUCT_RELATED_PRODUCT_CATEGORY('part','',(#20));
#20=PRODUCT('IsoTurningInsert','IsoTurningInsert',' ',(#21));
#21=PRODUCT_CONTEXT(' ',#23,'mechanical');
#22=APPLICATION_PROTOCOL_DEFINITION('international standard','automotive_design',
     2010,#23);
#23=APPLICATION_CONTEXT('core data for automotive mechanical design processes');
#24=SHAPE_REPRESENTATION('IsoTurningInsert-None',(#248),#467);
#25=GEOMETRIC_CURVE_SET('geometric curve set',(#228));
#26=SURFACE_STYLE_USAGE(.BOTH.,#27);
#27=SURFACE_SIDE_STYLE('',(#28));
#28=SURFACE_STYLE_FILL_AREA(#29);
#29=FILL_AREA_STYLE('',(#30));
#30=FILL_AREA_STYLE_COLOUR('',#247);
#31=MANIFOLD_SOLID_BREP('CUT',#32);
#32=CLOSED_SHELL('',(#46,#47,#48,#49,#50,#51,#52,#53,#54,#55,#56));
#33=CYLINDRICAL_SURFACE('',#267,1.190625);
#34=CYLINDRICAL_SURFACE('',#268,1.190625);
#35=CYLINDRICAL_SURFACE('',#269,1.190625);
#36=CYLINDRICAL_SURFACE('',#270,1.190625);
#37=CYLINDRICAL_SURFACE('',#271,3.175);
#38=FACE_OUTER_BOUND('',#103,.T.);
#39=FACE_OUTER_BOUND('',#104,.T.);
#40=FACE_OUTER_BOUND('',#105,.T.);
#41=FACE_OUTER_BOUND('',#106,.T.);
#42=FACE_OUTER_BOUND('',#109,.T.);
#43=FACE_OUTER_BOUND('',#110,.T.);
#44=FACE_OUTER_BOUND('',#111,.T.);
#45=FACE_OUTER_BOUND('',#112,.T.);
#46=ADVANCED_FACE('',(#95,#96),#57,.F.);
#47=ADVANCED_FACE('',(#38),#58,.T.);
#48=ADVANCED_FACE('',(#39),#59,.T.);
#49=ADVANCED_FACE('',(#40),#60,.T.);
#50=ADVANCED_FACE('',(#41),#61,.T.);
#51=ADVANCED_FACE('',(#97,#98),#62,.T.);
#52=ADVANCED_FACE('',(#42),#33,.T.);
#53=ADVANCED_FACE('',(#43),#34,.T.);
#54=ADVANCED_FACE('',(#44),#35,.T.);
#55=ADVANCED_FACE('',(#45),#36,.T.);
#56=ADVANCED_FACE('',(#99,#100),#37,.F.);
#57=PLANE('',#256);
#58=PLANE('',#257);
#59=PLANE('',#258);
#60=PLANE('',#259);
#61=PLANE('',#260);
#62=PLANE('',#266);
#63=LINE('',#413,#79);
#64=LINE('',#418,#80);
#65=LINE('',#422,#81);
#66=LINE('',#426,#82);
#67=LINE('',#430,#83);
#68=LINE('',#433,#84);
#69=LINE('',#434,#85);
#70=LINE('',#436,#86);
#71=LINE('',#438,#87);
#72=LINE('',#440,#88);
#73=LINE('',#442,#89);
#74=LINE('',#444,#90);
#75=LINE('',#446,#91);
#76=LINE('',#448,#92);
#77=LINE('',#450,#93);
#78=LINE('',#452,#94);
#79=VECTOR('',#280,1.0);
#80=VECTOR('',#283,1.0);
#81=VECTOR('',#286,1.0);
#82=VECTOR('',#289,1.0);
#83=VECTOR('',#294,1.0);
#84=VECTOR('',#295,1.0);
#85=VECTOR('',#296,1.0);
#86=VECTOR('',#299,1.0);
#87=VECTOR('',#300,1.0);
#88=VECTOR('',#301,1.0);
#89=VECTOR('',#304,1.0);
#90=VECTOR('',#305,1.0);
#91=VECTOR('',#306,1.0);
#92=VECTOR('',#309,1.0);
#93=VECTOR('',#310,1.0);
#94=VECTOR('',#311,1.0);
#95=FACE_BOUND('',#101,.T.);
#96=FACE_BOUND('',#102,.T.);
#97=FACE_BOUND('',#107,.T.);
#98=FACE_BOUND('',#108,.T.);
#99=FACE_BOUND('',#113,.T.);
#100=FACE_BOUND('',#114,.T.);
#101=EDGE_LOOP('',(#115));
#102=EDGE_LOOP('',(#116,#117,#118,#119,#120,#121,#122,#123));
#103=EDGE_LOOP('',(#124,#125,#126,#127));
#104=EDGE_LOOP('',(#128,#129,#130,#131));
#105=EDGE_LOOP('',(#132,#133,#134,#135));
#106=EDGE_LOOP('',(#136,#137,#138,#139));
#107=EDGE_LOOP('',(#140));
#108=EDGE_LOOP('',(#141,#142,#143,#144,#145,#146,#147,#148));
#109=EDGE_LOOP('',(#149,#150,#151,#152));
#110=EDGE_LOOP('',(#153,#154,#155,#156));
#111=EDGE_LOOP('',(#157,#158,#159,#160));
#112=EDGE_LOOP('',(#161,#162,#163,#164));
#113=EDGE_LOOP('',(#165));
#114=EDGE_LOOP('',(#166));
#115=ORIENTED_EDGE('',*,*,#185,.T.);
#116=ORIENTED_EDGE('',*,*,#186,.T.);
#117=ORIENTED_EDGE('',*,*,#187,.T.);
#118=ORIENTED_EDGE('',*,*,#188,.T.);
#119=ORIENTED_EDGE('',*,*,#189,.T.);
#120=ORIENTED_EDGE('',*,*,#190,.T.);
#121=ORIENTED_EDGE('',*,*,#191,.T.);
#122=ORIENTED_EDGE('',*,*,#192,.T.);
#123=ORIENTED_EDGE('',*,*,#193,.T.);
#124=ORIENTED_EDGE('',*,*,#194,.F.);
#125=ORIENTED_EDGE('',*,*,#195,.T.);
#126=ORIENTED_EDGE('',*,*,#186,.F.);
#127=ORIENTED_EDGE('',*,*,#196,.T.);
#128=ORIENTED_EDGE('',*,*,#192,.F.);
#129=ORIENTED_EDGE('',*,*,#197,.T.);
#130=ORIENTED_EDGE('',*,*,#198,.F.);
#131=ORIENTED_EDGE('',*,*,#199,.T.);
#132=ORIENTED_EDGE('',*,*,#190,.F.);
#133=ORIENTED_EDGE('',*,*,#200,.T.);
#134=ORIENTED_EDGE('',*,*,#201,.F.);
#135=ORIENTED_EDGE('',*,*,#202,.T.);
#136=ORIENTED_EDGE('',*,*,#188,.F.);
#137=ORIENTED_EDGE('',*,*,#203,.T.);
#138=ORIENTED_EDGE('',*,*,#204,.F.);
#139=ORIENTED_EDGE('',*,*,#205,.T.);
#140=ORIENTED_EDGE('',*,*,#206,.F.);
#141=ORIENTED_EDGE('',*,*,#204,.T.);
#142=ORIENTED_EDGE('',*,*,#207,.T.);
#143=ORIENTED_EDGE('',*,*,#194,.T.);
#144=ORIENTED_EDGE('',*,*,#208,.T.);
#145=ORIENTED_EDGE('',*,*,#198,.T.);
#146=ORIENTED_EDGE('',*,*,#209,.T.);
#147=ORIENTED_EDGE('',*,*,#201,.T.);
#148=ORIENTED_EDGE('',*,*,#210,.T.);
#149=ORIENTED_EDGE('',*,*,#187,.F.);
#150=ORIENTED_EDGE('',*,*,#195,.F.);
#151=ORIENTED_EDGE('',*,*,#207,.F.);
#152=ORIENTED_EDGE('',*,*,#203,.F.);
#153=ORIENTED_EDGE('',*,*,#189,.F.);
#154=ORIENTED_EDGE('',*,*,#205,.F.);
#155=ORIENTED_EDGE('',*,*,#210,.F.);
#156=ORIENTED_EDGE('',*,*,#200,.F.);
#157=ORIENTED_EDGE('',*,*,#191,.F.);
#158=ORIENTED_EDGE('',*,*,#202,.F.);
#159=ORIENTED_EDGE('',*,*,#209,.F.);
#160=ORIENTED_EDGE('',*,*,#197,.F.);
#161=ORIENTED_EDGE('',*,*,#193,.F.);
#162=ORIENTED_EDGE('',*,*,#199,.F.);
#163=ORIENTED_EDGE('',*,*,#208,.F.);
#164=ORIENTED_EDGE('',*,*,#196,.F.);
#165=ORIENTED_EDGE('',*,*,#185,.F.);
#166=ORIENTED_EDGE('',*,*,#206,.T.);
#167=VERTEX_POINT('',#412);
#168=VERTEX_POINT('',#414);
#169=VERTEX_POINT('',#415);
#170=VERTEX_POINT('',#417);
#171=VERTEX_POINT('',#419);
#172=VERTEX_POINT('',#421);
#173=VERTEX_POINT('',#423);
#174=VERTEX_POINT('',#425);
#175=VERTEX_POINT('',#427);
#176=VERTEX_POINT('',#431);
#177=VERTEX_POINT('',#432);
#178=VERTEX_POINT('',#437);
#179=VERTEX_POINT('',#439);
#180=VERTEX_POINT('',#443);
#181=VERTEX_POINT('',#445);
#182=VERTEX_POINT('',#449);
#183=VERTEX_POINT('',#451);
#184=VERTEX_POINT('',#455);
#185=EDGE_CURVE('',#167,#167,#211,.T.);
#186=EDGE_CURVE('',#168,#169,#63,.T.);
#187=EDGE_CURVE('',#169,#170,#212,.T.);
#188=EDGE_CURVE('',#170,#171,#64,.T.);
#189=EDGE_CURVE('',#171,#172,#213,.T.);
#190=EDGE_CURVE('',#172,#173,#65,.T.);
#191=EDGE_CURVE('',#173,#174,#214,.T.);
#192=EDGE_CURVE('',#174,#175,#66,.T.);
#193=EDGE_CURVE('',#175,#168,#215,.T.);
#194=EDGE_CURVE('',#176,#177,#67,.T.);
#195=EDGE_CURVE('',#176,#169,#68,.T.);
#196=EDGE_CURVE('',#168,#177,#69,.T.);
#197=EDGE_CURVE('',#174,#178,#70,.T.);
#198=EDGE_CURVE('',#179,#178,#71,.T.);
#199=EDGE_CURVE('',#179,#175,#72,.T.);
#200=EDGE_CURVE('',#172,#180,#73,.T.);
#201=EDGE_CURVE('',#181,#180,#74,.T.);
#202=EDGE_CURVE('',#181,#173,#75,.T.);
#203=EDGE_CURVE('',#170,#182,#76,.T.);
#204=EDGE_CURVE('',#183,#182,#77,.T.);
#205=EDGE_CURVE('',#183,#171,#78,.T.);
#206=EDGE_CURVE('',#184,#184,#216,.T.);
#207=EDGE_CURVE('',#182,#176,#217,.T.);
#208=EDGE_CURVE('',#177,#179,#218,.T.);
#209=EDGE_CURVE('',#178,#181,#219,.T.);
#210=EDGE_CURVE('',#180,#183,#220,.T.);
#211=CIRCLE('',#251,3.175);
#212=CIRCLE('',#252,1.190625);
#213=CIRCLE('',#253,1.190625);
#214=CIRCLE('',#254,1.190625);
#215=CIRCLE('',#255,1.190625);
#216=CIRCLE('',#261,3.175);
#217=CIRCLE('',#262,1.190625);
#218=CIRCLE('',#263,1.190625);
#219=CIRCLE('',#264,1.190625);
#220=CIRCLE('',#265,1.190625);
#221=CURVE_STYLE('',#225,POSITIVE_LENGTH_MEASURE(0.18),#224);
#222=CURVE_STYLE('',#226,POSITIVE_LENGTH_MEASURE(0.18),#246);
#223=CURVE_STYLE('',#227,POSITIVE_LENGTH_MEASURE(0.18),#246);
#224=DRAUGHTING_PRE_DEFINED_COLOUR('blue');
#225=DRAUGHTING_PRE_DEFINED_CURVE_FONT('continuous');
#226=DRAUGHTING_PRE_DEFINED_CURVE_FONT('continuous');
#227=DRAUGHTING_PRE_DEFINED_CURVE_FONT('continuous');
#228=B_SPLINE_CURVE_WITH_KNOTS('CUTTING EDGE LINE',5,(#339,#340,#341,#342,#343,#344,
     #345,#346,#347,#348,#349,#350,#351,#352,#353,#354,#355,#356,#357,#358,#359,
     #360,#361,#362,#363,#364,#365,#366,#367,#368,#369,#370,#371,#372,#373,#374,
     #375,#376,#377,#378,#379,#380,#381,#382,#383,#384,#385,#386,#387,#388,#389,
     #390,#391,#392,#393,#394,#395,#396,#397,#398,#399,#400,#401,#402,#403,#404,
     #405,#406,#407,#408),.UNSPECIFIED.,.T.,.F.,(2,4,1,1,1,4,4,1,1,1,1,1,1,1,1,1,
     1,1,1,1,1,1,4,4,1,1,1,4,4,1,1,1,1,1,1,1,1,1,1,1,1,1,1,1,4,4,1,1),(-0.2245103907,
     0.0,0.00389424584999998,0.00778849170000551,0.01168273755,0.0155769834,0.2400873741,
     0.2423000138,0.2445126535,0.2467252932,0.248937932900007,0.2511505726,0.2533632123,
     0.255575852,0.2577884917,0.2600011314,0.2622137711,0.2644264108,0.266639050500021,
     0.2688516902,0.2710643299,0.2732769696,0.2754896093,0.5,0.50389424585,0.507788491700006,
     0.51168273755,0.5155769834,0.7400873741,0.7423000138,0.7445126535,0.7467252932,
     0.7489379329,0.7511505726,0.7533632123,0.755575852,0.7577884917,0.7600011314,
     0.7622137711,0.7644264108,0.766639050500005,0.7688516902,0.7710643299,0.7732769696,
     0.7754896093,1.0,1.00389424585,1.00778849170001),.UNSPECIFIED.);
#229=PRESENTATION_LAYER_ASSIGNMENT('1','Layer 1',(#228,#249,#250,#31));
#232=STYLED_ITEM('',(#238),#228);
#233=STYLED_ITEM('',(#239),#249);
#234=STYLED_ITEM('',(#240),#250);
#235=STYLED_ITEM('',(#241),#31);
#236=PRESENTATION_STYLE_ASSIGNMENT((#242));
#237=PRESENTATION_STYLE_ASSIGNMENT((#243));
#238=PRESENTATION_STYLE_ASSIGNMENT((#221));
#239=PRESENTATION_STYLE_ASSIGNMENT((#222));
#240=PRESENTATION_STYLE_ASSIGNMENT((#223));
#241=PRESENTATION_STYLE_ASSIGNMENT((#26));
#242=POINT_STYLE('',#244,POSITIVE_LENGTH_MEASURE(3.0),#246);
#243=POINT_STYLE('',#245,POSITIVE_LENGTH_MEASURE(3.0),#246);
#244=PRE_DEFINED_POINT_MARKER_SYMBOL('plus');
#245=PRE_DEFINED_POINT_MARKER_SYMBOL('plus');
#246=COLOUR_RGB('Medium Maroon',0.6,0.4,0.4);
#247=COLOUR_RGB('IsoInsertColor',0.8,0.8,0.8);
#248=AXIS2_PLACEMENT_3D('',#336,#272,#273);
#249=AXIS2_PLACEMENT_3D('PCS',#409,#274,#275);
#250=AXIS2_PLACEMENT_3D('MCS',#410,#276,#277);
#251=AXIS2_PLACEMENT_3D('',#411,#278,#279);
#252=AXIS2_PLACEMENT_3D('',#416,#281,#282);
#253=AXIS2_PLACEMENT_3D('',#420,#284,#285);
#254=AXIS2_PLACEMENT_3D('',#424,#287,#288);
#255=AXIS2_PLACEMENT_3D('',#428,#290,#291);
#256=AXIS2_PLACEMENT_3D('',#429,#292,#293);
#257=AXIS2_PLACEMENT_3D('',#435,#297,#298);
#258=AXIS2_PLACEMENT_3D('',#441,#302,#303);
#259=AXIS2_PLACEMENT_3D('',#447,#307,#308);
#260=AXIS2_PLACEMENT_3D('',#453,#312,#313);
#261=AXIS2_PLACEMENT_3D('',#454,#314,#315);
#262=AXIS2_PLACEMENT_3D('',#456,#316,#317);
#263=AXIS2_PLACEMENT_3D('',#457,#318,#319);
#264=AXIS2_PLACEMENT_3D('',#458,#320,#321);
#265=AXIS2_PLACEMENT_3D('',#459,#322,#323);
#266=AXIS2_PLACEMENT_3D('',#460,#324,#325);
#267=AXIS2_PLACEMENT_3D('',#461,#326,#327);
#268=AXIS2_PLACEMENT_3D('',#462,#328,#329);
#269=AXIS2_PLACEMENT_3D('',#463,#330,#331);
#270=AXIS2_PLACEMENT_3D('',#464,#332,#333);
#271=AXIS2_PLACEMENT_3D('',#465,#334,#335);
#272=DIRECTION('',(0.0,0.0,1.0));
#273=DIRECTION('',(1.0,0.0,0.0));
#274=DIRECTION('',(0.0,0.0,1.0));
#275=DIRECTION('',(1.0,0.0,0.0));
#276=DIRECTION('',(0.0,0.0,1.0));
#277=DIRECTION('',(1.0,0.0,0.0));
#278=DIRECTION('',(0.0,0.0,1.0));
#279=DIRECTION('',(-0.887010833178222,-0.461748613235034,0.0));
#280=DIRECTION('',(1.0,5.55111512312578E-16,0.0));
#281=DIRECTION('',(0.0,0.0,-1.0));
#282=DIRECTION('',(-0.887010833178222,-0.461748613235033,0.0));
#283=DIRECTION('',(-0.573576436351045,-0.819152044288992,0.0));
#284=DIRECTION('',(0.0,0.0,-1.0));
#285=DIRECTION('',(-0.887010833178222,-0.461748613235034,0.0));
#286=DIRECTION('',(-1.0,2.77555756156289E-16,0.0));
#287=DIRECTION('',(0.0,0.0,-1.0));
#288=DIRECTION('',(-0.887010833178222,-0.461748613235034,0.0));
#289=DIRECTION('',(0.573576436351046,0.819152044288992,0.0));
#290=DIRECTION('',(0.0,0.0,-1.0));
#291=DIRECTION('',(-0.887010833178221,-0.461748613235033,0.0));
#292=DIRECTION('',(0.0,0.0,1.0));
#293=DIRECTION('',(-0.887010833178222,-0.461748613235034,0.0));
#294=DIRECTION('',(-1.0,-5.55111512312578E-16,-6.87451812463677E-17));
#295=DIRECTION('',(6.87451812463679E-17,-3.42738381761054E-16,-1.0));
#296=DIRECTION('',(-6.87451812463679E-17,3.42738381761054E-16,1.0));
#297=DIRECTION('',(-5.55111512312578E-16,1.0,-3.42738381761054E-16));
#298=DIRECTION('',(-1.0,-5.55111512312578E-16,0.0));
#299=DIRECTION('',(-6.87451812463679E-17,3.42738381761054E-16,1.0));
#300=DIRECTION('',(-0.573576436351046,-0.819152044288992,2.4132423000027E-16));
#301=DIRECTION('',(6.87451812463679E-17,-3.42738381761054E-16,-1.0));
#302=DIRECTION('',(-0.819152044288992,0.573576436351046,-2.52899415364209E-16));
#303=DIRECTION('',(-0.573576436351046,-0.819152044288992,0.0));
#304=DIRECTION('',(-6.87451812463679E-17,3.42738381761054E-16,1.0));
#305=DIRECTION('',(1.0,-2.77555756156289E-16,6.8745181246368E-17));
#306=DIRECTION('',(6.87451812463679E-17,-3.42738381761054E-16,-1.0));
#307=DIRECTION('',(-2.77555756156289E-16,-1.0,3.42738381761054E-16));
#308=DIRECTION('',(1.0,-2.77555756156289E-16,0.0));
#309=DIRECTION('',(-6.87451812463679E-17,3.42738381761054E-16,1.0));
#310=DIRECTION('',(0.573576436351045,0.819152044288992,-2.4132423000027E-16));
#311=DIRECTION('',(6.87451812463679E-17,-3.42738381761054E-16,-1.0));
#312=DIRECTION('',(0.819152044288992,-0.573576436351045,2.52899415364209E-16));
#313=DIRECTION('',(0.573576436351045,0.819152044288992,0.0));
#314=DIRECTION('',(0.0,0.0,1.0));
#315=DIRECTION('',(-0.887010833178222,-0.461748613235034,0.0));
#316=DIRECTION('',(-6.87451812463679E-17,3.42738381761054E-16,1.0));
#317=DIRECTION('',(-0.461748613235033,0.887010833178221,-3.3575564967513E-16));
#318=DIRECTION('',(-6.87451812463679E-17,3.42738381761054E-16,1.0));
#319=DIRECTION('',(-0.461748613235033,0.887010833178222,-3.3575564967513E-16));
#320=DIRECTION('',(-6.87451812463679E-17,3.42738381761054E-16,1.0));
#321=DIRECTION('',(-0.461748613235034,0.887010833178222,-3.3575564967513E-16));
#322=DIRECTION('',(-6.87451812463679E-17,3.42738381761054E-16,1.0));
#323=DIRECTION('',(-0.461748613235033,0.887010833178222,-3.35755649675129E-16));
#324=DIRECTION('',(-6.87451812463679E-17,3.42738381761054E-16,1.0));
#325=DIRECTION('',(-0.461748613235034,0.887010833178222,-3.35755649675129E-16));
#326=DIRECTION('',(-6.87451812463679E-17,3.42738381761054E-16,1.0));
#327=DIRECTION('',(-0.461748613235033,0.887010833178221,-3.35755649675129E-16));
#328=DIRECTION('',(-6.87451812463679E-17,3.42738381761054E-16,1.0));
#329=DIRECTION('',(-0.461748613235033,0.887010833178222,-3.35755649675129E-16));
#330=DIRECTION('',(-6.87451812463679E-17,3.42738381761054E-16,1.0));
#331=DIRECTION('',(-0.461748613235034,0.887010833178222,-3.35755649675129E-16));
#332=DIRECTION('',(-6.87451812463679E-17,3.42738381761054E-16,1.0));
#333=DIRECTION('',(-0.461748613235033,0.887010833178222,-3.35755649675129E-16));
#334=DIRECTION('',(0.0,0.0,1.0));
#335=DIRECTION('',(-0.887010833178222,-0.461748613235034,0.0));
#336=CARTESIAN_POINT('',(0.0,0.0,0.0));
#339=CARTESIAN_POINT('',(15.465431030605,-5.32907051820075E-15,4.43734259186819E-32));
#340=CARTESIAN_POINT('',(18.8149733962882,8.88178419700125E-16,4.11852285782006E-16));
#341=CARTESIAN_POINT('',(18.9249272848149,0.00634638194337533,4.17235937100206E-16));
#342=CARTESIAN_POINT('',(19.0979701842172,0.0357630268550864,4.19192525234067E-16));
#343=CARTESIAN_POINT('',(19.3177185405698,0.119250836088454,4.02052296560362E-16));
#344=CARTESIAN_POINT('',(19.5121502293072,0.251371511325017,3.46381551455017E-16));
#345=CARTESIAN_POINT('',(19.6355002636978,0.376247261762275,2.6391641475479E-16));
#346=CARTESIAN_POINT('',(19.7037658749845,0.462676079187498,1.92231189420682E-16));
#347=CARTESIAN_POINT('',(21.6249844485,3.20646055546954,3.01108366418011E-17));
#348=CARTESIAN_POINT('',(23.5146695422434,5.90521055546954,-4.43734259186819E-32));
#349=CARTESIAN_POINT('',(25.4043546359869,8.60396055546953,-5.91645678915759E-32));
#350=CARTESIAN_POINT('',(27.2940397297303,11.3027105554695,3.01108366418012E-17));
#351=CARTESIAN_POINT('',(29.2014387110455,14.0267586086967,1.58156732116814E-16));
#352=CARTESIAN_POINT('',(29.2352259920017,14.0785034015473,1.69719803067106E-16));
#353=CARTESIAN_POINT('',(29.2827147683406,14.1624198410276,1.77870890158311E-16));
#354=CARTESIAN_POINT('',(29.3344123333437,14.2806480490292,1.71750174940795E-16));
#355=CARTESIAN_POINT('',(29.379778367131,14.4404804021898,1.43830520290283E-16));
#356=CARTESIAN_POINT('',(29.4023336574283,14.6060297254489,1.01182120392604E-16));
#357=CARTESIAN_POINT('',(29.4015129592287,14.7735498931516,4.94452149164391E-17));
#358=CARTESIAN_POINT('',(29.3777159378144,14.9371303037246,-6.42196742172623E-18));
#359=CARTESIAN_POINT('',(29.3320822808026,15.0939439495084,-6.30965918215777E-17));
#360=CARTESIAN_POINT('',(29.2688669489797,15.2364077406274,-1.16296691636033E-16));
#361=CARTESIAN_POINT('',(29.1884262680085,15.3699045825191,-1.67635682202403E-16));
#362=CARTESIAN_POINT('',(29.0861464398488,15.4972300980858,-2.18016137504971E-16));
#363=CARTESIAN_POINT('',(28.965798622865,15.6105493457714,-2.62645854667678E-16));
#364=CARTESIAN_POINT('',(28.8290448681785,15.7073072431902,-2.97435944811965E-16));
#365=CARTESIAN_POINT('',(28.6804976185713,15.7837862219074,-3.16864499670013E-16));
#366=CARTESIAN_POINT('',(28.5235497317448,15.8383006141293,-3.14161362007428E-16));
#367=CARTESIAN_POINT('',(28.3970503483658,15.8637653622937,-2.89780919512187E-16));
#368=CARTESIAN_POINT('',(28.3010715823168,15.8729973263832,-2.53942352210161E-16));
#369=CARTESIAN_POINT('',(28.2393051412671,15.875,-2.22317014588886E-16));
#370=CARTESIAN_POINT('',(24.9138564993222,15.875,-4.08072885784254E-17));
#371=CARTESIAN_POINT('',(21.6192910779022,15.875,-6.90253292068385E-32));
#372=CARTESIAN_POINT('',(18.3247256564823,15.875,3.94430452610506E-32));
#373=CARTESIAN_POINT('',(15.0301602350623,15.875,-4.08072885784254E-17));
#374=CARTESIAN_POINT('',(11.680617869379,15.875,-2.46317740699938E-16));
#375=CARTESIAN_POINT('',(11.5706639808523,15.8686536180566,-3.15066376452137E-16));
#376=CARTESIAN_POINT('',(11.39762108145,15.8392369731449,-3.82270995734099E-16));
#377=CARTESIAN_POINT('',(11.1778727250974,15.7557491639115,-3.97323259360578E-16));
#378=CARTESIAN_POINT('',(10.98344103636,15.623628488675,-3.46575263360342E-16));
#379=CARTESIAN_POINT('',(10.8600910019695,15.4987527382377,-2.6391641475479E-16));
#380=CARTESIAN_POINT('',(10.7918253906827,15.4123239208125,-1.92231189420683E-16));
#381=CARTESIAN_POINT('',(8.87060681716728,12.6685394445305,-3.01108366418011E-17));
#382=CARTESIAN_POINT('',(6.98092172342382,9.96978944453046,2.46519032881566E-32));
#383=CARTESIAN_POINT('',(5.09123662968037,7.27103944453046,0.0));
#384=CARTESIAN_POINT('',(3.20155153593692,4.57228944453046,-3.0110836641801E-17));
#385=CARTESIAN_POINT('',(1.29415255462177,1.84824139130329,-1.58156732116813E-16));
#386=CARTESIAN_POINT('',(1.26036527366559,1.79649659845266,-1.69719803067105E-16));
#387=CARTESIAN_POINT('',(1.21287649732658,1.71258015897235,-1.77870890158309E-16));
#388=CARTESIAN_POINT('',(1.16117893232358,1.59435195097088,-1.71750174940798E-16));
#389=CARTESIAN_POINT('',(1.11581289853632,1.43451959781033,-1.43830520290302E-16));
#390=CARTESIAN_POINT('',(1.09325760823892,1.26897027455122,-1.01182120392632E-16));
#391=CARTESIAN_POINT('',(1.09407830643849,1.10145010684848,-4.94452149164727E-17));
#392=CARTESIAN_POINT('',(1.11787532785277,0.93786969627548,6.42196742169293E-18));
#393=CARTESIAN_POINT('',(1.16350898486468,0.781056050491555,6.30965918215804E-17));
#394=CARTESIAN_POINT('',(1.22672431668753,0.638592259372599,1.16296691636036E-16));
#395=CARTESIAN_POINT('',(1.30716499765873,0.505095417480907,1.67635682202405E-16));
#396=CARTESIAN_POINT('',(1.40944482581832,0.377769901914353,2.18016137504902E-16));
#397=CARTESIAN_POINT('',(1.52979264280207,0.264450654228767,2.62645854667617E-16));
#398=CARTESIAN_POINT('',(1.66654639748857,0.167692756809942,2.97435944811927E-16));
#399=CARTESIAN_POINT('',(1.81509364709576,0.0912137780926523,3.16864499670006E-16));
#400=CARTESIAN_POINT('',(1.97204153392224,0.0366993858707438,3.14161362007472E-16));
#401=CARTESIAN_POINT('',(2.09854091730144,0.0112346377063135,2.89780919512187E-16));
#402=CARTESIAN_POINT('',(2.19451968335043,0.0020026736167722,2.53942352210161E-16));
#403=CARTESIAN_POINT('',(2.25628612440016,-1.77635683940025E-15,2.22317014588886E-16));
#404=CARTESIAN_POINT('',(5.58173476634502,1.77635683940025E-15,4.08072885784254E-17));
#405=CARTESIAN_POINT('',(8.876300187765,-8.88178419700125E-16,6.40949485492072E-32));
#406=CARTESIAN_POINT('',(12.170865609185,-3.5527136788005E-15,6.40949485492072E-32));
#407=CARTESIAN_POINT('',(15.465431030605,-5.32907051820075E-15,4.43734259186819E-32));
#408=CARTESIAN_POINT('',(18.8149733962882,8.88178419700125E-16,4.11852285782006E-16));
#409=CARTESIAN_POINT('',(0.0,0.0,0.0));
#410=CARTESIAN_POINT('',(15.2477956328336,7.9375,0.0));
#411=CARTESIAN_POINT('',(15.2477956328336,7.9375,-6.35));
#412=CARTESIAN_POINT('',(12.4315362374928,6.47144815297877,-6.35));
#413=CARTESIAN_POINT('',(15.2477956328336,15.875,-6.35));
#414=CARTESIAN_POINT('',(11.7355948136423,15.875,-6.35));
#415=CARTESIAN_POINT('',(28.2084219207422,15.875,-6.35));
#416=CARTESIAN_POINT('',(28.2084219207422,14.684375,-6.35));
#417=CARTESIAN_POINT('',(29.1837248234738,14.0014605554695,-6.35));
#418=CARTESIAN_POINT('',(21.7498149843775,3.38473703646358,-6.35));
#419=CARTESIAN_POINT('',(19.7352993547565,0.507710555469535,-6.35));
#420=CARTESIAN_POINT('',(18.7599964520249,1.190625,-6.35));
#421=CARTESIAN_POINT('',(18.7599964520249,-3.46944695195361E-15,-6.35));
#422=CARTESIAN_POINT('',(15.2477956328336,-1.73472347597681E-15,-6.35));
#423=CARTESIAN_POINT('',(2.28716934492505,1.73472347597681E-15,-6.35));
#424=CARTESIAN_POINT('',(2.28716934492505,1.190625,-6.35));
#425=CARTESIAN_POINT('',(1.31186644219346,1.87353944453046,-6.35));
#426=CARTESIAN_POINT('',(8.74577628128976,12.4902629635364,-6.35));
#427=CARTESIAN_POINT('',(10.7602919109107,15.3672894445305,-6.35));
#428=CARTESIAN_POINT('',(11.7355948136423,14.684375,-6.35));
#429=CARTESIAN_POINT('',(15.0883223003549,7.43171520759503,-6.35));
#430=CARTESIAN_POINT('',(15.2477956328336,15.875,-5.65390330310514E-15));
#431=CARTESIAN_POINT('',(28.2084219207422,15.875,-4.76292269987643E-15));
#432=CARTESIAN_POINT('',(11.7355948136423,15.875,-5.89535018499409E-15));
#433=CARTESIAN_POINT('',(28.2084219207422,15.875,-4.33680868994202E-15));
#434=CARTESIAN_POINT('',(11.7355948136423,15.875,-5.20417042793042E-15));
#435=CARTESIAN_POINT('',(15.2477956328336,15.875,-5.65390330310514E-15));
#436=CARTESIAN_POINT('',(1.31186644219346,1.87353944453046,-1.73472347597681E-15));
#437=CARTESIAN_POINT('',(1.31186644219346,1.87353944453046,-1.81309334807939E-15));
#438=CARTESIAN_POINT('',(8.74577628128976,12.4902629635364,-4.94080650733019E-15));
#439=CARTESIAN_POINT('',(10.7602919109107,15.3672894445305,-5.78838566562785E-15));
#440=CARTESIAN_POINT('',(10.7602919109107,15.3672894445305,-5.20417042793042E-15));
#441=CARTESIAN_POINT('',(8.74577628128976,12.4902629635364,-4.94080650733019E-15));
#442=CARTESIAN_POINT('',(18.7599964520249,0.0,1.34815096107107E-30));
#443=CARTESIAN_POINT('',(18.7599964520249,0.0,2.85153892405372E-17));
#444=CARTESIAN_POINT('',(15.2477956328336,-1.73472347597681E-15,-2.12931492648411E-16));
#445=CARTESIAN_POINT('',(2.28716934492504,3.46944695195361E-15,-1.10391209587713E-15));
#446=CARTESIAN_POINT('',(2.28716934492504,3.46944695195361E-15,-8.67361737988403E-16));
#447=CARTESIAN_POINT('',(15.2477956328336,0.0,-2.12931492648413E-16));
#448=CARTESIAN_POINT('',(29.1837248234738,14.0014605554695,-3.46944695195362E-15));
#449=CARTESIAN_POINT('',(29.1837248234738,14.0014605554695,-4.05374144767417E-15));
#450=CARTESIAN_POINT('',(21.7498149843775,3.38473703646358,-9.26028288423372E-16));
#451=CARTESIAN_POINT('',(19.7352993547565,0.507710555469537,-7.84491301257073E-17));
#452=CARTESIAN_POINT('',(19.7352993547565,0.507710555469537,-7.70371977754894E-31));
#453=CARTESIAN_POINT('',(21.7498149843775,3.38473703646358,-9.2602828842337E-16));
#454=CARTESIAN_POINT('',(15.2477956328336,7.9375,-6.93889390390723E-15));
#455=CARTESIAN_POINT('',(12.4315362374928,6.47144815297877,-6.93889390390723E-15));
#456=CARTESIAN_POINT('',(28.2084219207422,14.684375,-4.35484981409218E-15));
#457=CARTESIAN_POINT('',(11.7355948136423,14.684375,-5.48727729920984E-15));
#458=CARTESIAN_POINT('',(2.28716934492505,1.190625,-1.51198498166138E-15));
#459=CARTESIAN_POINT('',(18.7599964520249,1.190625,-3.79557496543718E-16));
#460=CARTESIAN_POINT('',(15.2477956328336,7.9375,-2.93341739787678E-15));
#461=CARTESIAN_POINT('',(28.2084219207422,14.684375,-4.33680868994202E-15));
#462=CARTESIAN_POINT('',(18.7599964520249,1.190625,0.0));
#463=CARTESIAN_POINT('',(2.28716934492505,1.190625,-8.67361737988404E-16));
#464=CARTESIAN_POINT('',(11.7355948136423,14.684375,-5.20417042793042E-15));
#465=CARTESIAN_POINT('',(15.2477956328336,7.9375,-33.3676978394524));
#466=MECHANICAL_DESIGN_GEOMETRIC_PRESENTATION_REPRESENTATION('',(#232,#233,#234,
     #235),#467);
#467=(GEOMETRIC_REPRESENTATION_CONTEXT(3)GLOBAL_UNCERTAINTY_ASSIGNED_CONTEXT((#468))
     GLOBAL_UNIT_ASSIGNED_CONTEXT((#474,#470,#469))REPRESENTATION_CONTEXT('DNMG190612',
     'TOP_LEVEL_ASSEMBLY_PART'));
#468=UNCERTAINTY_MEASURE_WITH_UNIT(LENGTH_MEASURE(2.0E-5),#474,'DISTANCE_ACCURACY_VALUE',
     'Maximum Tolerance applied to model');
#469=(NAMED_UNIT(*)SI_UNIT($,.STERADIAN.)SOLID_ANGLE_UNIT());
#470=(CONVERSION_BASED_UNIT('DEGREE',#472)NAMED_UNIT(#471)PLANE_ANGLE_UNIT());
#471=DIMENSIONAL_EXPONENTS(0.0,0.0,0.0,0.0,0.0,0.0,0.0);
#472=PLANE_ANGLE_MEASURE_WITH_UNIT(PLANE_ANGLE_MEASURE(0.0174532925),#473);
#473=(NAMED_UNIT(*)PLANE_ANGLE_UNIT()SI_UNIT($,.RADIAN.));
#474=(LENGTH_UNIT()NAMED_UNIT(*)SI_UNIT(.MILLI.,.METRE.));
#475=CONSTRUCTIVE_GEOMETRY_REPRESENTATION('supplemental geometry',(#249,#250),#467);
#476=CONSTRUCTIVE_GEOMETRY_REPRESENTATION_RELATIONSHIP('supplemental geometry','contains PCS and MCS coordinate systems',
     #24,#475);
ENDSEC;
END-ISO-10303-21;
