ISO-10303-21;
HEADER;
FILE_DESCRIPTION(
/* description */ (''),
/* implementation_level */ '2;1');
FILE_NAME(
/* name */ 'CPMT09T304.stp',
/* time_stamp */ '2017-03-21T10:54:00',
/* author */ ('Sandvik Coromant R&D'),
/* organization */ ('Sandvik Machining Solutions'),
/* preprocessor_version */ 'ST-DEVELOPER v15',
/* originating_system */ 'SIEMENS PLM Software NX v8.5.3.3(64 bits)',
/* authorization */ '');
FILE_SCHEMA(('AUTOMOTIVE_DESIGN'));
ENDSEC;
DATA;
#10=GEOMETRICALLY_BOUNDED_WIREFRAME_SHAPE_REPRESENTATION('IsoTurningInsert-None',
     (#25),#507);
#11=SHAPE_REPRESENTATION_RELATIONSHIP('None','relationship between IsoTurningInsert-None and IsoTurningInsert-None',
     #24,#13);
#12=SHAPE_REPRESENTATION_RELATIONSHIP('None','relationship between IsoTurningInsert-None and IsoTurningInsert-None',
     #24,#10);
#13=ADVANCED_BREP_SHAPE_REPRESENTATION('IsoTurningInsert-None',(#31),#507);
#14=SHAPE_DEFINITION_REPRESENTATION(#15,#24);
#15=PRODUCT_DEFINITION_SHAPE('','',#16);
#16=PRODUCT_DEFINITION(' ','',#18,#17);
#17=PRODUCT_DEFINITION_CONTEXT('part definition',#23,'design');
#18=PRODUCT_DEFINITION_FORMATION_WITH_SPECIFIED_SOURCE(' ',' ',#20,.NOT_KNOWN.);
#19=PRODUCT_RELATED_PRODUCT_CATEGORY('part','',(#20));
#20=PRODUCT('IsoTurningInsert','IsoTurningInsert',' ',(#21));
#21=PRODUCT_CONTEXT(' ',#23,'mechanical');
#22=APPLICATION_PROTOCOL_DEFINITION('international standard','automotive_design',
     2010,#23);
#23=APPLICATION_CONTEXT('core data for automotive mechanical design processes');
#24=SHAPE_REPRESENTATION('IsoTurningInsert-None',(#285),#507);
#25=GEOMETRIC_CURVE_SET('geometric curve set',(#265));
#26=SURFACE_STYLE_USAGE(.BOTH.,#27);
#27=SURFACE_SIDE_STYLE('',(#28));
#28=SURFACE_STYLE_FILL_AREA(#29);
#29=FILL_AREA_STYLE('',(#30));
#30=FILL_AREA_STYLE_COLOUR('',#284);
#31=MANIFOLD_SOLID_BREP('CUT',#32);
#32=CLOSED_SHELL('',(#49,#50,#51,#52,#53,#54,#55,#56,#57,#58,#59,#60,#61,#62));
#33=CYLINDRICAL_SURFACE('',#309,2.2);
#34=TOROIDAL_SURFACE('',#308,6.2,4.0);
#35=TOROIDAL_SURFACE('',#310,2.51117873496443,0.5);
#36=CONICAL_SURFACE('',#300,0.396875000000001,11.0);
#37=CONICAL_SURFACE('',#301,0.396875000000001,11.0);
#38=CONICAL_SURFACE('',#302,0.396875000000001,11.0);
#39=CONICAL_SURFACE('',#303,0.396875000000001,11.0);
#40=CONICAL_SURFACE('',#305,2.99999999999613,4.00000000019621);
#41=FACE_OUTER_BOUND('',#123,.T.);
#42=FACE_OUTER_BOUND('',#124,.T.);
#43=FACE_OUTER_BOUND('',#125,.T.);
#44=FACE_OUTER_BOUND('',#126,.T.);
#45=FACE_OUTER_BOUND('',#129,.T.);
#46=FACE_OUTER_BOUND('',#130,.T.);
#47=FACE_OUTER_BOUND('',#131,.T.);
#48=FACE_OUTER_BOUND('',#132,.T.);
#49=ADVANCED_FACE('',(#109,#110),#63,.F.);
#50=ADVANCED_FACE('',(#41),#64,.F.);
#51=ADVANCED_FACE('',(#42),#65,.F.);
#52=ADVANCED_FACE('',(#43),#66,.F.);
#53=ADVANCED_FACE('',(#44),#67,.F.);
#54=ADVANCED_FACE('',(#111,#112),#68,.T.);
#55=ADVANCED_FACE('',(#45),#36,.T.);
#56=ADVANCED_FACE('',(#46),#37,.T.);
#57=ADVANCED_FACE('',(#47),#38,.T.);
#58=ADVANCED_FACE('',(#48),#39,.T.);
#59=ADVANCED_FACE('',(#113,#114),#40,.F.);
#60=ADVANCED_FACE('',(#115,#116),#34,.T.);
#61=ADVANCED_FACE('',(#117,#118),#33,.F.);
#62=ADVANCED_FACE('',(#119,#120),#35,.F.);
#63=PLANE('',#289);
#64=PLANE('',#290);
#65=PLANE('',#291);
#66=PLANE('',#292);
#67=PLANE('',#293);
#68=PLANE('',#299);
#69=LINE('',#444,#89);
#70=LINE('',#447,#90);
#71=LINE('',#449,#91);
#72=LINE('',#451,#92);
#73=LINE('',#453,#93);
#74=LINE('',#456,#94);
#75=LINE('',#458,#95);
#76=LINE('',#459,#96);
#77=LINE('',#461,#97);
#78=LINE('',#463,#98);
#79=LINE('',#465,#99);
#80=LINE('',#467,#100);
#81=LINE('',#469,#101);
#82=LINE('',#471,#102);
#83=LINE('',#473,#103);
#84=LINE('',#475,#104);
#85=LINE('',#477,#105);
#86=LINE('',#479,#106);
#87=LINE('',#481,#107);
#88=LINE('',#483,#108);
#89=VECTOR('',#319,1.0);
#90=VECTOR('',#320,1.0);
#91=VECTOR('',#321,1.0);
#92=VECTOR('',#322,1.0);
#93=VECTOR('',#325,1.0);
#94=VECTOR('',#326,1.0);
#95=VECTOR('',#327,1.0);
#96=VECTOR('',#328,1.0);
#97=VECTOR('',#329,1.0);
#98=VECTOR('',#332,1.0);
#99=VECTOR('',#333,1.0);
#100=VECTOR('',#334,1.0);
#101=VECTOR('',#335,1.0);
#102=VECTOR('',#338,1.0);
#103=VECTOR('',#339,1.0);
#104=VECTOR('',#340,1.0);
#105=VECTOR('',#341,1.0);
#106=VECTOR('',#344,1.0);
#107=VECTOR('',#345,1.0);
#108=VECTOR('',#346,1.0);
#109=FACE_BOUND('',#121,.T.);
#110=FACE_BOUND('',#122,.T.);
#111=FACE_BOUND('',#127,.T.);
#112=FACE_BOUND('',#128,.T.);
#113=FACE_BOUND('',#133,.T.);
#114=FACE_BOUND('',#134,.T.);
#115=FACE_BOUND('',#135,.T.);
#116=FACE_BOUND('',#136,.T.);
#117=FACE_BOUND('',#137,.T.);
#118=FACE_BOUND('',#138,.T.);
#119=FACE_BOUND('',#139,.T.);
#120=FACE_BOUND('',#140,.T.);
#121=EDGE_LOOP('',(#141));
#122=EDGE_LOOP('',(#142,#143,#144,#145));
#123=EDGE_LOOP('',(#146,#147,#148,#149,#150,#151));
#124=EDGE_LOOP('',(#152,#153,#154,#155,#156,#157));
#125=EDGE_LOOP('',(#158,#159,#160,#161,#162,#163));
#126=EDGE_LOOP('',(#164,#165,#166,#167,#168,#169));
#127=EDGE_LOOP('',(#170));
#128=EDGE_LOOP('',(#171,#172,#173,#174,#175,#176,#177,#178));
#129=EDGE_LOOP('',(#179,#180,#181));
#130=EDGE_LOOP('',(#182,#183,#184));
#131=EDGE_LOOP('',(#185,#186,#187));
#132=EDGE_LOOP('',(#188,#189,#190));
#133=EDGE_LOOP('',(#191));
#134=EDGE_LOOP('',(#192));
#135=EDGE_LOOP('',(#193));
#136=EDGE_LOOP('',(#194));
#137=EDGE_LOOP('',(#195));
#138=EDGE_LOOP('',(#196));
#139=EDGE_LOOP('',(#197));
#140=EDGE_LOOP('',(#198));
#141=ORIENTED_EDGE('',*,*,#220,.T.);
#142=ORIENTED_EDGE('',*,*,#221,.T.);
#143=ORIENTED_EDGE('',*,*,#222,.T.);
#144=ORIENTED_EDGE('',*,*,#223,.T.);
#145=ORIENTED_EDGE('',*,*,#224,.T.);
#146=ORIENTED_EDGE('',*,*,#225,.F.);
#147=ORIENTED_EDGE('',*,*,#226,.T.);
#148=ORIENTED_EDGE('',*,*,#227,.F.);
#149=ORIENTED_EDGE('',*,*,#221,.F.);
#150=ORIENTED_EDGE('',*,*,#228,.T.);
#151=ORIENTED_EDGE('',*,*,#229,.T.);
#152=ORIENTED_EDGE('',*,*,#224,.F.);
#153=ORIENTED_EDGE('',*,*,#230,.T.);
#154=ORIENTED_EDGE('',*,*,#231,.T.);
#155=ORIENTED_EDGE('',*,*,#232,.F.);
#156=ORIENTED_EDGE('',*,*,#233,.T.);
#157=ORIENTED_EDGE('',*,*,#228,.F.);
#158=ORIENTED_EDGE('',*,*,#223,.F.);
#159=ORIENTED_EDGE('',*,*,#234,.T.);
#160=ORIENTED_EDGE('',*,*,#235,.T.);
#161=ORIENTED_EDGE('',*,*,#236,.F.);
#162=ORIENTED_EDGE('',*,*,#237,.T.);
#163=ORIENTED_EDGE('',*,*,#230,.F.);
#164=ORIENTED_EDGE('',*,*,#222,.F.);
#165=ORIENTED_EDGE('',*,*,#227,.T.);
#166=ORIENTED_EDGE('',*,*,#238,.T.);
#167=ORIENTED_EDGE('',*,*,#239,.F.);
#168=ORIENTED_EDGE('',*,*,#240,.T.);
#169=ORIENTED_EDGE('',*,*,#234,.F.);
#170=ORIENTED_EDGE('',*,*,#241,.F.);
#171=ORIENTED_EDGE('',*,*,#239,.T.);
#172=ORIENTED_EDGE('',*,*,#242,.T.);
#173=ORIENTED_EDGE('',*,*,#225,.T.);
#174=ORIENTED_EDGE('',*,*,#243,.T.);
#175=ORIENTED_EDGE('',*,*,#232,.T.);
#176=ORIENTED_EDGE('',*,*,#244,.T.);
#177=ORIENTED_EDGE('',*,*,#236,.T.);
#178=ORIENTED_EDGE('',*,*,#245,.T.);
#179=ORIENTED_EDGE('',*,*,#238,.F.);
#180=ORIENTED_EDGE('',*,*,#226,.F.);
#181=ORIENTED_EDGE('',*,*,#242,.F.);
#182=ORIENTED_EDGE('',*,*,#235,.F.);
#183=ORIENTED_EDGE('',*,*,#240,.F.);
#184=ORIENTED_EDGE('',*,*,#245,.F.);
#185=ORIENTED_EDGE('',*,*,#231,.F.);
#186=ORIENTED_EDGE('',*,*,#237,.F.);
#187=ORIENTED_EDGE('',*,*,#244,.F.);
#188=ORIENTED_EDGE('',*,*,#229,.F.);
#189=ORIENTED_EDGE('',*,*,#233,.F.);
#190=ORIENTED_EDGE('',*,*,#243,.F.);
#191=ORIENTED_EDGE('',*,*,#246,.T.);
#192=ORIENTED_EDGE('',*,*,#241,.T.);
#193=ORIENTED_EDGE('',*,*,#247,.T.);
#194=ORIENTED_EDGE('',*,*,#248,.T.);
#195=ORIENTED_EDGE('',*,*,#248,.F.);
#196=ORIENTED_EDGE('',*,*,#220,.F.);
#197=ORIENTED_EDGE('',*,*,#247,.F.);
#198=ORIENTED_EDGE('',*,*,#246,.F.);
#199=VERTEX_POINT('',#443);
#200=VERTEX_POINT('',#445);
#201=VERTEX_POINT('',#446);
#202=VERTEX_POINT('',#448);
#203=VERTEX_POINT('',#450);
#204=VERTEX_POINT('',#454);
#205=VERTEX_POINT('',#455);
#206=VERTEX_POINT('',#457);
#207=VERTEX_POINT('',#460);
#208=VERTEX_POINT('',#464);
#209=VERTEX_POINT('',#466);
#210=VERTEX_POINT('',#468);
#211=VERTEX_POINT('',#472);
#212=VERTEX_POINT('',#474);
#213=VERTEX_POINT('',#476);
#214=VERTEX_POINT('',#480);
#215=VERTEX_POINT('',#482);
#216=VERTEX_POINT('',#486);
#217=VERTEX_POINT('',#497);
#218=VERTEX_POINT('',#500);
#219=VERTEX_POINT('',#502);
#220=EDGE_CURVE('',#199,#199,#249,.T.);
#221=EDGE_CURVE('',#200,#201,#69,.T.);
#222=EDGE_CURVE('',#201,#202,#70,.T.);
#223=EDGE_CURVE('',#202,#203,#71,.T.);
#224=EDGE_CURVE('',#203,#200,#72,.T.);
#225=EDGE_CURVE('',#204,#205,#73,.T.);
#226=EDGE_CURVE('',#204,#206,#74,.T.);
#227=EDGE_CURVE('INSERT_CORNER_EDGE3',#201,#206,#75,.T.);
#228=EDGE_CURVE('INSERT_CORNER_EDGE4',#200,#207,#76,.T.);
#229=EDGE_CURVE('',#207,#205,#77,.T.);
#230=EDGE_CURVE('INSERT_CORNER_EDGE1',#203,#208,#78,.T.);
#231=EDGE_CURVE('',#208,#209,#79,.T.);
#232=EDGE_CURVE('',#210,#209,#80,.T.);
#233=EDGE_CURVE('',#210,#207,#81,.T.);
#234=EDGE_CURVE('INSERT_CORNER_EDGE2',#202,#211,#82,.T.);
#235=EDGE_CURVE('',#211,#212,#83,.T.);
#236=EDGE_CURVE('',#213,#212,#84,.T.);
#237=EDGE_CURVE('',#213,#208,#85,.T.);
#238=EDGE_CURVE('',#206,#214,#86,.T.);
#239=EDGE_CURVE('',#215,#214,#87,.T.);
#240=EDGE_CURVE('',#215,#211,#88,.T.);
#241=EDGE_CURVE('',#216,#216,#250,.T.);
#242=EDGE_CURVE('',#214,#204,#251,.T.);
#243=EDGE_CURVE('',#205,#210,#252,.T.);
#244=EDGE_CURVE('',#209,#213,#253,.T.);
#245=EDGE_CURVE('',#212,#215,#254,.T.);
#246=EDGE_CURVE('',#217,#217,#255,.T.);
#247=EDGE_CURVE('',#218,#218,#256,.T.);
#248=EDGE_CURVE('',#219,#219,#257,.T.);
#249=CIRCLE('',#288,2.2);
#250=CIRCLE('',#294,3.07132534818238);
#251=CIRCLE('',#295,0.396875000000001);
#252=CIRCLE('',#296,0.396875000000001);
#253=CIRCLE('',#297,0.396875000000001);
#254=CIRCLE('',#298,0.396875000000001);
#255=CIRCLE('',#304,3.00996076009422);
#256=CIRCLE('',#306,2.92104776441283);
#257=CIRCLE('',#307,2.2);
#258=CURVE_STYLE('',#262,POSITIVE_LENGTH_MEASURE(0.18),#261);
#259=CURVE_STYLE('',#263,POSITIVE_LENGTH_MEASURE(0.18),#283);
#260=CURVE_STYLE('',#264,POSITIVE_LENGTH_MEASURE(0.18),#283);
#261=DRAUGHTING_PRE_DEFINED_COLOUR('blue');
#262=DRAUGHTING_PRE_DEFINED_CURVE_FONT('continuous');
#263=DRAUGHTING_PRE_DEFINED_CURVE_FONT('continuous');
#264=DRAUGHTING_PRE_DEFINED_CURVE_FONT('continuous');
#265=B_SPLINE_CURVE_WITH_KNOTS('CUTTING EDGE LINE',5,(#386,#387,#388,#389,#390,#391,
     #392,#393,#394,#395,#396,#397,#398,#399,#400,#401,#402,#403,#404,#405,#406,
     #407,#408,#409,#410,#411,#412,#413,#414,#415,#416,#417,#418,#419,#420,#421,
     #422,#423,#424,#425,#426,#427,#428,#429,#430,#431,#432,#433,#434,#435,#436,
     #437,#438,#439),.UNSPECIFIED.,.T.,.F.,(2,4,1,1,1,4,4,1,1,1,1,1,1,1,4,4,1,1,
     1,4,4,1,1,1,1,1,1,1,4,4,1,1),(-0.233576073,0.0,0.00364976154999996,0.00729952310000004,
     0.01094928465,0.0145990462,0.2481751192,0.250456220175,0.25273732115,0.255018422125,
     0.2572995231,0.259580624075,0.26186172505,0.264142826025,0.266423927,0.5,0.50364976155,
     0.5072995231,0.51094928465,0.5145990462,0.7481751192,0.750456220175,0.75273732115,
     0.755018422125,0.7572995231,0.759580624075,0.76186172505,0.764142826025,0.766423927,
     1.0,1.00364976155,1.0072995231),.UNSPECIFIED.);
#266=PRESENTATION_LAYER_ASSIGNMENT('1','Layer 1',(#265,#286,#287,#31));
#269=STYLED_ITEM('',(#275),#265);
#270=STYLED_ITEM('',(#276),#286);
#271=STYLED_ITEM('',(#277),#287);
#272=STYLED_ITEM('',(#278),#31);
#273=PRESENTATION_STYLE_ASSIGNMENT((#279));
#274=PRESENTATION_STYLE_ASSIGNMENT((#280));
#275=PRESENTATION_STYLE_ASSIGNMENT((#258));
#276=PRESENTATION_STYLE_ASSIGNMENT((#259));
#277=PRESENTATION_STYLE_ASSIGNMENT((#260));
#278=PRESENTATION_STYLE_ASSIGNMENT((#26));
#279=POINT_STYLE('',#281,POSITIVE_LENGTH_MEASURE(3.0),#283);
#280=POINT_STYLE('',#282,POSITIVE_LENGTH_MEASURE(3.0),#283);
#281=PRE_DEFINED_POINT_MARKER_SYMBOL('plus');
#282=PRE_DEFINED_POINT_MARKER_SYMBOL('plus');
#283=COLOUR_RGB('Medium Maroon',0.6,0.4,0.4);
#284=COLOUR_RGB('IsoInsertColor',0.8,0.8,0.8);
#285=AXIS2_PLACEMENT_3D('',#383,#311,#312);
#286=AXIS2_PLACEMENT_3D('PCS',#440,#313,#314);
#287=AXIS2_PLACEMENT_3D('MCS',#441,#315,#316);
#288=AXIS2_PLACEMENT_3D('',#442,#317,#318);
#289=AXIS2_PLACEMENT_3D('',#452,#323,#324);
#290=AXIS2_PLACEMENT_3D('',#462,#330,#331);
#291=AXIS2_PLACEMENT_3D('',#470,#336,#337);
#292=AXIS2_PLACEMENT_3D('',#478,#342,#343);
#293=AXIS2_PLACEMENT_3D('',#484,#347,#348);
#294=AXIS2_PLACEMENT_3D('',#485,#349,#350);
#295=AXIS2_PLACEMENT_3D('',#487,#351,#352);
#296=AXIS2_PLACEMENT_3D('',#488,#353,#354);
#297=AXIS2_PLACEMENT_3D('',#489,#355,#356);
#298=AXIS2_PLACEMENT_3D('',#490,#357,#358);
#299=AXIS2_PLACEMENT_3D('',#491,#359,#360);
#300=AXIS2_PLACEMENT_3D('',#492,#361,#362);
#301=AXIS2_PLACEMENT_3D('',#493,#363,#364);
#302=AXIS2_PLACEMENT_3D('',#494,#365,#366);
#303=AXIS2_PLACEMENT_3D('',#495,#367,#368);
#304=AXIS2_PLACEMENT_3D('',#496,#369,#370);
#305=AXIS2_PLACEMENT_3D('',#498,#371,#372);
#306=AXIS2_PLACEMENT_3D('',#499,#373,#374);
#307=AXIS2_PLACEMENT_3D('',#501,#375,#376);
#308=AXIS2_PLACEMENT_3D('',#503,#377,#378);
#309=AXIS2_PLACEMENT_3D('',#504,#379,#380);
#310=AXIS2_PLACEMENT_3D('',#505,#381,#382);
#311=DIRECTION('',(0.0,0.0,1.0));
#312=DIRECTION('',(1.0,0.0,0.0));
#313=DIRECTION('',(0.0,0.0,1.0));
#314=DIRECTION('',(1.0,0.0,0.0));
#315=DIRECTION('',(0.0,0.0,1.0));
#316=DIRECTION('',(1.0,0.0,0.0));
#317=DIRECTION('',(0.0,0.0,1.0));
#318=DIRECTION('',(-0.766044443118978,-0.642787609686539,0.0));
#319=DIRECTION('',(1.0,1.0547118733939E-15,0.0));
#320=DIRECTION('',(-0.173648177666932,-0.984807753012208,0.0));
#321=DIRECTION('',(-1.0,-1.94289029309402E-15,0.0));
#322=DIRECTION('',(0.173648177666931,0.984807753012208,0.0));
#323=DIRECTION('',(0.0,0.0,1.0));
#324=DIRECTION('',(-0.766044443118978,-0.642787609686539,0.0));
#325=DIRECTION('',(-1.0,-1.0547118733939E-15,-1.54311163477182E-16));
#326=DIRECTION('',(3.19189119579733E-16,-0.190808995376545,-0.981627183447664));
#327=DIRECTION('',(0.221736612850801,0.186059110061607,0.957191141875298));
#328=DIRECTION('',(-0.158094246810827,0.188409386605279,0.969282266506687));
#329=DIRECTION('',(-3.19189119579733E-16,0.190808995376545,0.981627183447664));
#330=DIRECTION('',(9.99200722162641E-16,-0.981627183447664,0.190808995376545));
#331=DIRECTION('',(1.0,1.0547118733939E-15,0.0));
#332=DIRECTION('',(-0.221736612850801,-0.186059110061606,0.957191141875298));
#333=DIRECTION('',(-0.187910177991292,0.0331336343295953,0.981627183447664));
#334=DIRECTION('',(-0.173648177666931,-0.984807753012208,4.76730034311136E-16));
#335=DIRECTION('',(0.187910177991292,-0.0331336343295953,-0.981627183447664));
#336=DIRECTION('',(0.966714060826797,-0.170457771554009,0.190808995376545));
#337=DIRECTION('',(0.173648177666931,0.984807753012208,0.0));
#338=DIRECTION('',(0.158094246810826,-0.188409386605277,0.969282266506687));
#339=DIRECTION('',(2.22044604925031E-16,-0.190808995376544,0.981627183447664));
#340=DIRECTION('',(1.0,1.94289029309402E-15,1.54311163477181E-16));
#341=DIRECTION('',(-2.22044604925031E-16,0.190808995376544,-0.981627183447664));
#342=DIRECTION('',(-1.94289029309402E-15,0.981627183447664,0.190808995376544));
#343=DIRECTION('',(-1.0,-1.94289029309402E-15,0.0));
#344=DIRECTION('',(0.187910177991292,-0.0331336343295945,0.981627183447664));
#345=DIRECTION('',(0.173648177666932,0.984807753012208,-4.76730034311136E-16));
#346=DIRECTION('',(-0.187910177991292,0.0331336343295945,-0.981627183447664));
#347=DIRECTION('',(-0.966714060826797,0.17045777155401,0.190808995376545));
#348=DIRECTION('',(-0.173648177666932,-0.984807753012208,0.0));
#349=DIRECTION('',(0.0,0.0,1.0));
#350=DIRECTION('',(-0.766044443118978,-0.642787609686539,0.0));
#351=DIRECTION('',(-1.37745668311624E-16,5.15292423860314E-16,1.0));
#352=DIRECTION('',(-0.642787609686539,0.766044443118979,-4.83278106758207E-16));
#353=DIRECTION('',(-1.37745668311624E-16,5.15292423860314E-16,1.0));
#354=DIRECTION('',(-0.642787609686539,0.766044443118979,-4.83278106758207E-16));
#355=DIRECTION('',(-1.37745668311624E-16,5.15292423860314E-16,1.0));
#356=DIRECTION('',(-0.642787609686539,0.766044443118978,-4.83278106758207E-16));
#357=DIRECTION('',(-1.37745668311624E-16,5.15292423860314E-16,1.0));
#358=DIRECTION('',(-0.642787609686539,0.766044443118978,-4.83278106758207E-16));
#359=DIRECTION('',(-1.37745668311624E-16,5.15292423860314E-16,1.0));
#360=DIRECTION('',(-0.642787609686539,0.766044443118978,-4.83278106758207E-16));
#361=DIRECTION('',(-1.37745668311624E-16,5.15292423860314E-16,1.0));
#362=DIRECTION('',(-0.642787609686539,0.766044443118978,-5.47730958555911E-16));
#363=DIRECTION('',(-1.37745668311624E-16,5.15292423860314E-16,1.0));
#364=DIRECTION('',(-0.642787609686539,0.766044443118978,-5.6999644467607E-16));
#365=DIRECTION('',(-1.37745668311624E-16,5.15292423860314E-16,1.0));
#366=DIRECTION('',(-0.642787609686539,0.766044443118978,-5.65543347452038E-16));
#367=DIRECTION('',(-1.37745668311624E-16,5.15292423860314E-16,1.0));
#368=DIRECTION('',(-0.642787609686539,0.766044443118978,-5.43277861331879E-16));
#369=DIRECTION('',(0.0,0.0,-1.0));
#370=DIRECTION('',(0.766044443118978,0.642787609686539,0.0));
#371=DIRECTION('',(0.0,0.0,1.0));
#372=DIRECTION('',(-0.766044443118978,-0.642787609686539,4.75743674970673E-16));
#373=DIRECTION('',(0.0,0.0,1.0));
#374=DIRECTION('',(0.766044443118978,0.642787609686539,0.0));
#375=DIRECTION('',(0.0,0.0,-1.0));
#376=DIRECTION('',(-0.766044443118978,-0.642787609686539,0.0));
#377=DIRECTION('',(0.0,0.0,1.0));
#378=DIRECTION('',(-0.766044443118978,-0.642787609686539,0.0));
#379=DIRECTION('',(0.0,0.0,1.0));
#380=DIRECTION('',(-0.766044443118978,-0.642787609686539,0.0));
#381=DIRECTION('',(0.0,0.0,-1.0));
#382=DIRECTION('',(0.766044443118978,0.642787609686539,0.0));
#383=CARTESIAN_POINT('',(0.0,0.0,0.0));
#386=CARTESIAN_POINT('',(7.56573209108276,-3.10862446895044E-14,0.0));
#387=CARTESIAN_POINT('',(9.36443144534768,-2.66453525910038E-14,2.08020659946937E-16));
#388=CARTESIAN_POINT('',(9.41545271186655,0.00409947974357472,2.12377753187817E-16));
#389=CARTESIAN_POINT('',(9.50010969008595,0.0237257408397014,2.11252116830398E-16));
#390=CARTESIAN_POINT('',(9.60209519610295,0.0832359823715381,1.86528469928086E-16));
#391=CARTESIAN_POINT('',(9.67841094061566,0.173338254397705,1.38337812533591E-16));
#392=CARTESIAN_POINT('',(9.71243956470026,0.253301038420844,9.09282978681328E-17));
#393=CARTESIAN_POINT('',(9.72533651408834,0.302835310070269,6.04325643715123E-17));
#394=CARTESIAN_POINT('',(10.0376773791271,2.07420837948842,2.68048492904896E-17));
#395=CARTESIAN_POINT('',(10.3455883691893,3.82045837948842,1.78698995269931E-17));
#396=CARTESIAN_POINT('',(10.6534993592515,5.56670837948842,1.78698995269932E-17));
#397=CARTESIAN_POINT('',(10.9614103493136,7.31295837948842,2.68048492904899E-17));
#398=CARTESIAN_POINT('',(11.2719609990848,9.07417863360646,3.87601107282255E-17));
#399=CARTESIAN_POINT('',(11.2758068335056,9.104371903924,2.69469162809755E-17));
#400=CARTESIAN_POINT('',(11.2775987256035,9.1544760556916,7.70360714570901E-18));
#401=CARTESIAN_POINT('',(11.2689806121411,9.22215268173447,-1.74227811001061E-17));
#402=CARTESIAN_POINT('',(11.2381600889004,9.30840816457712,-4.78908853696051E-17));
#403=CARTESIAN_POINT('',(11.1866589015215,9.38672135837272,-7.37086086994454E-17));
#404=CARTESIAN_POINT('',(11.1184785484445,9.45103907038269,-9.28820048419097E-17));
#405=CARTESIAN_POINT('',(11.0388854078966,9.49636946803141,-1.03921006179133E-16));
#406=CARTESIAN_POINT('',(10.9737334615701,9.51660857576845,-1.06526526804358E-16));
#407=CARTESIAN_POINT('',(10.9240793456535,9.52354440118589,-1.05275758722733E-16));
#408=CARTESIAN_POINT('',(10.8936769568172,9.52499999999999,-1.03445800687136E-16));
#409=CARTESIAN_POINT('',(9.10528704139356,9.52499999999999,-6.1352004215869E-17));
#410=CARTESIAN_POINT('',(7.33209832038807,9.52499999999999,-4.09013361439126E-17));
#411=CARTESIAN_POINT('',(5.55890959938259,9.52499999999998,-4.09013361439125E-17));
#412=CARTESIAN_POINT('',(3.7857208783771,9.52499999999998,-6.13520042158688E-17));
#413=CARTESIAN_POINT('',(1.98702152411218,9.52499999999998,-1.13600379904451E-16));
#414=CARTESIAN_POINT('',(1.93600025759331,9.52090052025638,-1.33401642452251E-16));
#415=CARTESIAN_POINT('',(1.85134327937391,9.50127425916025,-1.57207406791484E-16));
#416=CARTESIAN_POINT('',(1.74935777335691,9.44176401762842,-1.6057652673057E-16));
#417=CARTESIAN_POINT('',(1.67304202884421,9.35166174560225,-1.30940421873377E-16));
#418=CARTESIAN_POINT('',(1.6390134047596,9.27169896157911,-8.96501311136357E-17));
#419=CARTESIAN_POINT('',(1.62611645537152,9.22216468992968,-6.04325643715125E-17));
#420=CARTESIAN_POINT('',(1.31377559033273,7.45079162051154,-2.68048492904898E-17));
#421=CARTESIAN_POINT('',(1.00586460027057,5.70454162051153,-1.78698995269932E-17));
#422=CARTESIAN_POINT('',(0.697953610208416,3.95829162051153,-1.78698995269931E-17));
#423=CARTESIAN_POINT('',(0.390042620146257,2.21204162051153,-2.68048492904896E-17));
#424=CARTESIAN_POINT('',(0.0794919703750274,0.450821366393487,-3.8760110728225E-17));
#425=CARTESIAN_POINT('',(0.0756461359542868,0.420628096075942,-2.6946916280975E-17));
#426=CARTESIAN_POINT('',(0.0738542438564176,0.370523944308347,-7.70360714570788E-18));
#427=CARTESIAN_POINT('',(0.0824723573187276,0.302847318265479,1.74227811001039E-17));
#428=CARTESIAN_POINT('',(0.113292880559459,0.216591835422806,4.78908853696103E-17));
#429=CARTESIAN_POINT('',(0.164794067938316,0.138278641627259,7.3708608699436E-17));
#430=CARTESIAN_POINT('',(0.232974421015362,0.0739609296172441,9.28820048419145E-17));
#431=CARTESIAN_POINT('',(0.312567561563274,0.0286305319685374,1.03921006179131E-16));
#432=CARTESIAN_POINT('',(0.377719507889767,0.00839142423149575,1.06526526804359E-16));
#433=CARTESIAN_POINT('',(0.427373623806397,0.00145559881405521,1.05275758722733E-16));
#434=CARTESIAN_POINT('',(0.457776012642679,-4.44089209850063E-14,1.03445800687136E-16));
#435=CARTESIAN_POINT('',(2.24616592806631,-4.17443857259059E-14,6.13520042158689E-17));
#436=CARTESIAN_POINT('',(4.01935464907179,-3.73034936274053E-14,3.06760021079344E-17));
#437=CARTESIAN_POINT('',(5.79254337007728,-3.5527136788005E-14,1.02253340359782E-17));
#438=CARTESIAN_POINT('',(7.56573209108276,-3.10862446895044E-14,0.0));
#439=CARTESIAN_POINT('',(9.36443144534768,-2.66453525910038E-14,2.08020659946937E-16));
#440=CARTESIAN_POINT('',(0.0,0.0,0.0));
#441=CARTESIAN_POINT('',(5.67572648472992,4.7625,0.0));
#442=CARTESIAN_POINT('',(5.67572648472992,4.7625,-3.96875));
#443=CARTESIAN_POINT('',(3.99042870986817,3.34836725868961,-3.96875));
#444=CARTESIAN_POINT('',(5.67572648472993,8.75355314810966,-3.96875));
#445=CARTESIAN_POINT('',(2.32683526014217,8.75355314810966,-3.96875));
#446=CARTESIAN_POINT('',(10.4320784122241,8.75355314810967,-3.96875));
#447=CARTESIAN_POINT('',(9.60614656767213,4.06946089385886,-3.96875));
#448=CARTESIAN_POINT('',(9.02461770931769,0.77144685189029,-3.96875));
#449=CARTESIAN_POINT('',(5.67572648472994,0.771446851890283,-3.96875));
#450=CARTESIAN_POINT('',(0.919374557235775,0.771446851890275,-3.96875));
#451=CARTESIAN_POINT('',(1.74530640178773,5.45553910614109,-3.96875));
#452=CARTESIAN_POINT('',(5.62950517219276,4.23418798019793,-3.96875));
#453=CARTESIAN_POINT('',(5.67572648472992,9.52499999999998,-5.38749756651154E-15));
#454=CARTESIAN_POINT('',(10.878475762399,9.52499999999999,-4.67084139020118E-15));
#455=CARTESIAN_POINT('',(2.01253215737162,9.52499999999998,-5.89208671728885E-15));
#456=CARTESIAN_POINT('',(10.878475762399,9.52499999999999,-4.33218563046761E-15));
#457=CARTESIAN_POINT('',(10.878475762399,9.12812499999999,-2.04174487508822));
#458=CARTESIAN_POINT('',(11.0723938132033,9.29084156490841,-1.2046407176237));
#459=CARTESIAN_POINT('',(1.77939497810411,9.4059670709593,-0.612371333128921));
#460=CARTESIAN_POINT('',(2.01253215737162,9.12812499999997,-2.04174487508825));
#461=CARTESIAN_POINT('',(2.01253215737162,9.52499999999998,-5.16406247839426E-15));
#462=CARTESIAN_POINT('',(5.67572648472993,9.52499999999998,-5.38749756651153E-15));
#463=CARTESIAN_POINT('',(0.279059156256616,0.23415843509153,-1.20464071762369));
#464=CARTESIAN_POINT('',(0.47297720706082,0.396874999999955,-2.04174487508822));
#465=CARTESIAN_POINT('',(0.0821316300840987,0.465791620511519,-9.0555141207943E-16));
#466=CARTESIAN_POINT('',(0.0821316300840987,0.465791620511519,-1.48984958390691E-15));
#467=CARTESIAN_POINT('',(0.985579561009286,5.58949944613875,-4.00561136949638E-15));
#468=CARTESIAN_POINT('',(1.62168658039489,9.19704162051154,-5.77692953420426E-15));
#469=CARTESIAN_POINT('',(1.62168658039489,9.19704162051154,-5.30465039221161E-15));
#470=CARTESIAN_POINT('',(0.985579561009282,5.58949944613874,-4.00561136949637E-15));
#471=CARTESIAN_POINT('',(9.57205799135575,0.119032929040648,-0.612371333128914));
#472=CARTESIAN_POINT('',(9.33892081208825,0.396874999999975,-2.04174487508823));
#473=CARTESIAN_POINT('',(9.33892081208825,-2.68882138776405E-14,2.05111678953747E-16));
#474=CARTESIAN_POINT('',(9.33892081208825,-2.68882138776405E-14,2.52519215352879E-17));
#475=CARTESIAN_POINT('',(5.67572648472993,-3.38271077815477E-14,-4.79337229242031E-16));
#476=CARTESIAN_POINT('',(0.472977207060822,-4.42354486374086E-14,-1.19599340555238E-15));
#477=CARTESIAN_POINT('',(0.472977207060822,-4.42354486374086E-14,-9.19359069175931E-16));
#478=CARTESIAN_POINT('',(5.67572648472994,-3.38271077815477E-14,-4.79337229242029E-16));
#479=CARTESIAN_POINT('',(11.2693213393758,9.05920837948843,-4.34599328756411E-15));
#480=CARTESIAN_POINT('',(11.2693213393758,9.05920837948843,-4.37698521184665E-15));
#481=CARTESIAN_POINT('',(10.3658734084506,3.93550055386123,-1.8612234262572E-15));
#482=CARTESIAN_POINT('',(9.72976638906497,0.327958379488412,-8.99052615493092E-17));
#483=CARTESIAN_POINT('',(9.72976638906497,0.327958379488412,-1.72928692763524E-16));
#484=CARTESIAN_POINT('',(10.3658734084506,3.93550055386121,-1.86122342625719E-15));
#485=CARTESIAN_POINT('',(5.67572648472992,4.7625,-6.93889390390723E-15));
#486=CARTESIAN_POINT('',(3.32295476874435,2.78829012087217,-6.93889390390723E-15));
#487=CARTESIAN_POINT('',(10.878475762399,9.12812499999999,-4.46633470948162E-15));
#488=CARTESIAN_POINT('',(2.01253215737161,9.12812499999998,-5.68758003656929E-15));
#489=CARTESIAN_POINT('',(0.47297720706082,0.396874999999957,-1.40050008627194E-15));
#490=CARTESIAN_POINT('',(9.33892081208825,0.396874999999975,-1.79254759184275E-16));
#491=CARTESIAN_POINT('',(5.67572648472992,4.7625,-2.93341739787679E-15));
#492=CARTESIAN_POINT('',(10.878475762399,9.12812499999999,-4.33680868994202E-15));
#493=CARTESIAN_POINT('',(9.33892081208825,0.396874999999975,0.0));
#494=CARTESIAN_POINT('',(0.47297720706082,0.396874999999957,-8.67361737988404E-16));
#495=CARTESIAN_POINT('',(2.01253215737161,9.12812499999998,-5.20417042793042E-15));
#496=CARTESIAN_POINT('',(5.67572648472992,4.7625,-0.877554494186125));
#497=CARTESIAN_POINT('',(7.98149019900628,6.69726548223124,-0.877554494186125));
#498=CARTESIAN_POINT('',(5.67572648472992,4.7625,-1.02000000000516));
#499=CARTESIAN_POINT('',(5.67572648472992,4.7625,-1.12904556205543));
#500=CARTESIAN_POINT('',(7.91337889274349,6.64011331026713,-1.12904556205543));
#501=CARTESIAN_POINT('',(5.67572648472992,4.7625,-3.42000000000001));
#502=CARTESIAN_POINT('',(3.99042870986817,3.34836725868961,-3.42000000000001));
#503=CARTESIAN_POINT('',(5.67572648472992,4.7625,-3.42));
#504=CARTESIAN_POINT('',(5.67572648472992,4.7625,-33.3676978394524));
#505=CARTESIAN_POINT('',(5.67572648472992,4.7625,-0.842676257312362));
#506=MECHANICAL_DESIGN_GEOMETRIC_PRESENTATION_REPRESENTATION('',(#269,#270,#271,
     #272),#507);
#507=(GEOMETRIC_REPRESENTATION_CONTEXT(3)GLOBAL_UNCERTAINTY_ASSIGNED_CONTEXT((#508))
     GLOBAL_UNIT_ASSIGNED_CONTEXT((#514,#510,#509))REPRESENTATION_CONTEXT('CPMT09T304',
     'TOP_LEVEL_ASSEMBLY_PART'));
#508=UNCERTAINTY_MEASURE_WITH_UNIT(LENGTH_MEASURE(2.0E-5),#514,'DISTANCE_ACCURACY_VALUE',
     'Maximum Tolerance applied to model');
#509=(NAMED_UNIT(*)SI_UNIT($,.STERADIAN.)SOLID_ANGLE_UNIT());
#510=(CONVERSION_BASED_UNIT('DEGREE',#512)NAMED_UNIT(#511)PLANE_ANGLE_UNIT());
#511=DIMENSIONAL_EXPONENTS(0.0,0.0,0.0,0.0,0.0,0.0,0.0);
#512=PLANE_ANGLE_MEASURE_WITH_UNIT(PLANE_ANGLE_MEASURE(0.0174532925),#513);
#513=(NAMED_UNIT(*)PLANE_ANGLE_UNIT()SI_UNIT($,.RADIAN.));
#514=(LENGTH_UNIT()NAMED_UNIT(*)SI_UNIT(.MILLI.,.METRE.));
#515=CONSTRUCTIVE_GEOMETRY_REPRESENTATION('supplemental geometry',(#286,#287),#507);
#516=CONSTRUCTIVE_GEOMETRY_REPRESENTATION_RELATIONSHIP('supplemental geometry','contains PCS and MCS coordinate systems',
     #24,#515);
ENDSEC;
END-ISO-10303-21;
