ISO-10303-21;
HEADER;
FILE_DESCRIPTION(
/* description */ (''),
/* implementation_level */ '2;1');
FILE_NAME(
/* name */ 'CNMM250924.stp',
/* time_stamp */ '2017-03-21T10:53:59',
/* author */ ('Sandvik Coromant R&D'),
/* organization */ ('Sandvik Machining Solutions'),
/* preprocessor_version */ 'ST-DEVELOPER v15',
/* originating_system */ 'SIEMENS PLM Software NX v8.5.3.3(64 bits)',
/* authorization */ '');
FILE_SCHEMA(('AUTOMOTIVE_DESIGN'));
ENDSEC;
DATA;
#10=GEOMETRICALLY_BOUNDED_WIREFRAME_SHAPE_REPRESENTATION('IsoTurningInsert-None',
     (#25),#475);
#11=SHAPE_REPRESENTATION_RELATIONSHIP('None','relationship between IsoTurningInsert-None and IsoTurningInsert-None',
     #24,#13);
#12=SHAPE_REPRESENTATION_RELATIONSHIP('None','relationship between IsoTurningInsert-None and IsoTurningInsert-None',
     #24,#10);
#13=ADVANCED_BREP_SHAPE_REPRESENTATION('IsoTurningInsert-None',(#31),#475);
#14=SHAPE_DEFINITION_REPRESENTATION(#15,#24);
#15=PRODUCT_DEFINITION_SHAPE('','',#16);
#16=PRODUCT_DEFINITION(' ','',#18,#17);
#17=PRODUCT_DEFINITION_CONTEXT('part definition',#23,'design');
#18=PRODUCT_DEFINITION_FORMATION_WITH_SPECIFIED_SOURCE(' ',' ',#20,.NOT_KNOWN.);
#19=PRODUCT_RELATED_PRODUCT_CATEGORY('part','',(#20));
#20=PRODUCT('IsoTurningInsert','IsoTurningInsert',' ',(#21));
#21=PRODUCT_CONTEXT(' ',#23,'mechanical');
#22=APPLICATION_PROTOCOL_DEFINITION('international standard','automotive_design',
     2010,#23);
#23=APPLICATION_CONTEXT('core data for automotive mechanical design processes');
#24=SHAPE_REPRESENTATION('IsoTurningInsert-None',(#248),#475);
#25=GEOMETRIC_CURVE_SET('geometric curve set',(#228));
#26=SURFACE_STYLE_USAGE(.BOTH.,#27);
#27=SURFACE_SIDE_STYLE('',(#28));
#28=SURFACE_STYLE_FILL_AREA(#29);
#29=FILL_AREA_STYLE('',(#30));
#30=FILL_AREA_STYLE_COLOUR('',#247);
#31=MANIFOLD_SOLID_BREP('CUT',#32);
#32=CLOSED_SHELL('',(#46,#47,#48,#49,#50,#51,#52,#53,#54,#55,#56));
#33=CYLINDRICAL_SURFACE('',#267,2.38125);
#34=CYLINDRICAL_SURFACE('',#268,2.38125);
#35=CYLINDRICAL_SURFACE('',#269,2.38125);
#36=CYLINDRICAL_SURFACE('',#270,2.38125);
#37=CYLINDRICAL_SURFACE('',#271,4.5595);
#38=FACE_OUTER_BOUND('',#103,.T.);
#39=FACE_OUTER_BOUND('',#104,.T.);
#40=FACE_OUTER_BOUND('',#105,.T.);
#41=FACE_OUTER_BOUND('',#106,.T.);
#42=FACE_OUTER_BOUND('',#109,.T.);
#43=FACE_OUTER_BOUND('',#110,.T.);
#44=FACE_OUTER_BOUND('',#111,.T.);
#45=FACE_OUTER_BOUND('',#112,.T.);
#46=ADVANCED_FACE('',(#95,#96),#57,.F.);
#47=ADVANCED_FACE('',(#38),#58,.T.);
#48=ADVANCED_FACE('',(#39),#59,.T.);
#49=ADVANCED_FACE('',(#40),#60,.T.);
#50=ADVANCED_FACE('',(#41),#61,.T.);
#51=ADVANCED_FACE('',(#97,#98),#62,.T.);
#52=ADVANCED_FACE('',(#42),#33,.T.);
#53=ADVANCED_FACE('',(#43),#34,.T.);
#54=ADVANCED_FACE('',(#44),#35,.T.);
#55=ADVANCED_FACE('',(#45),#36,.T.);
#56=ADVANCED_FACE('',(#99,#100),#37,.F.);
#57=PLANE('',#256);
#58=PLANE('',#257);
#59=PLANE('',#258);
#60=PLANE('',#259);
#61=PLANE('',#260);
#62=PLANE('',#266);
#63=LINE('',#421,#79);
#64=LINE('',#426,#80);
#65=LINE('',#430,#81);
#66=LINE('',#434,#82);
#67=LINE('',#438,#83);
#68=LINE('',#441,#84);
#69=LINE('',#442,#85);
#70=LINE('',#444,#86);
#71=LINE('',#446,#87);
#72=LINE('',#448,#88);
#73=LINE('',#450,#89);
#74=LINE('',#452,#90);
#75=LINE('',#454,#91);
#76=LINE('',#456,#92);
#77=LINE('',#458,#93);
#78=LINE('',#460,#94);
#79=VECTOR('',#280,1.0);
#80=VECTOR('',#283,1.0);
#81=VECTOR('',#286,1.0);
#82=VECTOR('',#289,1.0);
#83=VECTOR('',#294,1.0);
#84=VECTOR('',#295,1.0);
#85=VECTOR('',#296,1.0);
#86=VECTOR('',#299,1.0);
#87=VECTOR('',#300,1.0);
#88=VECTOR('',#301,1.0);
#89=VECTOR('',#304,1.0);
#90=VECTOR('',#305,1.0);
#91=VECTOR('',#306,1.0);
#92=VECTOR('',#309,1.0);
#93=VECTOR('',#310,1.0);
#94=VECTOR('',#311,1.0);
#95=FACE_BOUND('',#101,.T.);
#96=FACE_BOUND('',#102,.T.);
#97=FACE_BOUND('',#107,.T.);
#98=FACE_BOUND('',#108,.T.);
#99=FACE_BOUND('',#113,.T.);
#100=FACE_BOUND('',#114,.T.);
#101=EDGE_LOOP('',(#115));
#102=EDGE_LOOP('',(#116,#117,#118,#119,#120,#121,#122,#123));
#103=EDGE_LOOP('',(#124,#125,#126,#127));
#104=EDGE_LOOP('',(#128,#129,#130,#131));
#105=EDGE_LOOP('',(#132,#133,#134,#135));
#106=EDGE_LOOP('',(#136,#137,#138,#139));
#107=EDGE_LOOP('',(#140));
#108=EDGE_LOOP('',(#141,#142,#143,#144,#145,#146,#147,#148));
#109=EDGE_LOOP('',(#149,#150,#151,#152));
#110=EDGE_LOOP('',(#153,#154,#155,#156));
#111=EDGE_LOOP('',(#157,#158,#159,#160));
#112=EDGE_LOOP('',(#161,#162,#163,#164));
#113=EDGE_LOOP('',(#165));
#114=EDGE_LOOP('',(#166));
#115=ORIENTED_EDGE('',*,*,#185,.T.);
#116=ORIENTED_EDGE('',*,*,#186,.T.);
#117=ORIENTED_EDGE('',*,*,#187,.T.);
#118=ORIENTED_EDGE('',*,*,#188,.T.);
#119=ORIENTED_EDGE('',*,*,#189,.T.);
#120=ORIENTED_EDGE('',*,*,#190,.T.);
#121=ORIENTED_EDGE('',*,*,#191,.T.);
#122=ORIENTED_EDGE('',*,*,#192,.T.);
#123=ORIENTED_EDGE('',*,*,#193,.T.);
#124=ORIENTED_EDGE('',*,*,#194,.F.);
#125=ORIENTED_EDGE('',*,*,#195,.T.);
#126=ORIENTED_EDGE('',*,*,#186,.F.);
#127=ORIENTED_EDGE('',*,*,#196,.T.);
#128=ORIENTED_EDGE('',*,*,#192,.F.);
#129=ORIENTED_EDGE('',*,*,#197,.T.);
#130=ORIENTED_EDGE('',*,*,#198,.F.);
#131=ORIENTED_EDGE('',*,*,#199,.T.);
#132=ORIENTED_EDGE('',*,*,#190,.F.);
#133=ORIENTED_EDGE('',*,*,#200,.T.);
#134=ORIENTED_EDGE('',*,*,#201,.F.);
#135=ORIENTED_EDGE('',*,*,#202,.T.);
#136=ORIENTED_EDGE('',*,*,#188,.F.);
#137=ORIENTED_EDGE('',*,*,#203,.T.);
#138=ORIENTED_EDGE('',*,*,#204,.F.);
#139=ORIENTED_EDGE('',*,*,#205,.T.);
#140=ORIENTED_EDGE('',*,*,#206,.F.);
#141=ORIENTED_EDGE('',*,*,#204,.T.);
#142=ORIENTED_EDGE('',*,*,#207,.T.);
#143=ORIENTED_EDGE('',*,*,#194,.T.);
#144=ORIENTED_EDGE('',*,*,#208,.T.);
#145=ORIENTED_EDGE('',*,*,#198,.T.);
#146=ORIENTED_EDGE('',*,*,#209,.T.);
#147=ORIENTED_EDGE('',*,*,#201,.T.);
#148=ORIENTED_EDGE('',*,*,#210,.T.);
#149=ORIENTED_EDGE('',*,*,#187,.F.);
#150=ORIENTED_EDGE('',*,*,#195,.F.);
#151=ORIENTED_EDGE('',*,*,#207,.F.);
#152=ORIENTED_EDGE('',*,*,#203,.F.);
#153=ORIENTED_EDGE('',*,*,#189,.F.);
#154=ORIENTED_EDGE('',*,*,#205,.F.);
#155=ORIENTED_EDGE('',*,*,#210,.F.);
#156=ORIENTED_EDGE('',*,*,#200,.F.);
#157=ORIENTED_EDGE('',*,*,#191,.F.);
#158=ORIENTED_EDGE('',*,*,#202,.F.);
#159=ORIENTED_EDGE('',*,*,#209,.F.);
#160=ORIENTED_EDGE('',*,*,#197,.F.);
#161=ORIENTED_EDGE('',*,*,#193,.F.);
#162=ORIENTED_EDGE('',*,*,#199,.F.);
#163=ORIENTED_EDGE('',*,*,#208,.F.);
#164=ORIENTED_EDGE('',*,*,#196,.F.);
#165=ORIENTED_EDGE('',*,*,#185,.F.);
#166=ORIENTED_EDGE('',*,*,#206,.T.);
#167=VERTEX_POINT('',#420);
#168=VERTEX_POINT('',#422);
#169=VERTEX_POINT('',#423);
#170=VERTEX_POINT('',#425);
#171=VERTEX_POINT('',#427);
#172=VERTEX_POINT('',#429);
#173=VERTEX_POINT('',#431);
#174=VERTEX_POINT('',#433);
#175=VERTEX_POINT('',#435);
#176=VERTEX_POINT('',#439);
#177=VERTEX_POINT('',#440);
#178=VERTEX_POINT('',#445);
#179=VERTEX_POINT('',#447);
#180=VERTEX_POINT('',#451);
#181=VERTEX_POINT('',#453);
#182=VERTEX_POINT('',#457);
#183=VERTEX_POINT('',#459);
#184=VERTEX_POINT('',#463);
#185=EDGE_CURVE('',#167,#167,#211,.T.);
#186=EDGE_CURVE('',#168,#169,#63,.T.);
#187=EDGE_CURVE('',#169,#170,#212,.T.);
#188=EDGE_CURVE('',#170,#171,#64,.T.);
#189=EDGE_CURVE('',#171,#172,#213,.T.);
#190=EDGE_CURVE('',#172,#173,#65,.T.);
#191=EDGE_CURVE('',#173,#174,#214,.T.);
#192=EDGE_CURVE('',#174,#175,#66,.T.);
#193=EDGE_CURVE('',#175,#168,#215,.T.);
#194=EDGE_CURVE('',#176,#177,#67,.T.);
#195=EDGE_CURVE('',#176,#169,#68,.T.);
#196=EDGE_CURVE('',#168,#177,#69,.T.);
#197=EDGE_CURVE('',#174,#178,#70,.T.);
#198=EDGE_CURVE('',#179,#178,#71,.T.);
#199=EDGE_CURVE('',#179,#175,#72,.T.);
#200=EDGE_CURVE('',#172,#180,#73,.T.);
#201=EDGE_CURVE('',#181,#180,#74,.T.);
#202=EDGE_CURVE('',#181,#173,#75,.T.);
#203=EDGE_CURVE('',#170,#182,#76,.T.);
#204=EDGE_CURVE('',#183,#182,#77,.T.);
#205=EDGE_CURVE('',#183,#171,#78,.T.);
#206=EDGE_CURVE('',#184,#184,#216,.T.);
#207=EDGE_CURVE('',#182,#176,#217,.T.);
#208=EDGE_CURVE('',#177,#179,#218,.T.);
#209=EDGE_CURVE('',#178,#181,#219,.T.);
#210=EDGE_CURVE('',#180,#183,#220,.T.);
#211=CIRCLE('',#251,4.5595);
#212=CIRCLE('',#252,2.38125);
#213=CIRCLE('',#253,2.38125);
#214=CIRCLE('',#254,2.38125);
#215=CIRCLE('',#255,2.38125);
#216=CIRCLE('',#261,4.5595);
#217=CIRCLE('',#262,2.38125);
#218=CIRCLE('',#263,2.38125);
#219=CIRCLE('',#264,2.38125);
#220=CIRCLE('',#265,2.38125);
#221=CURVE_STYLE('',#225,POSITIVE_LENGTH_MEASURE(0.18),#224);
#222=CURVE_STYLE('',#226,POSITIVE_LENGTH_MEASURE(0.18),#246);
#223=CURVE_STYLE('',#227,POSITIVE_LENGTH_MEASURE(0.18),#246);
#224=DRAUGHTING_PRE_DEFINED_COLOUR('blue');
#225=DRAUGHTING_PRE_DEFINED_CURVE_FONT('continuous');
#226=DRAUGHTING_PRE_DEFINED_CURVE_FONT('continuous');
#227=DRAUGHTING_PRE_DEFINED_CURVE_FONT('continuous');
#228=B_SPLINE_CURVE_WITH_KNOTS('CUTTING EDGE LINE',5,(#339,#340,#341,#342,#343,#344,
     #345,#346,#347,#348,#349,#350,#351,#352,#353,#354,#355,#356,#357,#358,#359,
     #360,#361,#362,#363,#364,#365,#366,#367,#368,#369,#370,#371,#372,#373,#374,
     #375,#376,#377,#378,#379,#380,#381,#382,#383,#384,#385,#386,#387,#388,#389,
     #390,#391,#392,#393,#394,#395,#396,#397,#398,#399,#400,#401,#402,#403,#404,
     #405,#406,#407,#408,#409,#410,#411,#412,#413,#414,#415,#416),.UNSPECIFIED.,
     .T.,.F.,(2,4,1,1,1,1,1,1,1,4,4,1,1,1,1,1,1,1,1,1,1,1,1,1,1,1,4,4,1,1,1,1,1,
     1,1,4,4,1,1,1,1,1,1,1,1,1,1,1,1,1,1,1,4,4,1,1),(-0.2121354728,0.0,0.00420716968750001,
     0.00841433937500002,0.0126215090625,0.01682867875,0.0210358484374999,0.025243018125,
     0.0294501878125,0.0336573575,0.2457928303,0.24842231135625,0.2510517924125,
     0.25368127346875,0.256310754525,0.25894023558125,0.2615697166375,0.26419919769375,
     0.26682867875,0.26945815980625,0.2720876408625,0.27471712191875,0.277346602975,
     0.27997608403125,0.2826055650875,0.283920305615625,0.2878645272,0.5,0.5042071696875,
     0.508414339375,0.5126215090625,0.51682867875,0.5210358484375,0.525243018125,
     0.5294501878125,0.5336573575,0.7457928303,0.74842231135625,0.7510517924125,
     0.75368127346875,0.756310754525,0.75894023558125,0.7615697166375,0.76419919769375,
     0.76682867875,0.76945815980625,0.7720876408625,0.77471712191875,0.777346602975,
     0.77997608403125,0.7826055650875,0.783920305615625,0.7878645272,1.0,1.0042071696875,
     1.008414339375),.UNSPECIFIED.);
#229=PRESENTATION_LAYER_ASSIGNMENT('1','Layer 1',(#228,#249,#250,#31));
#232=STYLED_ITEM('',(#238),#228);
#233=STYLED_ITEM('',(#239),#249);
#234=STYLED_ITEM('',(#240),#250);
#235=STYLED_ITEM('',(#241),#31);
#236=PRESENTATION_STYLE_ASSIGNMENT((#242));
#237=PRESENTATION_STYLE_ASSIGNMENT((#243));
#238=PRESENTATION_STYLE_ASSIGNMENT((#221));
#239=PRESENTATION_STYLE_ASSIGNMENT((#222));
#240=PRESENTATION_STYLE_ASSIGNMENT((#223));
#241=PRESENTATION_STYLE_ASSIGNMENT((#26));
#242=POINT_STYLE('',#244,POSITIVE_LENGTH_MEASURE(3.0),#246);
#243=POINT_STYLE('',#245,POSITIVE_LENGTH_MEASURE(3.0),#246);
#244=PRE_DEFINED_POINT_MARKER_SYMBOL('plus');
#245=PRE_DEFINED_POINT_MARKER_SYMBOL('plus');
#246=COLOUR_RGB('Medium Maroon',0.6,0.4,0.4);
#247=COLOUR_RGB('IsoInsertColor',0.8,0.8,0.8);
#248=AXIS2_PLACEMENT_3D('',#336,#272,#273);
#249=AXIS2_PLACEMENT_3D('PCS',#417,#274,#275);
#250=AXIS2_PLACEMENT_3D('MCS',#418,#276,#277);
#251=AXIS2_PLACEMENT_3D('',#419,#278,#279);
#252=AXIS2_PLACEMENT_3D('',#424,#281,#282);
#253=AXIS2_PLACEMENT_3D('',#428,#284,#285);
#254=AXIS2_PLACEMENT_3D('',#432,#287,#288);
#255=AXIS2_PLACEMENT_3D('',#436,#290,#291);
#256=AXIS2_PLACEMENT_3D('',#437,#292,#293);
#257=AXIS2_PLACEMENT_3D('',#443,#297,#298);
#258=AXIS2_PLACEMENT_3D('',#449,#302,#303);
#259=AXIS2_PLACEMENT_3D('',#455,#307,#308);
#260=AXIS2_PLACEMENT_3D('',#461,#312,#313);
#261=AXIS2_PLACEMENT_3D('',#462,#314,#315);
#262=AXIS2_PLACEMENT_3D('',#464,#316,#317);
#263=AXIS2_PLACEMENT_3D('',#465,#318,#319);
#264=AXIS2_PLACEMENT_3D('',#466,#320,#321);
#265=AXIS2_PLACEMENT_3D('',#467,#322,#323);
#266=AXIS2_PLACEMENT_3D('',#468,#324,#325);
#267=AXIS2_PLACEMENT_3D('',#469,#326,#327);
#268=AXIS2_PLACEMENT_3D('',#470,#328,#329);
#269=AXIS2_PLACEMENT_3D('',#471,#330,#331);
#270=AXIS2_PLACEMENT_3D('',#472,#332,#333);
#271=AXIS2_PLACEMENT_3D('',#473,#334,#335);
#272=DIRECTION('',(0.0,0.0,1.0));
#273=DIRECTION('',(1.0,0.0,0.0));
#274=DIRECTION('',(0.0,0.0,1.0));
#275=DIRECTION('',(1.0,0.0,0.0));
#276=DIRECTION('',(0.0,0.0,1.0));
#277=DIRECTION('',(1.0,0.0,0.0));
#278=DIRECTION('',(0.0,0.0,1.0));
#279=DIRECTION('',(-0.766044443118978,-0.642787609686539,0.0));
#280=DIRECTION('',(1.0,9.99200722162641E-16,0.0));
#281=DIRECTION('',(0.0,0.0,-1.0));
#282=DIRECTION('',(-0.766044443118978,-0.64278760968654,0.0));
#283=DIRECTION('',(-0.173648177666928,-0.984807753012209,0.0));
#284=DIRECTION('',(0.0,0.0,-1.0));
#285=DIRECTION('',(-0.766044443118978,-0.64278760968654,0.0));
#286=DIRECTION('',(-1.0,7.7715611723761E-16,0.0));
#287=DIRECTION('',(0.0,0.0,-1.0));
#288=DIRECTION('',(-0.766044443118978,-0.64278760968654,0.0));
#289=DIRECTION('',(0.17364817766693,0.984807753012208,0.0));
#290=DIRECTION('',(0.0,0.0,-1.0));
#291=DIRECTION('',(-0.766044443118978,-0.64278760968654,0.0));
#292=DIRECTION('',(0.0,0.0,1.0));
#293=DIRECTION('',(-0.766044443118978,-0.64278760968654,0.0));
#294=DIRECTION('',(-1.0,-9.99200722162641E-16,-5.16546256168595E-17));
#295=DIRECTION('',(5.16546256168597E-17,-1.9323465894762E-16,-1.0));
#296=DIRECTION('',(-5.16546256168597E-17,1.9323465894762E-16,1.0));
#297=DIRECTION('',(-9.99200722162641E-16,1.0,-1.9323465894762E-16));
#298=DIRECTION('',(-1.0,-9.99200722162641E-16,0.0));
#299=DIRECTION('',(-5.16546256168597E-17,1.9323465894762E-16,1.0));
#300=DIRECTION('',(-0.17364817766693,-0.984807753012208,1.8132925867585E-16));
#301=DIRECTION('',(5.16546256168597E-17,-1.9323465894762E-16,-1.0));
#302=DIRECTION('',(-0.984807753012208,0.17364817766693,-8.44247221747712E-17));
#303=DIRECTION('',(-0.17364817766693,-0.984807753012208,0.0));
#304=DIRECTION('',(-5.16546256168597E-17,1.9323465894762E-16,1.0));
#305=DIRECTION('',(1.0,-7.7715611723761E-16,5.16546256168598E-17));
#306=DIRECTION('',(5.16546256168597E-17,-1.9323465894762E-16,-1.0));
#307=DIRECTION('',(-7.7715611723761E-16,-1.0,1.9323465894762E-16));
#308=DIRECTION('',(1.0,-7.7715611723761E-16,0.0));
#309=DIRECTION('',(-5.16546256168596E-17,1.9323465894762E-16,1.0));
#310=DIRECTION('',(0.173648177666928,0.984807753012209,-1.81329258675851E-16));
#311=DIRECTION('',(5.16546256168596E-17,-1.9323465894762E-16,-1.0));
#312=DIRECTION('',(0.984807753012209,-0.173648177666928,8.44247221747709E-17));
#313=DIRECTION('',(0.173648177666928,0.984807753012209,0.0));
#314=DIRECTION('',(0.0,0.0,1.0));
#315=DIRECTION('',(-0.766044443118978,-0.642787609686539,0.0));
#316=DIRECTION('',(-5.16546256168597E-17,1.9323465894762E-16,1.0));
#317=DIRECTION('',(-0.64278760968654,0.766044443118978,-1.81229290034329E-16));
#318=DIRECTION('',(-5.16546256168597E-17,1.9323465894762E-16,1.0));
#319=DIRECTION('',(-0.64278760968654,0.766044443118978,-1.81229290034329E-16));
#320=DIRECTION('',(-5.16546256168597E-17,1.9323465894762E-16,1.0));
#321=DIRECTION('',(-0.64278760968654,0.766044443118978,-1.81229290034329E-16));
#322=DIRECTION('',(-5.16546256168597E-17,1.9323465894762E-16,1.0));
#323=DIRECTION('',(-0.64278760968654,0.766044443118978,-1.81229290034329E-16));
#324=DIRECTION('',(-5.16546256168597E-17,1.9323465894762E-16,1.0));
#325=DIRECTION('',(-0.64278760968654,0.766044443118978,-1.81229290034329E-16));
#326=DIRECTION('',(-5.16546256168597E-17,1.9323465894762E-16,1.0));
#327=DIRECTION('',(-0.64278760968654,0.766044443118978,-1.81229290034329E-16));
#328=DIRECTION('',(-5.16546256168597E-17,1.9323465894762E-16,1.0));
#329=DIRECTION('',(-0.64278760968654,0.766044443118978,-1.81229290034329E-16));
#330=DIRECTION('',(-5.16546256168597E-17,1.9323465894762E-16,1.0));
#331=DIRECTION('',(-0.64278760968654,0.766044443118978,-1.81229290034329E-16));
#332=DIRECTION('',(-5.16546256168597E-17,1.9323465894762E-16,1.0));
#333=DIRECTION('',(-0.64278760968654,0.766044443118978,-1.81229290034329E-16));
#334=DIRECTION('',(0.0,0.0,1.0));
#335=DIRECTION('',(-0.766044443118978,-0.642787609686539,0.0));
#336=CARTESIAN_POINT('',(0.0,0.0,0.0));
#339=CARTESIAN_POINT('',(19.6025566045985,1.49213974509621E-13,-1.97215226305253E-32));
#340=CARTESIAN_POINT('',(23.8702618449352,1.49213974509621E-13,4.64093258249814E-16));
#341=CARTESIAN_POINT('',(24.0233256444918,0.00614921961555837,4.70497349828605E-16));
#342=CARTESIAN_POINT('',(24.2662409279346,0.0348865615963376,4.76024013613342E-16));
#343=CARTESIAN_POINT('',(24.5852580478173,0.116079614077476,4.72665843611507E-16));
#344=CARTESIAN_POINT('',(24.9785830207842,0.292710686951994,4.49828843748482E-16));
#345=CARTESIAN_POINT('',(25.3370318551365,0.542014404324231,4.07435134496314E-16));
#346=CARTESIAN_POINT('',(25.6447920757319,0.851726459245635,3.47664312624745E-16));
#347=CARTESIAN_POINT('',(25.887039890508,1.20840427815257,2.73034916057821E-16));
#348=CARTESIAN_POINT('',(26.0223961795943,1.5084757855537,2.06713987678163E-16));
#349=CARTESIAN_POINT('',(26.0928787330753,1.74271045294778,1.53127119927752E-16));
#350=CARTESIAN_POINT('',(26.1255137820873,1.89238106867634,1.1824572733762E-16));
#351=CARTESIAN_POINT('',(26.8665930198914,6.09525027693075,6.0310910903602E-17));
#352=CARTESIAN_POINT('',(27.5943826327656,10.2227502769307,4.02072739357346E-17));
#353=CARTESIAN_POINT('',(28.3221722456397,14.3502502769307,4.02072739357345E-17));
#354=CARTESIAN_POINT('',(29.0499618585139,18.4777502769307,6.03109109036017E-17));
#355=CARTESIAN_POINT('',(29.7856704505153,22.6501610392847,9.38642169889213E-17));
#356=CARTESIAN_POINT('',(29.7993581812736,22.7403617071152,8.05653272619282E-17));
#357=CARTESIAN_POINT('',(29.8142421238662,22.8830384062404,5.97286055336501E-17));
#358=CARTESIAN_POINT('',(29.8195916092701,23.0763754807556,3.19293045886798E-17));
#359=CARTESIAN_POINT('',(29.8006649409879,23.3287228278529,-3.59272783321445E-18));
#360=CARTESIAN_POINT('',(29.7531711486952,23.5848179807611,-3.88102370312497E-17));
#361=CARTESIAN_POINT('',(29.6756558319544,23.8409125252745,-7.3144517864702E-17));
#362=CARTESIAN_POINT('',(29.5674833442592,24.0914555921468,-1.05783248453319E-16));
#363=CARTESIAN_POINT('',(29.4293137321875,24.3311335570056,-1.35986141797232E-16));
#364=CARTESIAN_POINT('',(29.2630519761624,24.5546156135486,-1.63047076492746E-16));
#365=CARTESIAN_POINT('',(29.0718344593836,24.7571596788,-1.86380326637392E-16));
#366=CARTESIAN_POINT('',(28.8597940127524,24.9348492506336,-2.05547514344848E-16));
#367=CARTESIAN_POINT('',(28.6318358911663,25.08488508138,-2.20292721034097E-16));
#368=CARTESIAN_POINT('',(28.3930963353612,25.2056928552947,-2.3054195492068E-16));
#369=CARTESIAN_POINT('',(28.1735586142716,25.2878114574594,-2.35824550297904E-16));
#370=CARTESIAN_POINT('',(27.9282949504023,25.3538681635454,-2.38053953524071E-16));
#371=CARTESIAN_POINT('',(27.7369185291044,25.3848235173334,-2.36850017254544E-16));
#372=CARTESIAN_POINT('',(27.5922905509183,25.3967249026683,-2.34297078638592E-16));
#373=CARTESIAN_POINT('',(27.5010833844094,25.4,-2.3208229261192E-16));
#374=CARTESIAN_POINT('',(23.2415046689694,25.4,-1.38042009485706E-16));
#375=CARTESIAN_POINT('',(19.050331328411,25.4,-9.20280063238038E-17));
#376=CARTESIAN_POINT('',(14.8591579878526,25.4,-9.20280063238039E-17));
#377=CARTESIAN_POINT('',(10.6679846472943,25.4,-1.38042009485706E-16));
#378=CARTESIAN_POINT('',(6.40027940695758,25.4,-2.42835435297263E-16));
#379=CARTESIAN_POINT('',(6.24721560740097,25.3938507803846,-2.66739064968155E-16));
#380=CARTESIAN_POINT('',(6.00430032395818,25.3651134384038,-2.99652523846859E-16));
#381=CARTESIAN_POINT('',(5.68528320407549,25.2839203859227,-3.31378814135146E-16));
#382=CARTESIAN_POINT('',(5.29195823110859,25.1072893130482,-3.50244703300742E-16));
#383=CARTESIAN_POINT('',(4.93350939675622,24.8579855956759,-3.44062630356007E-16));
#384=CARTESIAN_POINT('',(4.6257491761609,24.5482735407545,-3.13440481905922E-16));
#385=CARTESIAN_POINT('',(4.38350136138477,24.1915957218476,-2.59462849033337E-16));
#386=CARTESIAN_POINT('',(4.24814507229847,23.8915242144464,-2.02635039311559E-16));
#387=CARTESIAN_POINT('',(4.17766251881747,23.6572895470524,-1.52408151128348E-16));
#388=CARTESIAN_POINT('',(4.14502746980546,23.5076189313238,-1.18245727337621E-16));
#389=CARTESIAN_POINT('',(3.40394823200139,19.3047497230694,-6.03109109036023E-17));
#390=CARTESIAN_POINT('',(2.67615861912721,15.1772497230694,-4.02072739357348E-17));
#391=CARTESIAN_POINT('',(1.94836900625303,11.0497497230695,-4.02072739357347E-17));
#392=CARTESIAN_POINT('',(1.22057939337885,6.9222497230695,-6.0310910903602E-17));
#393=CARTESIAN_POINT('',(0.484870801377459,2.74983896071544,-9.38642169889216E-17));
#394=CARTESIAN_POINT('',(0.471183070619126,2.65963829288502,-8.05653272619285E-17));
#395=CARTESIAN_POINT('',(0.45629912802654,2.5169615937598,-5.97286055336505E-17));
#396=CARTESIAN_POINT('',(0.450949642622712,2.32362451924461,-3.19293045886801E-17));
#397=CARTESIAN_POINT('',(0.469876310904919,2.0712771721473,3.59272783321417E-18));
#398=CARTESIAN_POINT('',(0.517370103197603,1.81518201923904,3.88102370312495E-17));
#399=CARTESIAN_POINT('',(0.594885419938358,1.55908747472565,7.31445178647017E-17));
#400=CARTESIAN_POINT('',(0.703057907633569,1.30854440785334,1.05783248453318E-16));
#401=CARTESIAN_POINT('',(0.841227519705303,1.0688664429946,1.35986141797232E-16));
#402=CARTESIAN_POINT('',(1.00748927573034,0.845384386451601,1.63047076492746E-16));
#403=CARTESIAN_POINT('',(1.19870679250912,0.6428403212002,1.86380326637393E-16));
#404=CARTESIAN_POINT('',(1.41074723914036,0.465150749366599,2.05547514344848E-16));
#405=CARTESIAN_POINT('',(1.63870536072643,0.315114918620171,2.20292721034097E-16));
#406=CARTESIAN_POINT('',(1.87744491653161,0.194307144705496,2.3054195492068E-16));
#407=CARTESIAN_POINT('',(2.09698263762118,0.112188542540757,2.35824550297904E-16));
#408=CARTESIAN_POINT('',(2.34224630149049,0.0461318364547925,2.38053953524071E-16));
#409=CARTESIAN_POINT('',(2.53362272278834,0.0151764826667353,2.36850017254544E-16));
#410=CARTESIAN_POINT('',(2.6782507009745,0.00327509733188336,2.34297078638592E-16));
#411=CARTESIAN_POINT('',(2.76945786748335,1.61648472385423E-13,2.3208229261192E-16));
#412=CARTESIAN_POINT('',(7.02903658292338,1.59872115546023E-13,1.38042009485706E-16));
#413=CARTESIAN_POINT('',(11.2202099234818,1.58095758706622E-13,6.90210047428528E-17));
#414=CARTESIAN_POINT('',(15.4113832640401,1.52766688188422E-13,2.30070015809509E-17));
#415=CARTESIAN_POINT('',(19.6025566045985,1.49213974509621E-13,-1.97215226305253E-32));
#416=CARTESIAN_POINT('',(23.8702618449352,1.49213974509621E-13,4.64093258249814E-16));
#417=CARTESIAN_POINT('',(0.0,0.0,0.0));
#418=CARTESIAN_POINT('',(15.1352706259465,12.7,0.0));
#419=CARTESIAN_POINT('',(15.1352706259465,12.7,-9.525));
#420=CARTESIAN_POINT('',(11.6424909875455,9.76920989363423,-9.525));
#421=CARTESIAN_POINT('',(15.1352706259464,25.4,-9.525));
#422=CARTESIAN_POINT('',(6.47681130673588,25.4,-9.525));
#423=CARTESIAN_POINT('',(27.4326780095278,25.4,-9.525));
#424=CARTESIAN_POINT('',(27.4326780095278,23.01875,-9.525));
#425=CARTESIAN_POINT('',(29.7777514713881,22.6052502769306,-9.525));
#426=CARTESIAN_POINT('',(27.6423290892014,10.4946681436301,-9.525));
#427=CARTESIAN_POINT('',(26.1388034070172,1.96775027693077,-9.525));
#428=CARTESIAN_POINT('',(23.7937299451569,2.38125000000014,-9.525));
#429=CARTESIAN_POINT('',(23.7937299451569,1.43982048506075E-13,-9.525));
#430=CARTESIAN_POINT('',(15.1352706259464,1.50920942409982E-13,-9.525));
#431=CARTESIAN_POINT('',(2.83786324236499,1.6306400674182E-13,-9.525));
#432=CARTESIAN_POINT('',(2.83786324236499,2.38125000000016,-9.525));
#433=CARTESIAN_POINT('',(0.49278978050467,2.79474972306953,-9.525));
#434=CARTESIAN_POINT('',(2.62821216269142,14.9053318563701,-9.525));
#435=CARTESIAN_POINT('',(4.13173784487557,23.4322497230694,-9.525));
#436=CARTESIAN_POINT('',(6.47681130673589,23.01875,-9.525));
#437=CARTESIAN_POINT('',(15.0890493134093,12.1716879801979,-9.525));
#438=CARTESIAN_POINT('',(15.1352706259464,25.4,-5.38749756651153E-15));
#439=CARTESIAN_POINT('',(27.4326780095278,25.4,-4.75227959205463E-15));
#440=CARTESIAN_POINT('',(6.47681130673588,25.4,-5.83474704106416E-15));
#441=CARTESIAN_POINT('',(27.4326780095278,25.4,-5.20417042793042E-15));
#442=CARTESIAN_POINT('',(6.47681130673588,25.4,-6.93889390390723E-15));
#443=CARTESIAN_POINT('',(15.1352706259464,25.4,-5.38749756651153E-15));
#444=CARTESIAN_POINT('',(0.492789780504668,2.79474972306953,-1.73472347597681E-15));
#445=CARTESIAN_POINT('',(0.492789780504668,2.79474972306953,-1.77573160499662E-15));
#446=CARTESIAN_POINT('',(2.62821216269141,14.90533185637,-4.00561136949635E-15));
#447=CARTESIAN_POINT('',(4.13173784487557,23.4322497230694,-5.57564337912381E-15));
#448=CARTESIAN_POINT('',(4.13173784487557,23.4322497230694,-6.93889390390723E-15));
#449=CARTESIAN_POINT('',(2.62821216269142,14.9053318563701,-4.00561136949636E-15));
#450=CARTESIAN_POINT('',(23.7937299451569,1.45716771982052E-13,0.0));
#451=CARTESIAN_POINT('',(23.7937299451569,1.45716771982052E-13,-3.20877546893939E-17));
#452=CARTESIAN_POINT('',(15.1352706259465,1.54390389361936E-13,-4.79337229242021E-16));
#453=CARTESIAN_POINT('',(2.83786324236499,1.64798730217797E-13,-1.11455520369893E-15));
#454=CARTESIAN_POINT('',(2.83786324236499,1.64798730217797E-13,-1.73472347597681E-15));
#455=CARTESIAN_POINT('',(15.1352706259464,1.52655665885959E-13,-4.79337229242024E-16));
#456=CARTESIAN_POINT('',(29.7777514713881,22.6052502769306,-5.20417042793042E-15));
#457=CARTESIAN_POINT('',(29.7777514713881,22.6052502769306,-4.09110319075694E-15));
#458=CARTESIAN_POINT('',(27.6423290892014,10.49466814363,-1.86122342625718E-15));
#459=CARTESIAN_POINT('',(26.1388034070172,1.96775027693077,-2.91191416629739E-16));
#460=CARTESIAN_POINT('',(26.1388034070172,1.96775027693077,7.70371977754894E-31));
#461=CARTESIAN_POINT('',(27.6423290892014,10.4946681436301,-1.86122342625719E-15));
#462=CARTESIAN_POINT('',(15.1352706259465,12.7,0.0));
#463=CARTESIAN_POINT('',(11.6424909875455,9.76920989363423,0.0));
#464=CARTESIAN_POINT('',(27.4326780095278,23.01875,-4.29213956043561E-15));
#465=CARTESIAN_POINT('',(6.47681130673589,23.01875,-5.37460700944514E-15));
#466=CARTESIAN_POINT('',(2.83786324236499,2.38125000000016,-1.57469523531795E-15));
#467=CARTESIAN_POINT('',(23.7937299451569,2.38125000000015,-4.92227786308413E-16));
#468=CARTESIAN_POINT('',(15.1352706259465,12.7,-2.93341739787676E-15));
#469=CARTESIAN_POINT('',(27.4326780095278,23.01875,-5.20417042793042E-15));
#470=CARTESIAN_POINT('',(23.7937299451569,2.38125000000015,-1.73472347597681E-15));
#471=CARTESIAN_POINT('',(2.83786324236499,2.38125000000016,-1.73472347597681E-15));
#472=CARTESIAN_POINT('',(6.47681130673589,23.01875,-5.20417042793042E-15));
#473=CARTESIAN_POINT('',(15.1352706259465,12.7,-33.3676978394524));
#474=MECHANICAL_DESIGN_GEOMETRIC_PRESENTATION_REPRESENTATION('',(#232,#233,#234,
     #235),#475);
#475=(GEOMETRIC_REPRESENTATION_CONTEXT(3)GLOBAL_UNCERTAINTY_ASSIGNED_CONTEXT((#476))
     GLOBAL_UNIT_ASSIGNED_CONTEXT((#482,#478,#477))REPRESENTATION_CONTEXT('CNMM250924',
     'TOP_LEVEL_ASSEMBLY_PART'));
#476=UNCERTAINTY_MEASURE_WITH_UNIT(LENGTH_MEASURE(2.0E-5),#482,'DISTANCE_ACCURACY_VALUE',
     'Maximum Tolerance applied to model');
#477=(NAMED_UNIT(*)SI_UNIT($,.STERADIAN.)SOLID_ANGLE_UNIT());
#478=(CONVERSION_BASED_UNIT('DEGREE',#480)NAMED_UNIT(#479)PLANE_ANGLE_UNIT());
#479=DIMENSIONAL_EXPONENTS(0.0,0.0,0.0,0.0,0.0,0.0,0.0);
#480=PLANE_ANGLE_MEASURE_WITH_UNIT(PLANE_ANGLE_MEASURE(0.0174532925),#481);
#481=(NAMED_UNIT(*)PLANE_ANGLE_UNIT()SI_UNIT($,.RADIAN.));
#482=(LENGTH_UNIT()NAMED_UNIT(*)SI_UNIT(.MILLI.,.METRE.));
#483=CONSTRUCTIVE_GEOMETRY_REPRESENTATION('supplemental geometry',(#249,#250),#475);
#484=CONSTRUCTIVE_GEOMETRY_REPRESENTATION_RELATIONSHIP('supplemental geometry','contains PCS and MCS coordinate systems',
     #24,#483);
ENDSEC;
END-ISO-10303-21;
