ISO-10303-21;
HEADER;
FILE_DESCRIPTION(
/* description */ (''),
/* implementation_level */ '2;1');
FILE_NAME(
/* name */ 'CNMM190624.stp',
/* time_stamp */ '2017-03-21T10:53:59',
/* author */ ('Sandvik Coromant R&D'),
/* organization */ ('Sandvik Machining Solutions'),
/* preprocessor_version */ 'ST-DEVELOPER v15',
/* originating_system */ 'SIEMENS PLM Software NX v8.5.3.3(64 bits)',
/* authorization */ '');
FILE_SCHEMA(('AUTOMOTIVE_DESIGN'));
ENDSEC;
DATA;
#10=GEOMETRICALLY_BOUNDED_WIREFRAME_SHAPE_REPRESENTATION('IsoTurningInsert-None',
     (#25),#475);
#11=SHAPE_REPRESENTATION_RELATIONSHIP('None','relationship between IsoTurningInsert-None and IsoTurningInsert-None',
     #24,#13);
#12=SHAPE_REPRESENTATION_RELATIONSHIP('None','relationship between IsoTurningInsert-None and IsoTurningInsert-None',
     #24,#10);
#13=ADVANCED_BREP_SHAPE_REPRESENTATION('IsoTurningInsert-None',(#31),#475);
#14=SHAPE_DEFINITION_REPRESENTATION(#15,#24);
#15=PRODUCT_DEFINITION_SHAPE('','',#16);
#16=PRODUCT_DEFINITION(' ','',#18,#17);
#17=PRODUCT_DEFINITION_CONTEXT('part definition',#23,'design');
#18=PRODUCT_DEFINITION_FORMATION_WITH_SPECIFIED_SOURCE(' ',' ',#20,.NOT_KNOWN.);
#19=PRODUCT_RELATED_PRODUCT_CATEGORY('part','',(#20));
#20=PRODUCT('IsoTurningInsert','IsoTurningInsert',' ',(#21));
#21=PRODUCT_CONTEXT(' ',#23,'mechanical');
#22=APPLICATION_PROTOCOL_DEFINITION('international standard','automotive_design',
     2010,#23);
#23=APPLICATION_CONTEXT('core data for automotive mechanical design processes');
#24=SHAPE_REPRESENTATION('IsoTurningInsert-None',(#248),#475);
#25=GEOMETRIC_CURVE_SET('geometric curve set',(#228));
#26=SURFACE_STYLE_USAGE(.BOTH.,#27);
#27=SURFACE_SIDE_STYLE('',(#28));
#28=SURFACE_STYLE_FILL_AREA(#29);
#29=FILL_AREA_STYLE('',(#30));
#30=FILL_AREA_STYLE_COLOUR('',#247);
#31=MANIFOLD_SOLID_BREP('CUT',#32);
#32=CLOSED_SHELL('',(#46,#47,#48,#49,#50,#51,#52,#53,#54,#55,#56));
#33=CYLINDRICAL_SURFACE('',#267,2.38125);
#34=CYLINDRICAL_SURFACE('',#268,2.38125);
#35=CYLINDRICAL_SURFACE('',#269,2.38125);
#36=CYLINDRICAL_SURFACE('',#270,2.38125);
#37=CYLINDRICAL_SURFACE('',#271,3.9625);
#38=FACE_OUTER_BOUND('',#103,.T.);
#39=FACE_OUTER_BOUND('',#104,.T.);
#40=FACE_OUTER_BOUND('',#105,.T.);
#41=FACE_OUTER_BOUND('',#106,.T.);
#42=FACE_OUTER_BOUND('',#109,.T.);
#43=FACE_OUTER_BOUND('',#110,.T.);
#44=FACE_OUTER_BOUND('',#111,.T.);
#45=FACE_OUTER_BOUND('',#112,.T.);
#46=ADVANCED_FACE('',(#95,#96),#57,.F.);
#47=ADVANCED_FACE('',(#38),#58,.T.);
#48=ADVANCED_FACE('',(#39),#59,.T.);
#49=ADVANCED_FACE('',(#40),#60,.T.);
#50=ADVANCED_FACE('',(#41),#61,.T.);
#51=ADVANCED_FACE('',(#97,#98),#62,.T.);
#52=ADVANCED_FACE('',(#42),#33,.T.);
#53=ADVANCED_FACE('',(#43),#34,.T.);
#54=ADVANCED_FACE('',(#44),#35,.T.);
#55=ADVANCED_FACE('',(#45),#36,.T.);
#56=ADVANCED_FACE('',(#99,#100),#37,.F.);
#57=PLANE('',#256);
#58=PLANE('',#257);
#59=PLANE('',#258);
#60=PLANE('',#259);
#61=PLANE('',#260);
#62=PLANE('',#266);
#63=LINE('',#421,#79);
#64=LINE('',#426,#80);
#65=LINE('',#430,#81);
#66=LINE('',#434,#82);
#67=LINE('',#438,#83);
#68=LINE('',#441,#84);
#69=LINE('',#442,#85);
#70=LINE('',#444,#86);
#71=LINE('',#446,#87);
#72=LINE('',#448,#88);
#73=LINE('',#450,#89);
#74=LINE('',#452,#90);
#75=LINE('',#454,#91);
#76=LINE('',#456,#92);
#77=LINE('',#458,#93);
#78=LINE('',#460,#94);
#79=VECTOR('',#280,1.0);
#80=VECTOR('',#283,1.0);
#81=VECTOR('',#286,1.0);
#82=VECTOR('',#289,1.0);
#83=VECTOR('',#294,1.0);
#84=VECTOR('',#295,1.0);
#85=VECTOR('',#296,1.0);
#86=VECTOR('',#299,1.0);
#87=VECTOR('',#300,1.0);
#88=VECTOR('',#301,1.0);
#89=VECTOR('',#304,1.0);
#90=VECTOR('',#305,1.0);
#91=VECTOR('',#306,1.0);
#92=VECTOR('',#309,1.0);
#93=VECTOR('',#310,1.0);
#94=VECTOR('',#311,1.0);
#95=FACE_BOUND('',#101,.T.);
#96=FACE_BOUND('',#102,.T.);
#97=FACE_BOUND('',#107,.T.);
#98=FACE_BOUND('',#108,.T.);
#99=FACE_BOUND('',#113,.T.);
#100=FACE_BOUND('',#114,.T.);
#101=EDGE_LOOP('',(#115));
#102=EDGE_LOOP('',(#116,#117,#118,#119,#120,#121,#122,#123));
#103=EDGE_LOOP('',(#124,#125,#126,#127));
#104=EDGE_LOOP('',(#128,#129,#130,#131));
#105=EDGE_LOOP('',(#132,#133,#134,#135));
#106=EDGE_LOOP('',(#136,#137,#138,#139));
#107=EDGE_LOOP('',(#140));
#108=EDGE_LOOP('',(#141,#142,#143,#144,#145,#146,#147,#148));
#109=EDGE_LOOP('',(#149,#150,#151,#152));
#110=EDGE_LOOP('',(#153,#154,#155,#156));
#111=EDGE_LOOP('',(#157,#158,#159,#160));
#112=EDGE_LOOP('',(#161,#162,#163,#164));
#113=EDGE_LOOP('',(#165));
#114=EDGE_LOOP('',(#166));
#115=ORIENTED_EDGE('',*,*,#185,.T.);
#116=ORIENTED_EDGE('',*,*,#186,.T.);
#117=ORIENTED_EDGE('',*,*,#187,.T.);
#118=ORIENTED_EDGE('',*,*,#188,.T.);
#119=ORIENTED_EDGE('',*,*,#189,.T.);
#120=ORIENTED_EDGE('',*,*,#190,.T.);
#121=ORIENTED_EDGE('',*,*,#191,.T.);
#122=ORIENTED_EDGE('',*,*,#192,.T.);
#123=ORIENTED_EDGE('',*,*,#193,.T.);
#124=ORIENTED_EDGE('',*,*,#194,.F.);
#125=ORIENTED_EDGE('',*,*,#195,.T.);
#126=ORIENTED_EDGE('',*,*,#186,.F.);
#127=ORIENTED_EDGE('',*,*,#196,.T.);
#128=ORIENTED_EDGE('',*,*,#192,.F.);
#129=ORIENTED_EDGE('',*,*,#197,.T.);
#130=ORIENTED_EDGE('',*,*,#198,.F.);
#131=ORIENTED_EDGE('',*,*,#199,.T.);
#132=ORIENTED_EDGE('',*,*,#190,.F.);
#133=ORIENTED_EDGE('',*,*,#200,.T.);
#134=ORIENTED_EDGE('',*,*,#201,.F.);
#135=ORIENTED_EDGE('',*,*,#202,.T.);
#136=ORIENTED_EDGE('',*,*,#188,.F.);
#137=ORIENTED_EDGE('',*,*,#203,.T.);
#138=ORIENTED_EDGE('',*,*,#204,.F.);
#139=ORIENTED_EDGE('',*,*,#205,.T.);
#140=ORIENTED_EDGE('',*,*,#206,.F.);
#141=ORIENTED_EDGE('',*,*,#204,.T.);
#142=ORIENTED_EDGE('',*,*,#207,.T.);
#143=ORIENTED_EDGE('',*,*,#194,.T.);
#144=ORIENTED_EDGE('',*,*,#208,.T.);
#145=ORIENTED_EDGE('',*,*,#198,.T.);
#146=ORIENTED_EDGE('',*,*,#209,.T.);
#147=ORIENTED_EDGE('',*,*,#201,.T.);
#148=ORIENTED_EDGE('',*,*,#210,.T.);
#149=ORIENTED_EDGE('',*,*,#187,.F.);
#150=ORIENTED_EDGE('',*,*,#195,.F.);
#151=ORIENTED_EDGE('',*,*,#207,.F.);
#152=ORIENTED_EDGE('',*,*,#203,.F.);
#153=ORIENTED_EDGE('',*,*,#189,.F.);
#154=ORIENTED_EDGE('',*,*,#205,.F.);
#155=ORIENTED_EDGE('',*,*,#210,.F.);
#156=ORIENTED_EDGE('',*,*,#200,.F.);
#157=ORIENTED_EDGE('',*,*,#191,.F.);
#158=ORIENTED_EDGE('',*,*,#202,.F.);
#159=ORIENTED_EDGE('',*,*,#209,.F.);
#160=ORIENTED_EDGE('',*,*,#197,.F.);
#161=ORIENTED_EDGE('',*,*,#193,.F.);
#162=ORIENTED_EDGE('',*,*,#199,.F.);
#163=ORIENTED_EDGE('',*,*,#208,.F.);
#164=ORIENTED_EDGE('',*,*,#196,.F.);
#165=ORIENTED_EDGE('',*,*,#185,.F.);
#166=ORIENTED_EDGE('',*,*,#206,.T.);
#167=VERTEX_POINT('',#420);
#168=VERTEX_POINT('',#422);
#169=VERTEX_POINT('',#423);
#170=VERTEX_POINT('',#425);
#171=VERTEX_POINT('',#427);
#172=VERTEX_POINT('',#429);
#173=VERTEX_POINT('',#431);
#174=VERTEX_POINT('',#433);
#175=VERTEX_POINT('',#435);
#176=VERTEX_POINT('',#439);
#177=VERTEX_POINT('',#440);
#178=VERTEX_POINT('',#445);
#179=VERTEX_POINT('',#447);
#180=VERTEX_POINT('',#451);
#181=VERTEX_POINT('',#453);
#182=VERTEX_POINT('',#457);
#183=VERTEX_POINT('',#459);
#184=VERTEX_POINT('',#463);
#185=EDGE_CURVE('',#167,#167,#211,.T.);
#186=EDGE_CURVE('',#168,#169,#63,.T.);
#187=EDGE_CURVE('',#169,#170,#212,.T.);
#188=EDGE_CURVE('',#170,#171,#64,.T.);
#189=EDGE_CURVE('',#171,#172,#213,.T.);
#190=EDGE_CURVE('',#172,#173,#65,.T.);
#191=EDGE_CURVE('',#173,#174,#214,.T.);
#192=EDGE_CURVE('',#174,#175,#66,.T.);
#193=EDGE_CURVE('',#175,#168,#215,.T.);
#194=EDGE_CURVE('',#176,#177,#67,.T.);
#195=EDGE_CURVE('',#176,#169,#68,.T.);
#196=EDGE_CURVE('',#168,#177,#69,.T.);
#197=EDGE_CURVE('',#174,#178,#70,.T.);
#198=EDGE_CURVE('',#179,#178,#71,.T.);
#199=EDGE_CURVE('',#179,#175,#72,.T.);
#200=EDGE_CURVE('',#172,#180,#73,.T.);
#201=EDGE_CURVE('',#181,#180,#74,.T.);
#202=EDGE_CURVE('',#181,#173,#75,.T.);
#203=EDGE_CURVE('',#170,#182,#76,.T.);
#204=EDGE_CURVE('',#183,#182,#77,.T.);
#205=EDGE_CURVE('',#183,#171,#78,.T.);
#206=EDGE_CURVE('',#184,#184,#216,.T.);
#207=EDGE_CURVE('',#182,#176,#217,.T.);
#208=EDGE_CURVE('',#177,#179,#218,.T.);
#209=EDGE_CURVE('',#178,#181,#219,.T.);
#210=EDGE_CURVE('',#180,#183,#220,.T.);
#211=CIRCLE('',#251,3.9625);
#212=CIRCLE('',#252,2.38125);
#213=CIRCLE('',#253,2.38125);
#214=CIRCLE('',#254,2.38125);
#215=CIRCLE('',#255,2.38125);
#216=CIRCLE('',#261,3.9625);
#217=CIRCLE('',#262,2.38125);
#218=CIRCLE('',#263,2.38125);
#219=CIRCLE('',#264,2.38125);
#220=CIRCLE('',#265,2.38125);
#221=CURVE_STYLE('',#225,POSITIVE_LENGTH_MEASURE(0.18),#224);
#222=CURVE_STYLE('',#226,POSITIVE_LENGTH_MEASURE(0.18),#246);
#223=CURVE_STYLE('',#227,POSITIVE_LENGTH_MEASURE(0.18),#246);
#224=DRAUGHTING_PRE_DEFINED_COLOUR('blue');
#225=DRAUGHTING_PRE_DEFINED_CURVE_FONT('continuous');
#226=DRAUGHTING_PRE_DEFINED_CURVE_FONT('continuous');
#227=DRAUGHTING_PRE_DEFINED_CURVE_FONT('continuous');
#228=B_SPLINE_CURVE_WITH_KNOTS('CUTTING EDGE LINE',5,(#339,#340,#341,#342,#343,#344,
     #345,#346,#347,#348,#349,#350,#351,#352,#353,#354,#355,#356,#357,#358,#359,
     #360,#361,#362,#363,#364,#365,#366,#367,#368,#369,#370,#371,#372,#373,#374,
     #375,#376,#377,#378,#379,#380,#381,#382,#383,#384,#385,#386,#387,#388,#389,
     #390,#391,#392,#393,#394,#395,#396,#397,#398,#399,#400,#401,#402,#403,#404,
     #405,#406,#407,#408,#409,#410,#411,#412,#413,#414,#415,#416),.UNSPECIFIED.,
     .T.,.F.,(2,4,1,1,1,1,1,1,1,4,4,1,1,1,1,1,1,1,1,1,1,1,1,1,1,1,4,4,1,1,1,1,1,
     1,1,4,4,1,1,1,1,1,1,1,1,1,1,1,1,1,1,1,4,4,1,1),(-0.1987562523,0.0,0.00569374975000003,
     0.0113874995,0.01708124925,0.022774999,0.0284687487500001,0.0341624985,0.03985624825,
     0.045549998,0.2443062502,0.24786484379375,0.2514234373875,0.25498203098125,
     0.258540624575,0.26209921816875,0.2656578117625,0.26921640535625,0.27277499895,
     0.27633359254375,0.2798921861375,0.28345077973125,0.287009373325,0.29056796691875,
     0.2941265605125,0.295905857309375,0.3012437477,0.5,0.50569374975,0.5113874995,
     0.51708124925,0.522774999,0.52846874875,0.5341624985,0.53985624825,0.545549998,
     0.7443062502,0.74786484379375,0.7514234373875,0.75498203098125,0.758540624575,
     0.76209921816875,0.7656578117625,0.76921640535625,0.77277499895,0.77633359254375,
     0.7798921861375,0.78345077973125,0.787009373325,0.79056796691875,0.7941265605125,
     0.795905857309375,0.8012437477,1.0,1.00569374975,1.0113874995),.UNSPECIFIED.);
#229=PRESENTATION_LAYER_ASSIGNMENT('1','Layer 1',(#228,#249,#250,#31));
#232=STYLED_ITEM('',(#238),#228);
#233=STYLED_ITEM('',(#239),#249);
#234=STYLED_ITEM('',(#240),#250);
#235=STYLED_ITEM('',(#241),#31);
#236=PRESENTATION_STYLE_ASSIGNMENT((#242));
#237=PRESENTATION_STYLE_ASSIGNMENT((#243));
#238=PRESENTATION_STYLE_ASSIGNMENT((#221));
#239=PRESENTATION_STYLE_ASSIGNMENT((#222));
#240=PRESENTATION_STYLE_ASSIGNMENT((#223));
#241=PRESENTATION_STYLE_ASSIGNMENT((#26));
#242=POINT_STYLE('',#244,POSITIVE_LENGTH_MEASURE(3.0),#246);
#243=POINT_STYLE('',#245,POSITIVE_LENGTH_MEASURE(3.0),#246);
#244=PRE_DEFINED_POINT_MARKER_SYMBOL('plus');
#245=PRE_DEFINED_POINT_MARKER_SYMBOL('plus');
#246=COLOUR_RGB('Medium Maroon',0.6,0.4,0.4);
#247=COLOUR_RGB('IsoInsertColor',0.8,0.8,0.8);
#248=AXIS2_PLACEMENT_3D('',#336,#272,#273);
#249=AXIS2_PLACEMENT_3D('PCS',#417,#274,#275);
#250=AXIS2_PLACEMENT_3D('MCS',#418,#276,#277);
#251=AXIS2_PLACEMENT_3D('',#419,#278,#279);
#252=AXIS2_PLACEMENT_3D('',#424,#281,#282);
#253=AXIS2_PLACEMENT_3D('',#428,#284,#285);
#254=AXIS2_PLACEMENT_3D('',#432,#287,#288);
#255=AXIS2_PLACEMENT_3D('',#436,#290,#291);
#256=AXIS2_PLACEMENT_3D('',#437,#292,#293);
#257=AXIS2_PLACEMENT_3D('',#443,#297,#298);
#258=AXIS2_PLACEMENT_3D('',#449,#302,#303);
#259=AXIS2_PLACEMENT_3D('',#455,#307,#308);
#260=AXIS2_PLACEMENT_3D('',#461,#312,#313);
#261=AXIS2_PLACEMENT_3D('',#462,#314,#315);
#262=AXIS2_PLACEMENT_3D('',#464,#316,#317);
#263=AXIS2_PLACEMENT_3D('',#465,#318,#319);
#264=AXIS2_PLACEMENT_3D('',#466,#320,#321);
#265=AXIS2_PLACEMENT_3D('',#467,#322,#323);
#266=AXIS2_PLACEMENT_3D('',#468,#324,#325);
#267=AXIS2_PLACEMENT_3D('',#469,#326,#327);
#268=AXIS2_PLACEMENT_3D('',#470,#328,#329);
#269=AXIS2_PLACEMENT_3D('',#471,#330,#331);
#270=AXIS2_PLACEMENT_3D('',#472,#332,#333);
#271=AXIS2_PLACEMENT_3D('',#473,#334,#335);
#272=DIRECTION('',(0.0,0.0,1.0));
#273=DIRECTION('',(1.0,0.0,0.0));
#274=DIRECTION('',(0.0,0.0,1.0));
#275=DIRECTION('',(1.0,0.0,0.0));
#276=DIRECTION('',(0.0,0.0,1.0));
#277=DIRECTION('',(1.0,0.0,0.0));
#278=DIRECTION('',(0.0,0.0,1.0));
#279=DIRECTION('',(-0.766044443118978,-0.64278760968654,0.0));
#280=DIRECTION('',(1.0,9.43689570931383E-16,0.0));
#281=DIRECTION('',(0.0,0.0,-1.0));
#282=DIRECTION('',(-0.766044443118978,-0.642787609686539,0.0));
#283=DIRECTION('',(-0.173648177666928,-0.984807753012209,0.0));
#284=DIRECTION('',(0.0,0.0,-1.0));
#285=DIRECTION('',(-0.766044443118978,-0.64278760968654,0.0));
#286=DIRECTION('',(-1.0,9.99200722162641E-16,0.0));
#287=DIRECTION('',(0.0,0.0,-1.0));
#288=DIRECTION('',(-0.766044443118978,-0.64278760968654,0.0));
#289=DIRECTION('',(0.17364817766693,0.984807753012208,0.0));
#290=DIRECTION('',(0.0,0.0,-1.0));
#291=DIRECTION('',(-0.766044443118978,-0.642787609686539,0.0));
#292=DIRECTION('',(0.0,0.0,1.0));
#293=DIRECTION('',(-0.766044443118978,-0.64278760968654,0.0));
#294=DIRECTION('',(-1.0,-9.43689570931383E-16,-6.88728341558126E-17));
#295=DIRECTION('',(6.88728341558128E-17,-2.57646211930159E-16,-1.0));
#296=DIRECTION('',(-6.88728341558128E-17,2.57646211930159E-16,1.0));
#297=DIRECTION('',(-9.43689570931383E-16,1.0,-2.5764621193016E-16));
#298=DIRECTION('',(-1.0,-9.43689570931383E-16,0.0));
#299=DIRECTION('',(-6.88728341558128E-17,2.57646211930159E-16,1.0));
#300=DIRECTION('',(-0.17364817766693,-0.984807753012208,2.41772344901134E-16));
#301=DIRECTION('',(6.88728341558128E-17,-2.57646211930159E-16,-1.0));
#302=DIRECTION('',(-0.984807753012208,0.17364817766693,-1.12566296233028E-16));
#303=DIRECTION('',(-0.17364817766693,-0.984807753012208,0.0));
#304=DIRECTION('',(-6.88728341558128E-17,2.57646211930159E-16,1.0));
#305=DIRECTION('',(1.0,-9.99200722162641E-16,6.88728341558131E-17));
#306=DIRECTION('',(6.88728341558128E-17,-2.57646211930159E-16,-1.0));
#307=DIRECTION('',(-9.99200722162641E-16,-1.0,2.57646211930159E-16));
#308=DIRECTION('',(1.0,-9.99200722162641E-16,0.0));
#309=DIRECTION('',(-6.88728341558128E-17,2.57646211930159E-16,1.0));
#310=DIRECTION('',(0.173648177666928,0.984807753012209,-2.41772344901134E-16));
#311=DIRECTION('',(6.88728341558128E-17,-2.57646211930159E-16,-1.0));
#312=DIRECTION('',(0.984807753012209,-0.173648177666928,1.12566296233028E-16));
#313=DIRECTION('',(0.173648177666928,0.984807753012209,0.0));
#314=DIRECTION('',(0.0,0.0,1.0));
#315=DIRECTION('',(-0.766044443118978,-0.64278760968654,0.0));
#316=DIRECTION('',(-6.88728341558128E-17,2.57646211930159E-16,1.0));
#317=DIRECTION('',(-0.642787609686539,0.766044443118978,-2.41639053379106E-16));
#318=DIRECTION('',(-6.88728341558128E-17,2.57646211930159E-16,1.0));
#319=DIRECTION('',(-0.64278760968654,0.766044443118978,-2.41639053379106E-16));
#320=DIRECTION('',(-6.88728341558128E-17,2.57646211930159E-16,1.0));
#321=DIRECTION('',(-0.64278760968654,0.766044443118978,-2.41639053379105E-16));
#322=DIRECTION('',(-6.88728341558128E-17,2.57646211930159E-16,1.0));
#323=DIRECTION('',(-0.642787609686539,0.766044443118978,-2.41639053379106E-16));
#324=DIRECTION('',(-6.88728341558128E-17,2.57646211930159E-16,1.0));
#325=DIRECTION('',(-0.64278760968654,0.766044443118978,-2.41639053379106E-16));
#326=DIRECTION('',(-6.88728341558128E-17,2.57646211930159E-16,1.0));
#327=DIRECTION('',(-0.642787609686539,0.766044443118978,-2.41639053379106E-16));
#328=DIRECTION('',(-6.88728341558128E-17,2.57646211930159E-16,1.0));
#329=DIRECTION('',(-0.642787609686539,0.766044443118978,-2.41639053379106E-16));
#330=DIRECTION('',(-6.88728341558128E-17,2.57646211930159E-16,1.0));
#331=DIRECTION('',(-0.64278760968654,0.766044443118978,-2.41639053379106E-16));
#332=DIRECTION('',(-6.88728341558128E-17,2.57646211930159E-16,1.0));
#333=DIRECTION('',(-0.64278760968654,0.766044443118978,-2.41639053379106E-16));
#334=DIRECTION('',(0.0,0.0,1.0));
#335=DIRECTION('',(-0.766044443118978,-0.64278760968654,0.0));
#336=CARTESIAN_POINT('',(0.0,0.0,0.0));
#339=CARTESIAN_POINT('',(14.444189416219,9.76996261670138E-14,0.0));
#340=CARTESIAN_POINT('',(17.4223028594608,9.76996261670138E-14,6.18791010999753E-16));
#341=CARTESIAN_POINT('',(17.5753666590174,0.00614921961550507,6.27329799771473E-16));
#342=CARTESIAN_POINT('',(17.8182819424602,0.0348865615962985,6.34698684817789E-16));
#343=CARTESIAN_POINT('',(18.1372990623428,0.116079614077423,6.30221124815344E-16));
#344=CARTESIAN_POINT('',(18.5306240353098,0.292710686951946,5.99771791664642E-16));
#345=CARTESIAN_POINT('',(18.889072869662,0.542014404324179,5.43246845995086E-16));
#346=CARTESIAN_POINT('',(19.1968330902575,0.851726459245596,4.63552416832994E-16));
#347=CARTESIAN_POINT('',(19.4390809050335,1.20840427815252,3.64046554743761E-16));
#348=CARTESIAN_POINT('',(19.5744371941199,1.50847578555365,2.75618650237551E-16));
#349=CARTESIAN_POINT('',(19.6449197476009,1.74271045294773,2.04169493237003E-16));
#350=CARTESIAN_POINT('',(19.6775547966129,1.8923810686763,1.57660969783493E-16));
#351=CARTESIAN_POINT('',(20.1946987689172,4.82525027693071,8.04145478714693E-17));
#352=CARTESIAN_POINT('',(20.6985531162916,7.68275027693069,5.36096985809795E-17));
#353=CARTESIAN_POINT('',(21.2024074636661,10.5402502769307,5.36096985809795E-17));
#354=CARTESIAN_POINT('',(21.7062618110405,13.3977502769307,8.04145478714692E-17));
#355=CARTESIAN_POINT('',(22.2180351375421,16.3001610392847,1.25152289318562E-16));
#356=CARTESIAN_POINT('',(22.2317228683005,16.3903617071152,1.07420436349238E-16));
#357=CARTESIAN_POINT('',(22.246606810893,16.5330384062404,7.96381407115339E-17));
#358=CARTESIAN_POINT('',(22.2519562962969,16.7263754807556,4.25724061182402E-17));
#359=CARTESIAN_POINT('',(22.2330296280147,16.9787228278529,-4.79030377761882E-18));
#360=CARTESIAN_POINT('',(22.185535835722,17.2348179807611,-5.17469827083324E-17));
#361=CARTESIAN_POINT('',(22.1080205189812,17.4909125252745,-9.75260238196021E-17));
#362=CARTESIAN_POINT('',(21.999848031286,17.7414555921468,-1.41044331271091E-16));
#363=CARTESIAN_POINT('',(21.8616784192143,17.9811335570056,-1.81314855729642E-16));
#364=CARTESIAN_POINT('',(21.6954166631892,18.2046156135486,-2.17396101990327E-16));
#365=CARTESIAN_POINT('',(21.5041991464105,18.4071596788,-2.4850710218319E-16));
#366=CARTESIAN_POINT('',(21.2921586997792,18.5848492506336,-2.74063352459797E-16));
#367=CARTESIAN_POINT('',(21.0642005781932,18.73488508138,-2.93723628045462E-16));
#368=CARTESIAN_POINT('',(20.825461022388,18.8556928552947,-3.07389273227573E-16));
#369=CARTESIAN_POINT('',(20.6059233012984,18.9378114574594,-3.14432733730538E-16));
#370=CARTESIAN_POINT('',(20.3606596374291,19.0038681635454,-3.17405271365427E-16));
#371=CARTESIAN_POINT('',(20.1692832161312,19.0348235173334,-3.15800023006058E-16));
#372=CARTESIAN_POINT('',(20.0246552379451,19.0467249026683,-3.12396104851456E-16));
#373=CARTESIAN_POINT('',(19.9334480714362,19.05,-3.09443056815894E-16));
#374=CARTESIAN_POINT('',(16.9634611530911,19.05,-1.84056012647608E-16));
#375=CARTESIAN_POINT('',(14.0618796096276,19.05,-1.22704008431738E-16));
#376=CARTESIAN_POINT('',(11.1602980661641,19.05,-1.22704008431738E-16));
#377=CARTESIAN_POINT('',(8.25871652270063,19.05,-1.84056012647608E-16));
#378=CARTESIAN_POINT('',(5.28060307945883,19.05,-3.23780580396351E-16));
#379=CARTESIAN_POINT('',(5.12753927990222,19.0438507803846,-3.55652086624207E-16));
#380=CARTESIAN_POINT('',(4.88462399645944,19.0151134384038,-3.9953669846248E-16));
#381=CARTESIAN_POINT('',(4.56560687657674,18.9339203859227,-4.41838418846861E-16));
#382=CARTESIAN_POINT('',(4.17228190360984,18.7572893130482,-4.66992937734323E-16));
#383=CARTESIAN_POINT('',(3.81383306925748,18.5079855956759,-4.5875017380801E-16));
#384=CARTESIAN_POINT('',(3.50607284866214,18.1982735407545,-4.1792064254123E-16));
#385=CARTESIAN_POINT('',(3.26382503388603,17.8415957218476,-3.45950465377783E-16));
#386=CARTESIAN_POINT('',(3.12846874479971,17.5415242144464,-2.70180052415412E-16));
#387=CARTESIAN_POINT('',(3.05798619131872,17.3072895470524,-2.0321086817113E-16));
#388=CARTESIAN_POINT('',(3.02535114230671,17.1576189313238,-1.57660969783494E-16));
#389=CARTESIAN_POINT('',(2.50820717000239,14.2247497230694,-8.04145478714695E-17));
#390=CARTESIAN_POINT('',(2.00435282262795,11.3672497230694,-5.36096985809797E-17));
#391=CARTESIAN_POINT('',(1.50049847525352,8.50974972306944,-5.36096985809798E-17));
#392=CARTESIAN_POINT('',(0.996644127879089,5.65224972306946,-8.04145478714697E-17));
#393=CARTESIAN_POINT('',(0.484870801377442,2.74983896071539,-1.25152289318563E-16));
#394=CARTESIAN_POINT('',(0.471183070619119,2.65963829288498,-1.07420436349239E-16));
#395=CARTESIAN_POINT('',(0.456299128026524,2.51696159375975,-7.96381407115348E-17));
#396=CARTESIAN_POINT('',(0.450949642622701,2.32362451924457,-4.2572406118241E-17));
#397=CARTESIAN_POINT('',(0.469876310904903,2.07127717214725,4.79030377761803E-18));
#398=CARTESIAN_POINT('',(0.517370103197589,1.815182019239,5.17469827083316E-17));
#399=CARTESIAN_POINT('',(0.594885419938324,1.55908747472559,9.75260238196016E-17));
#400=CARTESIAN_POINT('',(0.703057907633559,1.3085444078533,1.4104433127109E-16));
#401=CARTESIAN_POINT('',(0.841227519705281,1.06886644299455,1.81314855729642E-16));
#402=CARTESIAN_POINT('',(1.00748927573032,0.845384386451553,2.17396101990327E-16));
#403=CARTESIAN_POINT('',(1.1987067925091,0.642840321200156,2.4850710218319E-16));
#404=CARTESIAN_POINT('',(1.41074723914033,0.46515074936654,2.74063352459797E-16));
#405=CARTESIAN_POINT('',(1.63870536072641,0.315114918620123,2.93723628045462E-16));
#406=CARTESIAN_POINT('',(1.87744491653158,0.194307144705437,3.07389273227573E-16));
#407=CARTESIAN_POINT('',(2.09698263762117,0.112188542540704,3.14432733730538E-16));
#408=CARTESIAN_POINT('',(2.34224630149048,0.0461318364547392,3.17405271365427E-16));
#409=CARTESIAN_POINT('',(2.53362272278832,0.0151764826666767,3.15800023006059E-16));
#410=CARTESIAN_POINT('',(2.67825070097448,0.00327509733183362,3.12396104851456E-16));
#411=CARTESIAN_POINT('',(2.76945786748333,1.10134124042816E-13,3.09443056815894E-16));
#412=CARTESIAN_POINT('',(5.73944478582847,1.06581410364015E-13,1.84056012647608E-16));
#413=CARTESIAN_POINT('',(8.64102632929196,1.03028696685215E-13,9.20280063238038E-17));
#414=CARTESIAN_POINT('',(11.5426078727555,9.9475983006414E-14,3.06760021079346E-17));
#415=CARTESIAN_POINT('',(14.444189416219,9.76996261670138E-14,0.0));
#416=CARTESIAN_POINT('',(17.4223028594608,9.76996261670138E-14,6.18791010999753E-16));
#417=CARTESIAN_POINT('',(0.0,0.0,0.0));
#418=CARTESIAN_POINT('',(11.3514529694598,9.525,0.0));
#419=CARTESIAN_POINT('',(11.3514529694598,9.525,-6.35));
#420=CARTESIAN_POINT('',(8.31600186360089,6.97795409661709,-6.35));
#421=CARTESIAN_POINT('',(11.3514529694598,19.05,-6.35));
#422=CARTESIAN_POINT('',(5.35713497923714,19.05,-6.35));
#423=CARTESIAN_POINT('',(19.8650426965546,19.05,-6.35));
#424=CARTESIAN_POINT('',(19.8650426965546,16.66875,-6.35));
#425=CARTESIAN_POINT('',(22.2101161584149,16.2552502769306,-6.35));
#426=CARTESIAN_POINT('',(20.731746816901,7.87100110772257,-6.35));
#427=CARTESIAN_POINT('',(19.6908444215428,1.96775027693072,-6.35));
#428=CARTESIAN_POINT('',(17.3457709596825,2.3812500000001,-6.35));
#429=CARTESIAN_POINT('',(17.3457709596825,9.54097911787244E-14,-6.35));
#430=CARTESIAN_POINT('',(11.3514529694598,1.00613961606655E-13,-6.35));
#431=CARTESIAN_POINT('',(2.83786324236497,1.11022302462516E-13,-6.35));
#432=CARTESIAN_POINT('',(2.83786324236498,2.38125000000011,-6.35));
#433=CARTESIAN_POINT('',(0.492789780504654,2.79474972306949,-6.35));
#434=CARTESIAN_POINT('',(1.97115912201856,11.1789988922775,-6.35));
#435=CARTESIAN_POINT('',(3.01206151737682,17.0822497230694,-6.35));
#436=CARTESIAN_POINT('',(5.35713497923714,16.66875,-6.35));
#437=CARTESIAN_POINT('',(11.3052316569227,8.99668798019793,-6.35));
#438=CARTESIAN_POINT('',(11.3514529694598,19.05,-5.38749756651153E-15));
#439=CARTESIAN_POINT('',(19.8650426965546,19.05,-4.8011425131667E-15));
#440=CARTESIAN_POINT('',(5.35713497923714,19.05,-5.80034323532934E-15));
#441=CARTESIAN_POINT('',(19.8650426965546,19.05,-4.33680868994202E-15));
#442=CARTESIAN_POINT('',(5.35713497923714,19.05,-5.20417042793042E-15));
#443=CARTESIAN_POINT('',(11.3514529694598,19.05,-5.38749756651153E-15));
#444=CARTESIAN_POINT('',(0.492789780504654,2.79474972306949,-1.73472347597681E-15));
#445=CARTESIAN_POINT('',(0.492789780504654,2.79474972306949,-1.94726081765045E-15));
#446=CARTESIAN_POINT('',(1.97115912201856,11.1789988922775,-4.00561136949636E-15));
#447=CARTESIAN_POINT('',(3.01206151737681,17.0822497230694,-5.45487168607555E-15));
#448=CARTESIAN_POINT('',(3.01206151737681,17.0822497230694,-5.20417042793042E-15));
#449=CARTESIAN_POINT('',(1.97115912201856,11.1789988922775,-4.00561136949636E-15));
#450=CARTESIAN_POINT('',(17.3457709596825,9.71445146547012E-14,1.92592994438724E-31));
#451=CARTESIAN_POINT('',(17.3457709596825,9.71445146547012E-14,-6.64915604242098E-17));
#452=CARTESIAN_POINT('',(11.3514529694598,1.00613961606655E-13,-4.79337229242019E-16));
#453=CARTESIAN_POINT('',(2.83786324236497,1.11022302462516E-13,-1.06569228258686E-15));
#454=CARTESIAN_POINT('',(2.83786324236497,1.11022302462516E-13,-8.67361737988404E-16));
#455=CARTESIAN_POINT('',(11.3514529694598,1.00613961606655E-13,-4.79337229242023E-16));
#456=CARTESIAN_POINT('',(22.2101161584149,16.2552502769306,-3.46944695195362E-15));
#457=CARTESIAN_POINT('',(22.2101161584149,16.2552502769306,-3.91957397810311E-15));
#458=CARTESIAN_POINT('',(20.731746816901,7.87100110772254,-1.86122342625718E-15));
#459=CARTESIAN_POINT('',(19.6908444215428,1.96775027693073,-4.11963109678005E-16));
#460=CARTESIAN_POINT('',(19.6908444215428,1.96775027693073,7.70371977754894E-31));
#461=CARTESIAN_POINT('',(20.731746816901,7.87100110772257,-1.86122342625719E-15));
#462=CARTESIAN_POINT('',(11.3514529694598,9.525,-6.93889390390723E-15));
#463=CARTESIAN_POINT('',(8.31600186360089,6.97795409661709,-6.93889390390723E-15));
#464=CARTESIAN_POINT('',(19.8650426965546,16.66875,-4.18762247100801E-15));
#465=CARTESIAN_POINT('',(5.35713497923714,16.66875,-5.18682319317065E-15));
#466=CARTESIAN_POINT('',(2.83786324236498,2.38125000000011,-1.67921232474555E-15));
#467=CARTESIAN_POINT('',(17.3457709596825,2.3812500000001,-6.80011602582902E-16));
#468=CARTESIAN_POINT('',(11.3514529694598,9.525,-2.93341739787676E-15));
#469=CARTESIAN_POINT('',(19.8650426965546,16.66875,-3.46944695195361E-15));
#470=CARTESIAN_POINT('',(17.3457709596825,2.3812500000001,0.0));
#471=CARTESIAN_POINT('',(2.83786324236498,2.38125000000011,-1.73472347597681E-15));
#472=CARTESIAN_POINT('',(5.35713497923714,16.66875,-5.20417042793042E-15));
#473=CARTESIAN_POINT('',(11.3514529694598,9.525,-33.3676978394524));
#474=MECHANICAL_DESIGN_GEOMETRIC_PRESENTATION_REPRESENTATION('',(#232,#233,#234,
     #235),#475);
#475=(GEOMETRIC_REPRESENTATION_CONTEXT(3)GLOBAL_UNCERTAINTY_ASSIGNED_CONTEXT((#476))
     GLOBAL_UNIT_ASSIGNED_CONTEXT((#482,#478,#477))REPRESENTATION_CONTEXT('CNMM190624',
     'TOP_LEVEL_ASSEMBLY_PART'));
#476=UNCERTAINTY_MEASURE_WITH_UNIT(LENGTH_MEASURE(2.0E-5),#482,'DISTANCE_ACCURACY_VALUE',
     'Maximum Tolerance applied to model');
#477=(NAMED_UNIT(*)SI_UNIT($,.STERADIAN.)SOLID_ANGLE_UNIT());
#478=(CONVERSION_BASED_UNIT('DEGREE',#480)NAMED_UNIT(#479)PLANE_ANGLE_UNIT());
#479=DIMENSIONAL_EXPONENTS(0.0,0.0,0.0,0.0,0.0,0.0,0.0);
#480=PLANE_ANGLE_MEASURE_WITH_UNIT(PLANE_ANGLE_MEASURE(0.0174532925),#481);
#481=(NAMED_UNIT(*)PLANE_ANGLE_UNIT()SI_UNIT($,.RADIAN.));
#482=(LENGTH_UNIT()NAMED_UNIT(*)SI_UNIT(.MILLI.,.METRE.));
#483=CONSTRUCTIVE_GEOMETRY_REPRESENTATION('supplemental geometry',(#249,#250),#475);
#484=CONSTRUCTIVE_GEOMETRY_REPRESENTATION_RELATIONSHIP('supplemental geometry','contains PCS and MCS coordinate systems',
     #24,#483);
ENDSEC;
END-ISO-10303-21;
