ISO-10303-21;
HEADER;
FILE_DESCRIPTION(
/* description */ (''),
/* implementation_level */ '2;1');
FILE_NAME(
/* name */ 'CNMG190612.stp',
/* time_stamp */ '2017-03-21T10:53:58',
/* author */ ('Sandvik Coromant R&D'),
/* organization */ ('Sandvik Machining Solutions'),
/* preprocessor_version */ 'ST-DEVELOPER v15',
/* originating_system */ 'SIEMENS PLM Software NX v8.5.3.3(64 bits)',
/* authorization */ '');
FILE_SCHEMA(('AUTOMOTIVE_DESIGN'));
ENDSEC;
DATA;
#10=GEOMETRICALLY_BOUNDED_WIREFRAME_SHAPE_REPRESENTATION('IsoTurningInsert-None',
     (#25),#459);
#11=SHAPE_REPRESENTATION_RELATIONSHIP('None','relationship between IsoTurningInsert-None and IsoTurningInsert-None',
     #24,#13);
#12=SHAPE_REPRESENTATION_RELATIONSHIP('None','relationship between IsoTurningInsert-None and IsoTurningInsert-None',
     #24,#10);
#13=ADVANCED_BREP_SHAPE_REPRESENTATION('IsoTurningInsert-None',(#31),#459);
#14=SHAPE_DEFINITION_REPRESENTATION(#15,#24);
#15=PRODUCT_DEFINITION_SHAPE('','',#16);
#16=PRODUCT_DEFINITION(' ','',#18,#17);
#17=PRODUCT_DEFINITION_CONTEXT('part definition',#23,'design');
#18=PRODUCT_DEFINITION_FORMATION_WITH_SPECIFIED_SOURCE(' ',' ',#20,.NOT_KNOWN.);
#19=PRODUCT_RELATED_PRODUCT_CATEGORY('part','',(#20));
#20=PRODUCT('IsoTurningInsert','IsoTurningInsert',' ',(#21));
#21=PRODUCT_CONTEXT(' ',#23,'mechanical');
#22=APPLICATION_PROTOCOL_DEFINITION('international standard','automotive_design',
     2010,#23);
#23=APPLICATION_CONTEXT('core data for automotive mechanical design processes');
#24=SHAPE_REPRESENTATION('IsoTurningInsert-None',(#248),#459);
#25=GEOMETRIC_CURVE_SET('geometric curve set',(#228));
#26=SURFACE_STYLE_USAGE(.BOTH.,#27);
#27=SURFACE_SIDE_STYLE('',(#28));
#28=SURFACE_STYLE_FILL_AREA(#29);
#29=FILL_AREA_STYLE('',(#30));
#30=FILL_AREA_STYLE_COLOUR('',#247);
#31=MANIFOLD_SOLID_BREP('CUT',#32);
#32=CLOSED_SHELL('',(#46,#47,#48,#49,#50,#51,#52,#53,#54,#55,#56));
#33=CYLINDRICAL_SURFACE('',#267,1.190625);
#34=CYLINDRICAL_SURFACE('',#268,1.190625);
#35=CYLINDRICAL_SURFACE('',#269,1.190625);
#36=CYLINDRICAL_SURFACE('',#270,1.190625);
#37=CYLINDRICAL_SURFACE('',#271,3.9625);
#38=FACE_OUTER_BOUND('',#103,.T.);
#39=FACE_OUTER_BOUND('',#104,.T.);
#40=FACE_OUTER_BOUND('',#105,.T.);
#41=FACE_OUTER_BOUND('',#106,.T.);
#42=FACE_OUTER_BOUND('',#109,.T.);
#43=FACE_OUTER_BOUND('',#110,.T.);
#44=FACE_OUTER_BOUND('',#111,.T.);
#45=FACE_OUTER_BOUND('',#112,.T.);
#46=ADVANCED_FACE('',(#95,#96),#57,.F.);
#47=ADVANCED_FACE('',(#38),#58,.T.);
#48=ADVANCED_FACE('',(#39),#59,.T.);
#49=ADVANCED_FACE('',(#40),#60,.T.);
#50=ADVANCED_FACE('',(#41),#61,.T.);
#51=ADVANCED_FACE('',(#97,#98),#62,.T.);
#52=ADVANCED_FACE('',(#42),#33,.T.);
#53=ADVANCED_FACE('',(#43),#34,.T.);
#54=ADVANCED_FACE('',(#44),#35,.T.);
#55=ADVANCED_FACE('',(#45),#36,.T.);
#56=ADVANCED_FACE('',(#99,#100),#37,.F.);
#57=PLANE('',#256);
#58=PLANE('',#257);
#59=PLANE('',#258);
#60=PLANE('',#259);
#61=PLANE('',#260);
#62=PLANE('',#266);
#63=LINE('',#405,#79);
#64=LINE('',#410,#80);
#65=LINE('',#414,#81);
#66=LINE('',#418,#82);
#67=LINE('',#422,#83);
#68=LINE('',#425,#84);
#69=LINE('',#426,#85);
#70=LINE('',#428,#86);
#71=LINE('',#430,#87);
#72=LINE('',#432,#88);
#73=LINE('',#434,#89);
#74=LINE('',#436,#90);
#75=LINE('',#438,#91);
#76=LINE('',#440,#92);
#77=LINE('',#442,#93);
#78=LINE('',#444,#94);
#79=VECTOR('',#280,1.0);
#80=VECTOR('',#283,1.0);
#81=VECTOR('',#286,1.0);
#82=VECTOR('',#289,1.0);
#83=VECTOR('',#294,1.0);
#84=VECTOR('',#295,1.0);
#85=VECTOR('',#296,1.0);
#86=VECTOR('',#299,1.0);
#87=VECTOR('',#300,1.0);
#88=VECTOR('',#301,1.0);
#89=VECTOR('',#304,1.0);
#90=VECTOR('',#305,1.0);
#91=VECTOR('',#306,1.0);
#92=VECTOR('',#309,1.0);
#93=VECTOR('',#310,1.0);
#94=VECTOR('',#311,1.0);
#95=FACE_BOUND('',#101,.T.);
#96=FACE_BOUND('',#102,.T.);
#97=FACE_BOUND('',#107,.T.);
#98=FACE_BOUND('',#108,.T.);
#99=FACE_BOUND('',#113,.T.);
#100=FACE_BOUND('',#114,.T.);
#101=EDGE_LOOP('',(#115));
#102=EDGE_LOOP('',(#116,#117,#118,#119,#120,#121,#122,#123));
#103=EDGE_LOOP('',(#124,#125,#126,#127));
#104=EDGE_LOOP('',(#128,#129,#130,#131));
#105=EDGE_LOOP('',(#132,#133,#134,#135));
#106=EDGE_LOOP('',(#136,#137,#138,#139));
#107=EDGE_LOOP('',(#140));
#108=EDGE_LOOP('',(#141,#142,#143,#144,#145,#146,#147,#148));
#109=EDGE_LOOP('',(#149,#150,#151,#152));
#110=EDGE_LOOP('',(#153,#154,#155,#156));
#111=EDGE_LOOP('',(#157,#158,#159,#160));
#112=EDGE_LOOP('',(#161,#162,#163,#164));
#113=EDGE_LOOP('',(#165));
#114=EDGE_LOOP('',(#166));
#115=ORIENTED_EDGE('',*,*,#185,.T.);
#116=ORIENTED_EDGE('',*,*,#186,.T.);
#117=ORIENTED_EDGE('',*,*,#187,.T.);
#118=ORIENTED_EDGE('',*,*,#188,.T.);
#119=ORIENTED_EDGE('',*,*,#189,.T.);
#120=ORIENTED_EDGE('',*,*,#190,.T.);
#121=ORIENTED_EDGE('',*,*,#191,.T.);
#122=ORIENTED_EDGE('',*,*,#192,.T.);
#123=ORIENTED_EDGE('',*,*,#193,.T.);
#124=ORIENTED_EDGE('',*,*,#194,.F.);
#125=ORIENTED_EDGE('',*,*,#195,.T.);
#126=ORIENTED_EDGE('',*,*,#186,.F.);
#127=ORIENTED_EDGE('',*,*,#196,.T.);
#128=ORIENTED_EDGE('',*,*,#192,.F.);
#129=ORIENTED_EDGE('',*,*,#197,.T.);
#130=ORIENTED_EDGE('',*,*,#198,.F.);
#131=ORIENTED_EDGE('',*,*,#199,.T.);
#132=ORIENTED_EDGE('',*,*,#190,.F.);
#133=ORIENTED_EDGE('',*,*,#200,.T.);
#134=ORIENTED_EDGE('',*,*,#201,.F.);
#135=ORIENTED_EDGE('',*,*,#202,.T.);
#136=ORIENTED_EDGE('',*,*,#188,.F.);
#137=ORIENTED_EDGE('',*,*,#203,.T.);
#138=ORIENTED_EDGE('',*,*,#204,.F.);
#139=ORIENTED_EDGE('',*,*,#205,.T.);
#140=ORIENTED_EDGE('',*,*,#206,.F.);
#141=ORIENTED_EDGE('',*,*,#204,.T.);
#142=ORIENTED_EDGE('',*,*,#207,.T.);
#143=ORIENTED_EDGE('',*,*,#194,.T.);
#144=ORIENTED_EDGE('',*,*,#208,.T.);
#145=ORIENTED_EDGE('',*,*,#198,.T.);
#146=ORIENTED_EDGE('',*,*,#209,.T.);
#147=ORIENTED_EDGE('',*,*,#201,.T.);
#148=ORIENTED_EDGE('',*,*,#210,.T.);
#149=ORIENTED_EDGE('',*,*,#187,.F.);
#150=ORIENTED_EDGE('',*,*,#195,.F.);
#151=ORIENTED_EDGE('',*,*,#207,.F.);
#152=ORIENTED_EDGE('',*,*,#203,.F.);
#153=ORIENTED_EDGE('',*,*,#189,.F.);
#154=ORIENTED_EDGE('',*,*,#205,.F.);
#155=ORIENTED_EDGE('',*,*,#210,.F.);
#156=ORIENTED_EDGE('',*,*,#200,.F.);
#157=ORIENTED_EDGE('',*,*,#191,.F.);
#158=ORIENTED_EDGE('',*,*,#202,.F.);
#159=ORIENTED_EDGE('',*,*,#209,.F.);
#160=ORIENTED_EDGE('',*,*,#197,.F.);
#161=ORIENTED_EDGE('',*,*,#193,.F.);
#162=ORIENTED_EDGE('',*,*,#199,.F.);
#163=ORIENTED_EDGE('',*,*,#208,.F.);
#164=ORIENTED_EDGE('',*,*,#196,.F.);
#165=ORIENTED_EDGE('',*,*,#185,.F.);
#166=ORIENTED_EDGE('',*,*,#206,.T.);
#167=VERTEX_POINT('',#404);
#168=VERTEX_POINT('',#406);
#169=VERTEX_POINT('',#407);
#170=VERTEX_POINT('',#409);
#171=VERTEX_POINT('',#411);
#172=VERTEX_POINT('',#413);
#173=VERTEX_POINT('',#415);
#174=VERTEX_POINT('',#417);
#175=VERTEX_POINT('',#419);
#176=VERTEX_POINT('',#423);
#177=VERTEX_POINT('',#424);
#178=VERTEX_POINT('',#429);
#179=VERTEX_POINT('',#431);
#180=VERTEX_POINT('',#435);
#181=VERTEX_POINT('',#437);
#182=VERTEX_POINT('',#441);
#183=VERTEX_POINT('',#443);
#184=VERTEX_POINT('',#447);
#185=EDGE_CURVE('',#167,#167,#211,.T.);
#186=EDGE_CURVE('',#168,#169,#63,.T.);
#187=EDGE_CURVE('',#169,#170,#212,.T.);
#188=EDGE_CURVE('',#170,#171,#64,.T.);
#189=EDGE_CURVE('',#171,#172,#213,.T.);
#190=EDGE_CURVE('',#172,#173,#65,.T.);
#191=EDGE_CURVE('',#173,#174,#214,.T.);
#192=EDGE_CURVE('',#174,#175,#66,.T.);
#193=EDGE_CURVE('',#175,#168,#215,.T.);
#194=EDGE_CURVE('',#176,#177,#67,.T.);
#195=EDGE_CURVE('',#176,#169,#68,.T.);
#196=EDGE_CURVE('',#168,#177,#69,.T.);
#197=EDGE_CURVE('',#174,#178,#70,.T.);
#198=EDGE_CURVE('',#179,#178,#71,.T.);
#199=EDGE_CURVE('',#179,#175,#72,.T.);
#200=EDGE_CURVE('',#172,#180,#73,.T.);
#201=EDGE_CURVE('',#181,#180,#74,.T.);
#202=EDGE_CURVE('',#181,#173,#75,.T.);
#203=EDGE_CURVE('',#170,#182,#76,.T.);
#204=EDGE_CURVE('',#183,#182,#77,.T.);
#205=EDGE_CURVE('',#183,#171,#78,.T.);
#206=EDGE_CURVE('',#184,#184,#216,.T.);
#207=EDGE_CURVE('',#182,#176,#217,.T.);
#208=EDGE_CURVE('',#177,#179,#218,.T.);
#209=EDGE_CURVE('',#178,#181,#219,.T.);
#210=EDGE_CURVE('',#180,#183,#220,.T.);
#211=CIRCLE('',#251,3.9625);
#212=CIRCLE('',#252,1.190625);
#213=CIRCLE('',#253,1.190625);
#214=CIRCLE('',#254,1.190625);
#215=CIRCLE('',#255,1.190625);
#216=CIRCLE('',#261,3.9625);
#217=CIRCLE('',#262,1.190625);
#218=CIRCLE('',#263,1.190625);
#219=CIRCLE('',#264,1.190625);
#220=CIRCLE('',#265,1.190625);
#221=CURVE_STYLE('',#225,POSITIVE_LENGTH_MEASURE(0.18),#224);
#222=CURVE_STYLE('',#226,POSITIVE_LENGTH_MEASURE(0.18),#246);
#223=CURVE_STYLE('',#227,POSITIVE_LENGTH_MEASURE(0.18),#246);
#224=DRAUGHTING_PRE_DEFINED_COLOUR('blue');
#225=DRAUGHTING_PRE_DEFINED_CURVE_FONT('continuous');
#226=DRAUGHTING_PRE_DEFINED_CURVE_FONT('continuous');
#227=DRAUGHTING_PRE_DEFINED_CURVE_FONT('continuous');
#228=B_SPLINE_CURVE_WITH_KNOTS('CUTTING EDGE LINE',5,(#339,#340,#341,#342,#343,#344,
     #345,#346,#347,#348,#349,#350,#351,#352,#353,#354,#355,#356,#357,#358,#359,
     #360,#361,#362,#363,#364,#365,#366,#367,#368,#369,#370,#371,#372,#373,#374,
     #375,#376,#377,#378,#379,#380,#381,#382,#383,#384,#385,#386,#387,#388,#389,
     #390,#391,#392,#393,#394,#395,#396,#397,#398,#399,#400),.UNSPECIFIED.,.T.,.F.,
     (2,4,1,1,1,1,1,1,1,4,4,1,1,1,1,1,1,1,4,4,1,1,1,1,1,1,1,4,4,1,1,1,1,1,1,1,4,
     4,1,1),(-0.225124797,0.0,0.00276391143749999,0.00552782287499998,0.00829173431249997,
     0.01105564575,0.0138195571875001,0.016583468625,0.0193473800625,0.0221112915,
     0.2472360885,0.2506909778125,0.254145867125,0.2576007564375,0.26105564575,0.2645105350625,
     0.267965424375,0.2714203136875,0.274875203,0.5,0.5027639114375,0.505527822875,
     0.5082917343125,0.51105564575,0.5138195571875,0.516583468625,0.5193473800625,
     0.5221112915,0.7472360885,0.7506909778125,0.754145867125,0.7576007564375,0.76105564575,
     0.7645105350625,0.767965424375,0.7714203136875,0.774875203,1.0,1.0027639114375,
     1.005527822875),.UNSPECIFIED.);
#229=PRESENTATION_LAYER_ASSIGNMENT('1','Layer 1',(#228,#249,#250,#31));
#232=STYLED_ITEM('',(#238),#228);
#233=STYLED_ITEM('',(#239),#249);
#234=STYLED_ITEM('',(#240),#250);
#235=STYLED_ITEM('',(#241),#31);
#236=PRESENTATION_STYLE_ASSIGNMENT((#242));
#237=PRESENTATION_STYLE_ASSIGNMENT((#243));
#238=PRESENTATION_STYLE_ASSIGNMENT((#221));
#239=PRESENTATION_STYLE_ASSIGNMENT((#222));
#240=PRESENTATION_STYLE_ASSIGNMENT((#223));
#241=PRESENTATION_STYLE_ASSIGNMENT((#26));
#242=POINT_STYLE('',#244,POSITIVE_LENGTH_MEASURE(3.0),#246);
#243=POINT_STYLE('',#245,POSITIVE_LENGTH_MEASURE(3.0),#246);
#244=PRE_DEFINED_POINT_MARKER_SYMBOL('plus');
#245=PRE_DEFINED_POINT_MARKER_SYMBOL('plus');
#246=COLOUR_RGB('Medium Maroon',0.6,0.4,0.4);
#247=COLOUR_RGB('IsoInsertColor',0.8,0.8,0.8);
#248=AXIS2_PLACEMENT_3D('',#336,#272,#273);
#249=AXIS2_PLACEMENT_3D('PCS',#401,#274,#275);
#250=AXIS2_PLACEMENT_3D('MCS',#402,#276,#277);
#251=AXIS2_PLACEMENT_3D('',#403,#278,#279);
#252=AXIS2_PLACEMENT_3D('',#408,#281,#282);
#253=AXIS2_PLACEMENT_3D('',#412,#284,#285);
#254=AXIS2_PLACEMENT_3D('',#416,#287,#288);
#255=AXIS2_PLACEMENT_3D('',#420,#290,#291);
#256=AXIS2_PLACEMENT_3D('',#421,#292,#293);
#257=AXIS2_PLACEMENT_3D('',#427,#297,#298);
#258=AXIS2_PLACEMENT_3D('',#433,#302,#303);
#259=AXIS2_PLACEMENT_3D('',#439,#307,#308);
#260=AXIS2_PLACEMENT_3D('',#445,#312,#313);
#261=AXIS2_PLACEMENT_3D('',#446,#314,#315);
#262=AXIS2_PLACEMENT_3D('',#448,#316,#317);
#263=AXIS2_PLACEMENT_3D('',#449,#318,#319);
#264=AXIS2_PLACEMENT_3D('',#450,#320,#321);
#265=AXIS2_PLACEMENT_3D('',#451,#322,#323);
#266=AXIS2_PLACEMENT_3D('',#452,#324,#325);
#267=AXIS2_PLACEMENT_3D('',#453,#326,#327);
#268=AXIS2_PLACEMENT_3D('',#454,#328,#329);
#269=AXIS2_PLACEMENT_3D('',#455,#330,#331);
#270=AXIS2_PLACEMENT_3D('',#456,#332,#333);
#271=AXIS2_PLACEMENT_3D('',#457,#334,#335);
#272=DIRECTION('',(0.0,0.0,1.0));
#273=DIRECTION('',(1.0,0.0,0.0));
#274=DIRECTION('',(0.0,0.0,1.0));
#275=DIRECTION('',(1.0,0.0,0.0));
#276=DIRECTION('',(0.0,0.0,1.0));
#277=DIRECTION('',(1.0,0.0,0.0));
#278=DIRECTION('',(0.0,0.0,1.0));
#279=DIRECTION('',(-0.766044443118978,-0.64278760968654,0.0));
#280=DIRECTION('',(1.0,9.43689570931383E-16,0.0));
#281=DIRECTION('',(0.0,0.0,-1.0));
#282=DIRECTION('',(-0.766044443118979,-0.642787609686539,0.0));
#283=DIRECTION('',(-0.173648177666928,-0.984807753012209,0.0));
#284=DIRECTION('',(0.0,0.0,-1.0));
#285=DIRECTION('',(-0.766044443118979,-0.64278760968654,0.0));
#286=DIRECTION('',(-1.0,9.99200722162641E-16,0.0));
#287=DIRECTION('',(0.0,0.0,-1.0));
#288=DIRECTION('',(-0.766044443118978,-0.64278760968654,0.0));
#289=DIRECTION('',(0.17364817766693,0.984807753012208,0.0));
#290=DIRECTION('',(0.0,0.0,-1.0));
#291=DIRECTION('',(-0.766044443118978,-0.642787609686539,0.0));
#292=DIRECTION('',(0.0,0.0,1.0));
#293=DIRECTION('',(-0.766044443118978,-0.64278760968654,0.0));
#294=DIRECTION('',(-1.0,-9.43689570931383E-16,-6.88728341558126E-17));
#295=DIRECTION('',(6.88728341558128E-17,-2.57646211930159E-16,-1.0));
#296=DIRECTION('',(-6.88728341558128E-17,2.57646211930159E-16,1.0));
#297=DIRECTION('',(-9.43689570931383E-16,1.0,-2.5764621193016E-16));
#298=DIRECTION('',(-1.0,-9.43689570931383E-16,0.0));
#299=DIRECTION('',(-6.88728341558128E-17,2.57646211930159E-16,1.0));
#300=DIRECTION('',(-0.17364817766693,-0.984807753012208,2.41772344901134E-16));
#301=DIRECTION('',(6.88728341558128E-17,-2.57646211930159E-16,-1.0));
#302=DIRECTION('',(-0.984807753012208,0.17364817766693,-1.12566296233028E-16));
#303=DIRECTION('',(-0.17364817766693,-0.984807753012208,0.0));
#304=DIRECTION('',(-6.88728341558128E-17,2.57646211930159E-16,1.0));
#305=DIRECTION('',(1.0,-9.99200722162641E-16,6.88728341558131E-17));
#306=DIRECTION('',(6.88728341558128E-17,-2.57646211930159E-16,-1.0));
#307=DIRECTION('',(-9.99200722162641E-16,-1.0,2.57646211930159E-16));
#308=DIRECTION('',(1.0,-9.99200722162641E-16,0.0));
#309=DIRECTION('',(-6.88728341558128E-17,2.57646211930159E-16,1.0));
#310=DIRECTION('',(0.173648177666928,0.984807753012209,-2.41772344901134E-16));
#311=DIRECTION('',(6.88728341558128E-17,-2.57646211930159E-16,-1.0));
#312=DIRECTION('',(0.984807753012209,-0.173648177666928,1.12566296233028E-16));
#313=DIRECTION('',(0.173648177666928,0.984807753012209,0.0));
#314=DIRECTION('',(0.0,0.0,1.0));
#315=DIRECTION('',(-0.766044443118978,-0.64278760968654,0.0));
#316=DIRECTION('',(-6.88728341558128E-17,2.57646211930159E-16,1.0));
#317=DIRECTION('',(-0.642787609686539,0.766044443118979,-2.41639053379105E-16));
#318=DIRECTION('',(-6.88728341558128E-17,2.57646211930159E-16,1.0));
#319=DIRECTION('',(-0.64278760968654,0.766044443118979,-2.41639053379105E-16));
#320=DIRECTION('',(-6.88728341558128E-17,2.57646211930159E-16,1.0));
#321=DIRECTION('',(-0.64278760968654,0.766044443118978,-2.41639053379105E-16));
#322=DIRECTION('',(-6.88728341558128E-17,2.57646211930159E-16,1.0));
#323=DIRECTION('',(-0.642787609686539,0.766044443118978,-2.41639053379106E-16));
#324=DIRECTION('',(-6.88728341558128E-17,2.57646211930159E-16,1.0));
#325=DIRECTION('',(-0.64278760968654,0.766044443118978,-2.41639053379106E-16));
#326=DIRECTION('',(-6.88728341558128E-17,2.57646211930159E-16,1.0));
#327=DIRECTION('',(-0.642787609686539,0.766044443118979,-2.41639053379105E-16));
#328=DIRECTION('',(-6.88728341558128E-17,2.57646211930159E-16,1.0));
#329=DIRECTION('',(-0.642787609686539,0.766044443118978,-2.41639053379106E-16));
#330=DIRECTION('',(-6.88728341558128E-17,2.57646211930159E-16,1.0));
#331=DIRECTION('',(-0.64278760968654,0.766044443118978,-2.41639053379105E-16));
#332=DIRECTION('',(-6.88728341558128E-17,2.57646211930159E-16,1.0));
#333=DIRECTION('',(-0.64278760968654,0.766044443118979,-2.41639053379105E-16));
#334=DIRECTION('',(0.0,0.0,1.0));
#335=DIRECTION('',(-0.766044443118978,-0.64278760968654,0.0));
#336=CARTESIAN_POINT('',(0.0,0.0,0.0));
#339=CARTESIAN_POINT('',(14.9596454906788,9.76996261670138E-14,0.0));
#340=CARTESIAN_POINT('',(18.3830899079421,9.59232693276135E-14,3.09395505499876E-16));
#341=CARTESIAN_POINT('',(18.4596218077204,0.0030746098078005,3.13664899885736E-16));
#342=CARTESIAN_POINT('',(18.5810794494418,0.0174432807981937,3.17349342408895E-16));
#343=CARTESIAN_POINT('',(18.7405880093831,0.058039807038762,3.15110562407669E-16));
#344=CARTESIAN_POINT('',(18.9372504958666,0.146355343476007,2.99885895832324E-16));
#345=CARTESIAN_POINT('',(19.1164749130427,0.271007202162162,2.71623422997535E-16));
#346=CARTESIAN_POINT('',(19.2703550233404,0.425863229622829,2.317762084165E-16));
#347=CARTESIAN_POINT('',(19.3914789307285,0.60420213907631,1.82023277371879E-16));
#348=CARTESIAN_POINT('',(19.4591570752716,0.754237892776867,1.37809325118776E-16));
#349=CARTESIAN_POINT('',(19.4943983520121,0.871355226473913,1.02084746618502E-16));
#350=CARTESIAN_POINT('',(19.5107158765181,0.946190534338193,7.88304848917467E-17));
#351=CARTESIAN_POINT('',(20.1051907609199,4.31762513846539,4.02072739357347E-17));
#352=CARTESIAN_POINT('',(20.6930208328567,7.65137513846538,2.68048492904897E-17));
#353=CARTESIAN_POINT('',(21.2808509047936,10.9851251384654,2.68048492904895E-17));
#354=CARTESIAN_POINT('',(21.8686809767304,14.3188751384653,4.02072739357342E-17));
#355=CARTESIAN_POINT('',(22.4644300277944,17.6975359008194,5.8140166092337E-17));
#356=CARTESIAN_POINT('',(22.4759675310567,17.7881157117721,4.0420374421462E-17));
#357=CARTESIAN_POINT('',(22.4813432073503,17.9384281670748,1.15554107185623E-17));
#358=CARTESIAN_POINT('',(22.4554888669633,18.1414580452035,-2.61341716501604E-17));
#359=CARTESIAN_POINT('',(22.3630272972412,18.4002244937314,-7.18363280544086E-17));
#360=CARTESIAN_POINT('',(22.2085237351045,18.6351640751182,-1.10562913049169E-16));
#361=CARTESIAN_POINT('',(22.0039826758735,18.8281172111481,-1.39323007262865E-16));
#362=CARTESIAN_POINT('',(21.7652032542297,18.9641084040943,-1.558815092687E-16));
#363=CARTESIAN_POINT('',(21.5697474152502,19.0248257273054,-1.59789790206537E-16));
#364=CARTESIAN_POINT('',(21.4207850675004,19.0456332035577,-1.579136380841E-16));
#365=CARTESIAN_POINT('',(21.3295779009915,19.05,-1.55168701030705E-16));
#366=CARTESIAN_POINT('',(17.898795850363,19.05,-9.20280063238037E-17));
#367=CARTESIAN_POINT('',(14.5136173829889,19.05,-6.13520042158692E-17));
#368=CARTESIAN_POINT('',(11.1284389156148,19.05,-6.13520042158691E-17));
#369=CARTESIAN_POINT('',(7.74326044824076,19.05,-9.20280063238038E-17));
#370=CARTESIAN_POINT('',(4.31981603097753,19.05,-1.61890290198175E-16));
#371=CARTESIAN_POINT('',(4.24328413119922,19.0469253901923,-1.77826043312103E-16));
#372=CARTESIAN_POINT('',(4.12182648947784,19.0325567192019,-1.9976834923124E-16));
#373=CARTESIAN_POINT('',(3.96231792953649,18.9919601929613,-2.2091920942343E-16));
#374=CARTESIAN_POINT('',(3.76565544305303,18.9036446565241,-2.33496468867162E-16));
#375=CARTESIAN_POINT('',(3.58643102587685,18.7789927978379,-2.29375086904005E-16));
#376=CARTESIAN_POINT('',(3.43255091557919,18.6241367703773,-2.08960321270615E-16));
#377=CARTESIAN_POINT('',(3.31142700819114,18.4457978609238,-1.72975232688891E-16));
#378=CARTESIAN_POINT('',(3.24374886364796,18.2957621072232,-1.35090026207706E-16));
#379=CARTESIAN_POINT('',(3.20850758690748,18.1786447735262,-1.01605434085565E-16));
#380=CARTESIAN_POINT('',(3.19219006240147,18.1038094656619,-7.88304848917466E-17));
#381=CARTESIAN_POINT('',(2.59771517799969,14.7323748615347,-4.02072739357347E-17));
#382=CARTESIAN_POINT('',(2.00988510606285,11.3986248615347,-2.68048492904898E-17));
#383=CARTESIAN_POINT('',(1.42205503412601,8.06487486153475,-2.68048492904899E-17));
#384=CARTESIAN_POINT('',(0.834224962189172,4.73112486153478,-4.02072739357349E-17));
#385=CARTESIAN_POINT('',(0.23847591112512,1.3524640991807,-5.81401660923382E-17));
#386=CARTESIAN_POINT('',(0.226938407862898,1.26188428822807,-4.04203744214632E-17));
#387=CARTESIAN_POINT('',(0.221562731569271,1.11157183292528,-1.15554107185636E-17));
#388=CARTESIAN_POINT('',(0.247417071956249,0.908541954796664,2.61341716501591E-17));
#389=CARTESIAN_POINT('',(0.339878641678354,0.6497755062687,7.18363280544076E-17));
#390=CARTESIAN_POINT('',(0.494382203815057,0.414835924881935,1.10562913049168E-16));
#391=CARTESIAN_POINT('',(0.698923263046076,0.221882788852032,1.39323007262864E-16));
#392=CARTESIAN_POINT('',(0.937702684689871,0.0858915959058333,1.558815092687E-16));
#393=CARTESIAN_POINT('',(1.13315852366932,0.025174272694743,1.59789790206537E-16));
#394=CARTESIAN_POINT('',(1.28212087141921,0.00436679644241167,1.57913638084099E-16));
#395=CARTESIAN_POINT('',(1.37332803792807,1.11910480882216E-13,1.55168701030704E-16));
#396=CARTESIAN_POINT('',(4.80411008855658,1.08357767203415E-13,9.20280063238037E-17));
#397=CARTESIAN_POINT('',(8.18928855593066,1.03028696685215E-13,4.60140031619018E-17));
#398=CARTESIAN_POINT('',(11.5744670233047,1.01252339845814E-13,1.53380010539673E-17));
#399=CARTESIAN_POINT('',(14.9596454906788,9.76996261670138E-14,0.0));
#400=CARTESIAN_POINT('',(18.3830899079421,9.59232693276135E-14,3.09395505499876E-16));
#401=CARTESIAN_POINT('',(0.0,0.0,0.0));
#402=CARTESIAN_POINT('',(11.3514529694598,9.525,0.0));
#403=CARTESIAN_POINT('',(11.3514529694598,9.525,-6.35));
#404=CARTESIAN_POINT('',(8.31600186360089,6.97795409661709,-6.35));
#405=CARTESIAN_POINT('',(11.3514529694598,19.05,-6.35));
#406=CARTESIAN_POINT('',(4.35808198086668,19.05,-6.35));
#407=CARTESIAN_POINT('',(21.2839743177371,19.05,-6.35));
#408=CARTESIAN_POINT('',(21.2839743177371,17.859375,-6.35));
#409=CARTESIAN_POINT('',(22.4565110486672,17.6526251384653,-6.35));
#410=CARTESIAN_POINT('',(20.731746816901,7.87100110772257,-6.35));
#411=CARTESIAN_POINT('',(19.5173606889831,0.983875138465404,-6.35));
#412=CARTESIAN_POINT('',(18.3448239580529,1.19062500000009,-6.35));
#413=CARTESIAN_POINT('',(18.3448239580529,9.36750677027476E-14,-6.35));
#414=CARTESIAN_POINT('',(11.3514529694598,1.00613961606655E-13,-6.35));
#415=CARTESIAN_POINT('',(1.41893162118249,1.11022302462516E-13,-6.35));
#416=CARTESIAN_POINT('',(1.41893162118249,1.19062500000011,-6.35));
#417=CARTESIAN_POINT('',(0.246394890252338,1.3973748615348,-6.35));
#418=CARTESIAN_POINT('',(1.97115912201856,11.1789988922775,-6.35));
#419=CARTESIAN_POINT('',(3.18554524993653,18.0661248615347,-6.35));
#420=CARTESIAN_POINT('',(4.35808198086669,17.859375,-6.35));
#421=CARTESIAN_POINT('',(11.3052316569227,8.99668798019793,-6.35));
#422=CARTESIAN_POINT('',(11.3514529694598,19.05,-5.38749756651153E-15));
#423=CARTESIAN_POINT('',(21.2839743177371,19.05,-4.70341667094256E-15));
#424=CARTESIAN_POINT('',(4.35808198086668,19.05,-5.86915084679898E-15));
#425=CARTESIAN_POINT('',(21.2839743177371,19.05,-4.33680868994202E-15));
#426=CARTESIAN_POINT('',(4.35808198086668,19.05,-5.20417042793042E-15));
#427=CARTESIAN_POINT('',(11.3514529694598,19.05,-5.38749756651153E-15));
#428=CARTESIAN_POINT('',(0.246394890252338,1.3973748615348,-8.67361737988404E-16));
#429=CARTESIAN_POINT('',(0.246394890252338,1.3973748615348,-1.60420239234279E-15));
#430=CARTESIAN_POINT('',(1.97115912201856,11.1789988922775,-4.00561136949636E-15));
#431=CARTESIAN_POINT('',(3.18554524993653,18.0661248615347,-5.69641507217208E-15));
#432=CARTESIAN_POINT('',(3.18554524993653,18.0661248615347,-5.20417042793042E-15));
#433=CARTESIAN_POINT('',(1.97115912201856,11.1789988922775,-4.00561136949636E-15));
#434=CARTESIAN_POINT('',(18.3448239580529,9.54097911787244E-14,2.88889491658085E-31));
#435=CARTESIAN_POINT('',(18.3448239580529,9.54097911787244E-14,2.31605104542596E-18));
#436=CARTESIAN_POINT('',(11.3514529694598,1.00613961606655E-13,-4.79337229242019E-16));
#437=CARTESIAN_POINT('',(1.41893162118249,1.12757025938492E-13,-1.163418124811E-15));
#438=CARTESIAN_POINT('',(1.41893162118249,1.12757025938492E-13,-8.67361737988403E-16));
#439=CARTESIAN_POINT('',(11.3514529694598,1.00613961606655E-13,-4.79337229242023E-16));
#440=CARTESIAN_POINT('',(22.4565110486672,17.6526251384653,-4.33680868994202E-15));
#441=CARTESIAN_POINT('',(22.4565110486672,17.6526251384653,-4.26263240341077E-15));
#442=CARTESIAN_POINT('',(20.731746816901,7.87100110772254,-1.86122342625718E-15));
#443=CARTESIAN_POINT('',(19.5173606889831,0.983875138465406,-1.7041972358147E-16));
#444=CARTESIAN_POINT('',(19.5173606889831,0.983875138465406,7.70371977754894E-31));
#445=CARTESIAN_POINT('',(20.731746816901,7.87100110772257,-1.86122342625719E-15));
#446=CARTESIAN_POINT('',(11.3514529694598,9.525,-6.93889390390723E-15));
#447=CARTESIAN_POINT('',(8.31600186360089,6.97795409661709,-6.93889390390723E-15));
#448=CARTESIAN_POINT('',(21.2839743177371,17.859375,-4.39665664986322E-15));
#449=CARTESIAN_POINT('',(4.35808198086669,17.859375,-5.56239082571963E-15));
#450=CARTESIAN_POINT('',(1.41893162118249,1.19062500000011,-1.47017814589034E-15));
#451=CARTESIAN_POINT('',(18.3448239580529,1.19062500000009,-3.0444397003392E-16));
#452=CARTESIAN_POINT('',(11.3514529694598,9.525,-2.93341739787676E-15));
#453=CARTESIAN_POINT('',(21.2839743177371,17.859375,-4.33680868994202E-15));
#454=CARTESIAN_POINT('',(18.3448239580529,1.19062500000009,0.0));
#455=CARTESIAN_POINT('',(1.41893162118249,1.19062500000011,-8.67361737988404E-16));
#456=CARTESIAN_POINT('',(4.35808198086669,17.859375,-5.20417042793042E-15));
#457=CARTESIAN_POINT('',(11.3514529694598,9.525,-33.3676978394524));
#458=MECHANICAL_DESIGN_GEOMETRIC_PRESENTATION_REPRESENTATION('',(#232,#233,#234,
     #235),#459);
#459=(GEOMETRIC_REPRESENTATION_CONTEXT(3)GLOBAL_UNCERTAINTY_ASSIGNED_CONTEXT((#460))
     GLOBAL_UNIT_ASSIGNED_CONTEXT((#466,#462,#461))REPRESENTATION_CONTEXT('CNMG190612',
     'TOP_LEVEL_ASSEMBLY_PART'));
#460=UNCERTAINTY_MEASURE_WITH_UNIT(LENGTH_MEASURE(2.0E-5),#466,'DISTANCE_ACCURACY_VALUE',
     'Maximum Tolerance applied to model');
#461=(NAMED_UNIT(*)SI_UNIT($,.STERADIAN.)SOLID_ANGLE_UNIT());
#462=(CONVERSION_BASED_UNIT('DEGREE',#464)NAMED_UNIT(#463)PLANE_ANGLE_UNIT());
#463=DIMENSIONAL_EXPONENTS(0.0,0.0,0.0,0.0,0.0,0.0,0.0);
#464=PLANE_ANGLE_MEASURE_WITH_UNIT(PLANE_ANGLE_MEASURE(0.0174532925),#465);
#465=(NAMED_UNIT(*)PLANE_ANGLE_UNIT()SI_UNIT($,.RADIAN.));
#466=(LENGTH_UNIT()NAMED_UNIT(*)SI_UNIT(.MILLI.,.METRE.));
#467=CONSTRUCTIVE_GEOMETRY_REPRESENTATION('supplemental geometry',(#249,#250),#459);
#468=CONSTRUCTIVE_GEOMETRY_REPRESENTATION_RELATIONSHIP('supplemental geometry','contains PCS and MCS coordinate systems',
     #24,#467);
ENDSEC;
END-ISO-10303-21;
