ISO-10303-21;
HEADER;
FILE_DESCRIPTION(
/* description */ (''),
/* implementation_level */ '2;1');
FILE_NAME(
/* name */ 'CNMG190608.stp',
/* time_stamp */ '2017-03-21T10:53:58',
/* author */ ('Sandvik Coromant R&D'),
/* organization */ ('Sandvik Machining Solutions'),
/* preprocessor_version */ 'ST-DEVELOPER v15',
/* originating_system */ 'SIEMENS PLM Software NX v8.5.3.3(64 bits)',
/* authorization */ '');
FILE_SCHEMA(('AUTOMOTIVE_DESIGN'));
ENDSEC;
DATA;
#10=GEOMETRICALLY_BOUNDED_WIREFRAME_SHAPE_REPRESENTATION('IsoTurningInsert-None',
     (#25),#459);
#11=SHAPE_REPRESENTATION_RELATIONSHIP('None','relationship between IsoTurningInsert-None and IsoTurningInsert-None',
     #24,#13);
#12=SHAPE_REPRESENTATION_RELATIONSHIP('None','relationship between IsoTurningInsert-None and IsoTurningInsert-None',
     #24,#10);
#13=ADVANCED_BREP_SHAPE_REPRESENTATION('IsoTurningInsert-None',(#31),#459);
#14=SHAPE_DEFINITION_REPRESENTATION(#15,#24);
#15=PRODUCT_DEFINITION_SHAPE('','',#16);
#16=PRODUCT_DEFINITION(' ','',#18,#17);
#17=PRODUCT_DEFINITION_CONTEXT('part definition',#23,'design');
#18=PRODUCT_DEFINITION_FORMATION_WITH_SPECIFIED_SOURCE(' ',' ',#20,.NOT_KNOWN.);
#19=PRODUCT_RELATED_PRODUCT_CATEGORY('part','',(#20));
#20=PRODUCT('IsoTurningInsert','IsoTurningInsert',' ',(#21));
#21=PRODUCT_CONTEXT(' ',#23,'mechanical');
#22=APPLICATION_PROTOCOL_DEFINITION('international standard','automotive_design',
     2010,#23);
#23=APPLICATION_CONTEXT('core data for automotive mechanical design processes');
#24=SHAPE_REPRESENTATION('IsoTurningInsert-None',(#248),#459);
#25=GEOMETRIC_CURVE_SET('geometric curve set',(#228));
#26=SURFACE_STYLE_USAGE(.BOTH.,#27);
#27=SURFACE_SIDE_STYLE('',(#28));
#28=SURFACE_STYLE_FILL_AREA(#29);
#29=FILL_AREA_STYLE('',(#30));
#30=FILL_AREA_STYLE_COLOUR('',#247);
#31=MANIFOLD_SOLID_BREP('CUT',#32);
#32=CLOSED_SHELL('',(#46,#47,#48,#49,#50,#51,#52,#53,#54,#55,#56));
#33=CYLINDRICAL_SURFACE('',#267,0.79375);
#34=CYLINDRICAL_SURFACE('',#268,0.79375);
#35=CYLINDRICAL_SURFACE('',#269,0.79375);
#36=CYLINDRICAL_SURFACE('',#270,0.79375);
#37=CYLINDRICAL_SURFACE('',#271,3.9625);
#38=FACE_OUTER_BOUND('',#103,.T.);
#39=FACE_OUTER_BOUND('',#104,.T.);
#40=FACE_OUTER_BOUND('',#105,.T.);
#41=FACE_OUTER_BOUND('',#106,.T.);
#42=FACE_OUTER_BOUND('',#109,.T.);
#43=FACE_OUTER_BOUND('',#110,.T.);
#44=FACE_OUTER_BOUND('',#111,.T.);
#45=FACE_OUTER_BOUND('',#112,.T.);
#46=ADVANCED_FACE('',(#95,#96),#57,.F.);
#47=ADVANCED_FACE('',(#38),#58,.T.);
#48=ADVANCED_FACE('',(#39),#59,.T.);
#49=ADVANCED_FACE('',(#40),#60,.T.);
#50=ADVANCED_FACE('',(#41),#61,.T.);
#51=ADVANCED_FACE('',(#97,#98),#62,.T.);
#52=ADVANCED_FACE('',(#42),#33,.T.);
#53=ADVANCED_FACE('',(#43),#34,.T.);
#54=ADVANCED_FACE('',(#44),#35,.T.);
#55=ADVANCED_FACE('',(#45),#36,.T.);
#56=ADVANCED_FACE('',(#99,#100),#37,.F.);
#57=PLANE('',#256);
#58=PLANE('',#257);
#59=PLANE('',#258);
#60=PLANE('',#259);
#61=PLANE('',#260);
#62=PLANE('',#266);
#63=LINE('',#405,#79);
#64=LINE('',#410,#80);
#65=LINE('',#414,#81);
#66=LINE('',#418,#82);
#67=LINE('',#422,#83);
#68=LINE('',#425,#84);
#69=LINE('',#426,#85);
#70=LINE('',#428,#86);
#71=LINE('',#430,#87);
#72=LINE('',#432,#88);
#73=LINE('',#434,#89);
#74=LINE('',#436,#90);
#75=LINE('',#438,#91);
#76=LINE('',#440,#92);
#77=LINE('',#442,#93);
#78=LINE('',#444,#94);
#79=VECTOR('',#280,1.0);
#80=VECTOR('',#283,1.0);
#81=VECTOR('',#286,1.0);
#82=VECTOR('',#289,1.0);
#83=VECTOR('',#294,1.0);
#84=VECTOR('',#295,1.0);
#85=VECTOR('',#296,1.0);
#86=VECTOR('',#299,1.0);
#87=VECTOR('',#300,1.0);
#88=VECTOR('',#301,1.0);
#89=VECTOR('',#304,1.0);
#90=VECTOR('',#305,1.0);
#91=VECTOR('',#306,1.0);
#92=VECTOR('',#309,1.0);
#93=VECTOR('',#310,1.0);
#94=VECTOR('',#311,1.0);
#95=FACE_BOUND('',#101,.T.);
#96=FACE_BOUND('',#102,.T.);
#97=FACE_BOUND('',#107,.T.);
#98=FACE_BOUND('',#108,.T.);
#99=FACE_BOUND('',#113,.T.);
#100=FACE_BOUND('',#114,.T.);
#101=EDGE_LOOP('',(#115));
#102=EDGE_LOOP('',(#116,#117,#118,#119,#120,#121,#122,#123));
#103=EDGE_LOOP('',(#124,#125,#126,#127));
#104=EDGE_LOOP('',(#128,#129,#130,#131));
#105=EDGE_LOOP('',(#132,#133,#134,#135));
#106=EDGE_LOOP('',(#136,#137,#138,#139));
#107=EDGE_LOOP('',(#140));
#108=EDGE_LOOP('',(#141,#142,#143,#144,#145,#146,#147,#148));
#109=EDGE_LOOP('',(#149,#150,#151,#152));
#110=EDGE_LOOP('',(#153,#154,#155,#156));
#111=EDGE_LOOP('',(#157,#158,#159,#160));
#112=EDGE_LOOP('',(#161,#162,#163,#164));
#113=EDGE_LOOP('',(#165));
#114=EDGE_LOOP('',(#166));
#115=ORIENTED_EDGE('',*,*,#185,.T.);
#116=ORIENTED_EDGE('',*,*,#186,.T.);
#117=ORIENTED_EDGE('',*,*,#187,.T.);
#118=ORIENTED_EDGE('',*,*,#188,.T.);
#119=ORIENTED_EDGE('',*,*,#189,.T.);
#120=ORIENTED_EDGE('',*,*,#190,.T.);
#121=ORIENTED_EDGE('',*,*,#191,.T.);
#122=ORIENTED_EDGE('',*,*,#192,.T.);
#123=ORIENTED_EDGE('',*,*,#193,.T.);
#124=ORIENTED_EDGE('',*,*,#194,.F.);
#125=ORIENTED_EDGE('',*,*,#195,.T.);
#126=ORIENTED_EDGE('',*,*,#186,.F.);
#127=ORIENTED_EDGE('',*,*,#196,.T.);
#128=ORIENTED_EDGE('',*,*,#192,.F.);
#129=ORIENTED_EDGE('',*,*,#197,.T.);
#130=ORIENTED_EDGE('',*,*,#198,.F.);
#131=ORIENTED_EDGE('',*,*,#199,.T.);
#132=ORIENTED_EDGE('',*,*,#190,.F.);
#133=ORIENTED_EDGE('',*,*,#200,.T.);
#134=ORIENTED_EDGE('',*,*,#201,.F.);
#135=ORIENTED_EDGE('',*,*,#202,.T.);
#136=ORIENTED_EDGE('',*,*,#188,.F.);
#137=ORIENTED_EDGE('',*,*,#203,.T.);
#138=ORIENTED_EDGE('',*,*,#204,.F.);
#139=ORIENTED_EDGE('',*,*,#205,.T.);
#140=ORIENTED_EDGE('',*,*,#206,.F.);
#141=ORIENTED_EDGE('',*,*,#204,.T.);
#142=ORIENTED_EDGE('',*,*,#207,.T.);
#143=ORIENTED_EDGE('',*,*,#194,.T.);
#144=ORIENTED_EDGE('',*,*,#208,.T.);
#145=ORIENTED_EDGE('',*,*,#198,.T.);
#146=ORIENTED_EDGE('',*,*,#209,.T.);
#147=ORIENTED_EDGE('',*,*,#201,.T.);
#148=ORIENTED_EDGE('',*,*,#210,.T.);
#149=ORIENTED_EDGE('',*,*,#187,.F.);
#150=ORIENTED_EDGE('',*,*,#195,.F.);
#151=ORIENTED_EDGE('',*,*,#207,.F.);
#152=ORIENTED_EDGE('',*,*,#203,.F.);
#153=ORIENTED_EDGE('',*,*,#189,.F.);
#154=ORIENTED_EDGE('',*,*,#205,.F.);
#155=ORIENTED_EDGE('',*,*,#210,.F.);
#156=ORIENTED_EDGE('',*,*,#200,.F.);
#157=ORIENTED_EDGE('',*,*,#191,.F.);
#158=ORIENTED_EDGE('',*,*,#202,.F.);
#159=ORIENTED_EDGE('',*,*,#209,.F.);
#160=ORIENTED_EDGE('',*,*,#197,.F.);
#161=ORIENTED_EDGE('',*,*,#193,.F.);
#162=ORIENTED_EDGE('',*,*,#199,.F.);
#163=ORIENTED_EDGE('',*,*,#208,.F.);
#164=ORIENTED_EDGE('',*,*,#196,.F.);
#165=ORIENTED_EDGE('',*,*,#185,.F.);
#166=ORIENTED_EDGE('',*,*,#206,.T.);
#167=VERTEX_POINT('',#404);
#168=VERTEX_POINT('',#406);
#169=VERTEX_POINT('',#407);
#170=VERTEX_POINT('',#409);
#171=VERTEX_POINT('',#411);
#172=VERTEX_POINT('',#413);
#173=VERTEX_POINT('',#415);
#174=VERTEX_POINT('',#417);
#175=VERTEX_POINT('',#419);
#176=VERTEX_POINT('',#423);
#177=VERTEX_POINT('',#424);
#178=VERTEX_POINT('',#429);
#179=VERTEX_POINT('',#431);
#180=VERTEX_POINT('',#435);
#181=VERTEX_POINT('',#437);
#182=VERTEX_POINT('',#441);
#183=VERTEX_POINT('',#443);
#184=VERTEX_POINT('',#447);
#185=EDGE_CURVE('',#167,#167,#211,.T.);
#186=EDGE_CURVE('',#168,#169,#63,.T.);
#187=EDGE_CURVE('',#169,#170,#212,.T.);
#188=EDGE_CURVE('',#170,#171,#64,.T.);
#189=EDGE_CURVE('',#171,#172,#213,.T.);
#190=EDGE_CURVE('',#172,#173,#65,.T.);
#191=EDGE_CURVE('',#173,#174,#214,.T.);
#192=EDGE_CURVE('',#174,#175,#66,.T.);
#193=EDGE_CURVE('',#175,#168,#215,.T.);
#194=EDGE_CURVE('',#176,#177,#67,.T.);
#195=EDGE_CURVE('',#176,#169,#68,.T.);
#196=EDGE_CURVE('',#168,#177,#69,.T.);
#197=EDGE_CURVE('',#174,#178,#70,.T.);
#198=EDGE_CURVE('',#179,#178,#71,.T.);
#199=EDGE_CURVE('',#179,#175,#72,.T.);
#200=EDGE_CURVE('',#172,#180,#73,.T.);
#201=EDGE_CURVE('',#181,#180,#74,.T.);
#202=EDGE_CURVE('',#181,#173,#75,.T.);
#203=EDGE_CURVE('',#170,#182,#76,.T.);
#204=EDGE_CURVE('',#183,#182,#77,.T.);
#205=EDGE_CURVE('',#183,#171,#78,.T.);
#206=EDGE_CURVE('',#184,#184,#216,.T.);
#207=EDGE_CURVE('',#182,#176,#217,.T.);
#208=EDGE_CURVE('',#177,#179,#218,.T.);
#209=EDGE_CURVE('',#178,#181,#219,.T.);
#210=EDGE_CURVE('',#180,#183,#220,.T.);
#211=CIRCLE('',#251,3.9625);
#212=CIRCLE('',#252,0.79375);
#213=CIRCLE('',#253,0.79375);
#214=CIRCLE('',#254,0.79375);
#215=CIRCLE('',#255,0.79375);
#216=CIRCLE('',#261,3.9625);
#217=CIRCLE('',#262,0.79375);
#218=CIRCLE('',#263,0.79375);
#219=CIRCLE('',#264,0.79375);
#220=CIRCLE('',#265,0.79375);
#221=CURVE_STYLE('',#225,POSITIVE_LENGTH_MEASURE(0.18),#224);
#222=CURVE_STYLE('',#226,POSITIVE_LENGTH_MEASURE(0.18),#246);
#223=CURVE_STYLE('',#227,POSITIVE_LENGTH_MEASURE(0.18),#246);
#224=DRAUGHTING_PRE_DEFINED_COLOUR('blue');
#225=DRAUGHTING_PRE_DEFINED_CURVE_FONT('continuous');
#226=DRAUGHTING_PRE_DEFINED_CURVE_FONT('continuous');
#227=DRAUGHTING_PRE_DEFINED_CURVE_FONT('continuous');
#228=B_SPLINE_CURVE_WITH_KNOTS('CUTTING EDGE LINE',5,(#339,#340,#341,#342,#343,#344,
     #345,#346,#347,#348,#349,#350,#351,#352,#353,#354,#355,#356,#357,#358,#359,
     #360,#361,#362,#363,#364,#365,#366,#367,#368,#369,#370,#371,#372,#373,#374,
     #375,#376,#377,#378,#379,#380,#381,#382,#383,#384,#385,#386,#387,#388,#389,
     #390,#391,#392,#393,#394,#395,#396,#397,#398,#399,#400),.UNSPECIFIED.,.T.,.F.,
     (2,4,1,1,1,1,1,1,1,4,4,1,1,1,1,1,1,1,4,4,1,1,1,1,1,1,1,4,4,1,1,1,1,1,1,1,4,
     4,1,1),(-0.233576073,0.0,0.00182488077499998,0.00364976154999996,0.00547464232500006,
     0.00729952310000004,0.00912440387500002,0.01094928465,0.012774165425,0.0145990462,
     0.2481751192,0.250456220175,0.25273732115,0.255018422125,0.2572995231,0.259580624075,
     0.26186172505,0.264142826025,0.266423927,0.5,0.501824880775,0.50364976155,0.505474642325,
     0.5072995231,0.509124403875,0.51094928465,0.512774165425,0.5145990462,0.7481751192,
     0.750456220175,0.75273732115,0.755018422125,0.7572995231,0.759580624075,0.76186172505,
     0.764142826025,0.766423927,1.0,1.001824880775,1.00364976155),.UNSPECIFIED.);
#229=PRESENTATION_LAYER_ASSIGNMENT('1','Layer 1',(#228,#249,#250,#31));
#232=STYLED_ITEM('',(#238),#228);
#233=STYLED_ITEM('',(#239),#249);
#234=STYLED_ITEM('',(#240),#250);
#235=STYLED_ITEM('',(#241),#31);
#236=PRESENTATION_STYLE_ASSIGNMENT((#242));
#237=PRESENTATION_STYLE_ASSIGNMENT((#243));
#238=PRESENTATION_STYLE_ASSIGNMENT((#221));
#239=PRESENTATION_STYLE_ASSIGNMENT((#222));
#240=PRESENTATION_STYLE_ASSIGNMENT((#223));
#241=PRESENTATION_STYLE_ASSIGNMENT((#26));
#242=POINT_STYLE('',#244,POSITIVE_LENGTH_MEASURE(3.0),#246);
#243=POINT_STYLE('',#245,POSITIVE_LENGTH_MEASURE(3.0),#246);
#244=PRE_DEFINED_POINT_MARKER_SYMBOL('plus');
#245=PRE_DEFINED_POINT_MARKER_SYMBOL('plus');
#246=COLOUR_RGB('Medium Maroon',0.6,0.4,0.4);
#247=COLOUR_RGB('IsoInsertColor',0.8,0.8,0.8);
#248=AXIS2_PLACEMENT_3D('',#336,#272,#273);
#249=AXIS2_PLACEMENT_3D('PCS',#401,#274,#275);
#250=AXIS2_PLACEMENT_3D('MCS',#402,#276,#277);
#251=AXIS2_PLACEMENT_3D('',#403,#278,#279);
#252=AXIS2_PLACEMENT_3D('',#408,#281,#282);
#253=AXIS2_PLACEMENT_3D('',#412,#284,#285);
#254=AXIS2_PLACEMENT_3D('',#416,#287,#288);
#255=AXIS2_PLACEMENT_3D('',#420,#290,#291);
#256=AXIS2_PLACEMENT_3D('',#421,#292,#293);
#257=AXIS2_PLACEMENT_3D('',#427,#297,#298);
#258=AXIS2_PLACEMENT_3D('',#433,#302,#303);
#259=AXIS2_PLACEMENT_3D('',#439,#307,#308);
#260=AXIS2_PLACEMENT_3D('',#445,#312,#313);
#261=AXIS2_PLACEMENT_3D('',#446,#314,#315);
#262=AXIS2_PLACEMENT_3D('',#448,#316,#317);
#263=AXIS2_PLACEMENT_3D('',#449,#318,#319);
#264=AXIS2_PLACEMENT_3D('',#450,#320,#321);
#265=AXIS2_PLACEMENT_3D('',#451,#322,#323);
#266=AXIS2_PLACEMENT_3D('',#452,#324,#325);
#267=AXIS2_PLACEMENT_3D('',#453,#326,#327);
#268=AXIS2_PLACEMENT_3D('',#454,#328,#329);
#269=AXIS2_PLACEMENT_3D('',#455,#330,#331);
#270=AXIS2_PLACEMENT_3D('',#456,#332,#333);
#271=AXIS2_PLACEMENT_3D('',#457,#334,#335);
#272=DIRECTION('',(0.0,0.0,1.0));
#273=DIRECTION('',(1.0,0.0,0.0));
#274=DIRECTION('',(0.0,0.0,1.0));
#275=DIRECTION('',(1.0,0.0,0.0));
#276=DIRECTION('',(0.0,0.0,1.0));
#277=DIRECTION('',(1.0,0.0,0.0));
#278=DIRECTION('',(0.0,0.0,1.0));
#279=DIRECTION('',(-0.766044443118978,-0.64278760968654,0.0));
#280=DIRECTION('',(1.0,9.43689570931383E-16,0.0));
#281=DIRECTION('',(0.0,0.0,-1.0));
#282=DIRECTION('',(-0.766044443118977,-0.642787609686541,0.0));
#283=DIRECTION('',(-0.173648177666928,-0.984807753012209,0.0));
#284=DIRECTION('',(0.0,0.0,-1.0));
#285=DIRECTION('',(-0.766044443118977,-0.64278760968654,0.0));
#286=DIRECTION('',(-1.0,9.99200722162641E-16,0.0));
#287=DIRECTION('',(0.0,0.0,-1.0));
#288=DIRECTION('',(-0.766044443118978,-0.64278760968654,0.0));
#289=DIRECTION('',(0.17364817766693,0.984807753012208,0.0));
#290=DIRECTION('',(0.0,0.0,-1.0));
#291=DIRECTION('',(-0.766044443118978,-0.642787609686541,0.0));
#292=DIRECTION('',(0.0,0.0,1.0));
#293=DIRECTION('',(-0.766044443118978,-0.64278760968654,0.0));
#294=DIRECTION('',(-1.0,-9.43689570931383E-16,-6.88728341558126E-17));
#295=DIRECTION('',(6.88728341558128E-17,-2.57646211930159E-16,-1.0));
#296=DIRECTION('',(-6.88728341558128E-17,2.57646211930159E-16,1.0));
#297=DIRECTION('',(-9.43689570931383E-16,1.0,-2.5764621193016E-16));
#298=DIRECTION('',(-1.0,-9.43689570931383E-16,0.0));
#299=DIRECTION('',(-6.88728341558128E-17,2.57646211930159E-16,1.0));
#300=DIRECTION('',(-0.17364817766693,-0.984807753012208,2.41772344901134E-16));
#301=DIRECTION('',(6.88728341558128E-17,-2.57646211930159E-16,-1.0));
#302=DIRECTION('',(-0.984807753012208,0.17364817766693,-1.12566296233028E-16));
#303=DIRECTION('',(-0.17364817766693,-0.984807753012208,0.0));
#304=DIRECTION('',(-6.88728341558128E-17,2.57646211930159E-16,1.0));
#305=DIRECTION('',(1.0,-9.99200722162641E-16,6.88728341558131E-17));
#306=DIRECTION('',(6.88728341558128E-17,-2.57646211930159E-16,-1.0));
#307=DIRECTION('',(-9.99200722162641E-16,-1.0,2.57646211930159E-16));
#308=DIRECTION('',(1.0,-9.99200722162641E-16,0.0));
#309=DIRECTION('',(-6.88728341558128E-17,2.57646211930159E-16,1.0));
#310=DIRECTION('',(0.173648177666928,0.984807753012209,-2.41772344901134E-16));
#311=DIRECTION('',(6.88728341558128E-17,-2.57646211930159E-16,-1.0));
#312=DIRECTION('',(0.984807753012209,-0.173648177666928,1.12566296233028E-16));
#313=DIRECTION('',(0.173648177666928,0.984807753012209,0.0));
#314=DIRECTION('',(0.0,0.0,1.0));
#315=DIRECTION('',(-0.766044443118978,-0.64278760968654,0.0));
#316=DIRECTION('',(-6.88728341558128E-17,2.57646211930159E-16,1.0));
#317=DIRECTION('',(-0.642787609686541,0.766044443118977,-2.41639053379105E-16));
#318=DIRECTION('',(-6.88728341558128E-17,2.57646211930159E-16,1.0));
#319=DIRECTION('',(-0.64278760968654,0.766044443118977,-2.41639053379105E-16));
#320=DIRECTION('',(-6.88728341558128E-17,2.57646211930159E-16,1.0));
#321=DIRECTION('',(-0.64278760968654,0.766044443118978,-2.41639053379106E-16));
#322=DIRECTION('',(-6.88728341558128E-17,2.57646211930159E-16,1.0));
#323=DIRECTION('',(-0.642787609686541,0.766044443118978,-2.41639053379106E-16));
#324=DIRECTION('',(-6.88728341558128E-17,2.57646211930159E-16,1.0));
#325=DIRECTION('',(-0.64278760968654,0.766044443118978,-2.41639053379106E-16));
#326=DIRECTION('',(-6.88728341558128E-17,2.57646211930159E-16,1.0));
#327=DIRECTION('',(-0.642787609686541,0.766044443118977,-2.41639053379105E-16));
#328=DIRECTION('',(-6.88728341558128E-17,2.57646211930159E-16,1.0));
#329=DIRECTION('',(-0.642787609686541,0.766044443118978,-2.41639053379106E-16));
#330=DIRECTION('',(-6.88728341558128E-17,2.57646211930159E-16,1.0));
#331=DIRECTION('',(-0.64278760968654,0.766044443118978,-2.41639053379106E-16));
#332=DIRECTION('',(-6.88728341558128E-17,2.57646211930159E-16,1.0));
#333=DIRECTION('',(-0.64278760968654,0.766044443118977,-2.41639053379105E-16));
#334=DIRECTION('',(0.0,0.0,1.0));
#335=DIRECTION('',(-0.766044443118978,-0.64278760968654,0.0));
#336=CARTESIAN_POINT('',(0.0,0.0,0.0));
#339=CARTESIAN_POINT('',(15.1314641821654,9.59232693276135E-14,0.0));
#340=CARTESIAN_POINT('',(18.7033522574358,9.59232693276135E-14,2.06263670333251E-16));
#341=CARTESIAN_POINT('',(18.7543735239547,0.00204973987189838,2.09109933257158E-16));
#342=CARTESIAN_POINT('',(18.8353452851023,0.0116288538654921,2.11566228272596E-16));
#343=CARTESIAN_POINT('',(18.9416843250632,0.0386932046925441,2.1007370827178E-16));
#344=CARTESIAN_POINT('',(19.0727926493855,0.0975702289840257,1.99923930554883E-16));
#345=CARTESIAN_POINT('',(19.1922755941696,0.180671468108143,1.81082281998357E-16));
#346=CARTESIAN_POINT('',(19.2948623343681,0.28390881974858,1.54517472277667E-16));
#347=CARTESIAN_POINT('',(19.3756116059601,0.402801426050903,1.21348851581252E-16));
#348=CARTESIAN_POINT('',(19.4207303689889,0.50282526185128,9.18728834125171E-17));
#349=CARTESIAN_POINT('',(19.4442245534825,0.580903484315972,6.80564977456677E-17));
#350=CARTESIAN_POINT('',(19.4551029031532,0.630793689558827,5.25536565944978E-17));
#351=CARTESIAN_POINT('',(20.0753547582541,4.14841675897695,2.68048492904898E-17));
#352=CARTESIAN_POINT('',(20.6911767383784,7.64091675897694,1.78698995269932E-17));
#353=CARTESIAN_POINT('',(21.3069987185027,11.1334167589769,1.78698995269931E-17));
#354=CARTESIAN_POINT('',(21.922820698627,14.6259167589769,2.68048492904896E-17));
#355=CARTESIAN_POINT('',(22.5439219981695,18.148357267213,3.87601107282249E-17));
#356=CARTESIAN_POINT('',(22.551613667011,18.208743807848,2.69469162809749E-17));
#357=CARTESIAN_POINT('',(22.5551974512067,18.3089521113832,7.70360714570844E-18));
#358=CARTESIAN_POINT('',(22.5379612242821,18.444305363469,-1.74227811001066E-17));
#359=CARTESIAN_POINT('',(22.4763201778007,18.6168163291543,-4.78908853696055E-17));
#360=CARTESIAN_POINT('',(22.3733178030429,18.7734427167455,-7.37086086994455E-17));
#361=CARTESIAN_POINT('',(22.2369570968888,18.9020781407654,-9.28820048419098E-17));
#362=CARTESIAN_POINT('',(22.077770815793,18.9927389360629,-1.03921006179133E-16));
#363=CARTESIAN_POINT('',(21.94746692314,19.0332171515369,-1.06526526804358E-16));
#364=CARTESIAN_POINT('',(21.8481586913068,19.0470888023718,-1.05275758722733E-16));
#365=CARTESIAN_POINT('',(21.7873539136342,19.05,-1.03445800687136E-16));
#366=CARTESIAN_POINT('',(18.210574082787,19.05,-6.13520042158691E-17));
#367=CARTESIAN_POINT('',(14.664196640776,19.05,-4.09013361439127E-17));
#368=CARTESIAN_POINT('',(11.1178191987651,19.05,-4.09013361439127E-17));
#369=CARTESIAN_POINT('',(7.57144175675414,19.05,-6.13520042158692E-17));
#370=CARTESIAN_POINT('',(3.99955368148377,19.05,-1.07926860132117E-16));
#371=CARTESIAN_POINT('',(3.9485324149649,19.0479502601282,-1.18550695541402E-16));
#372=CARTESIAN_POINT('',(3.8675606538173,19.0383711461346,-1.33178899487493E-16));
#373=CARTESIAN_POINT('',(3.7612216138564,19.0113067953075,-1.47279472948954E-16));
#374=CARTESIAN_POINT('',(3.63011328953411,18.952429771016,-1.55664312578108E-16));
#375=CARTESIAN_POINT('',(3.51063034474998,18.8693285318919,-1.5291672460267E-16));
#376=CARTESIAN_POINT('',(3.40804360455154,18.7660911802515,-1.39306880847076E-16));
#377=CARTESIAN_POINT('',(3.3272943329595,18.6471985739492,-1.15316821792594E-16));
#378=CARTESIAN_POINT('',(3.28217556993073,18.5471747381488,-9.00600174718038E-17));
#379=CARTESIAN_POINT('',(3.25868138543706,18.4690965156841,-6.77369560570434E-17));
#380=CARTESIAN_POINT('',(3.24780303576639,18.4192063104413,-5.25536565944977E-17));
#381=CARTESIAN_POINT('',(2.62755118066546,14.9015832410231,-2.68048492904898E-17));
#382=CARTESIAN_POINT('',(2.01172920054115,11.4090832410232,-1.78698995269932E-17));
#383=CARTESIAN_POINT('',(1.39590722041684,7.91658324102319,-1.78698995269933E-17));
#384=CARTESIAN_POINT('',(0.780085240292536,4.42408324102322,-2.68048492904899E-17));
#385=CARTESIAN_POINT('',(0.158983940750085,0.901642732787174,-3.87601107282255E-17));
#386=CARTESIAN_POINT('',(0.1512922719086,0.84125619215208,-2.69469162809755E-17));
#387=CARTESIAN_POINT('',(0.147708487712853,0.741047888616892,-7.70360714570909E-18));
#388=CARTESIAN_POINT('',(0.164944714637501,0.605694636531148,1.74227811001059E-17));
#389=CARTESIAN_POINT('',(0.226585761118914,0.433183670845843,4.78908853696049E-17));
#390=CARTESIAN_POINT('',(0.329588135876703,0.276557283254656,7.3708608699445E-17));
#391=CARTESIAN_POINT('',(0.465948842030727,0.14792185923473,9.28820048419095E-17));
#392=CARTESIAN_POINT('',(0.625135123126581,0.0572610639372595,1.03921006179133E-16));
#393=CARTESIAN_POINT('',(0.755439015779549,0.0167828484631976,1.06526526804358E-16));
#394=CARTESIAN_POINT('',(0.854747247612817,0.00291119762831293,1.05275758722733E-16));
#395=CARTESIAN_POINT('',(0.915552025285381,1.11910480882216E-13,1.03445800687136E-16));
#396=CARTESIAN_POINT('',(4.49233185613261,1.06581410364015E-13,6.13520042158691E-17));
#397=CARTESIAN_POINT('',(8.03870929814355,1.03028696685215E-13,3.06760021079345E-17));
#398=CARTESIAN_POINT('',(11.5850867401545,9.9475983006414E-14,1.02253340359782E-17));
#399=CARTESIAN_POINT('',(15.1314641821654,9.59232693276135E-14,0.0));
#400=CARTESIAN_POINT('',(18.7033522574358,9.59232693276135E-14,2.06263670333251E-16));
#401=CARTESIAN_POINT('',(0.0,0.0,0.0));
#402=CARTESIAN_POINT('',(11.3514529694598,9.525,0.0));
#403=CARTESIAN_POINT('',(11.3514529694598,9.525,-6.35));
#404=CARTESIAN_POINT('',(8.31600186360089,6.97795409661709,-6.35));
#405=CARTESIAN_POINT('',(11.3514529694598,19.05,-6.35));
#406=CARTESIAN_POINT('',(4.0250643147432,19.05,-6.35));
#407=CARTESIAN_POINT('',(21.7569515247979,19.05,-6.35));
#408=CARTESIAN_POINT('',(21.7569515247979,18.25625,-6.35));
#409=CARTESIAN_POINT('',(22.5386426787513,18.1184167589769,-6.35));
#410=CARTESIAN_POINT('',(20.731746816901,7.87100110772257,-6.35));
#411=CARTESIAN_POINT('',(19.4595327781298,0.655916758976968,-6.35));
#412=CARTESIAN_POINT('',(18.6778416241764,0.793750000000093,-6.35));
#413=CARTESIAN_POINT('',(18.6778416241764,9.0205620750794E-14,-6.35));
#414=CARTESIAN_POINT('',(11.3514529694598,9.8879238130678E-14,-6.35));
#415=CARTESIAN_POINT('',(0.945954414121666,1.11022302462516E-13,-6.35));
#416=CARTESIAN_POINT('',(0.945954414121668,0.793750000000112,-6.35));
#417=CARTESIAN_POINT('',(0.16426326016823,0.931583241023239,-6.35));
#418=CARTESIAN_POINT('',(1.97115912201856,11.1789988922775,-6.35));
#419=CARTESIAN_POINT('',(3.24337316078976,18.3940832410231,-6.35));
#420=CARTESIAN_POINT('',(4.0250643147432,18.25625,-6.35));
#421=CARTESIAN_POINT('',(11.3052316569227,8.99668798019793,-6.35));
#422=CARTESIAN_POINT('',(11.3514529694598,19.05,-5.38749756651153E-15));
#423=CARTESIAN_POINT('',(21.7569515247979,19.05,-4.67084139020118E-15));
#424=CARTESIAN_POINT('',(4.0250643147432,19.05,-5.89208671728885E-15));
#425=CARTESIAN_POINT('',(21.7569515247979,19.05,-4.33680868994202E-15));
#426=CARTESIAN_POINT('',(4.0250643147432,19.05,-5.20417042793042E-15));
#427=CARTESIAN_POINT('',(11.3514529694598,19.05,-5.38749756651153E-15));
#428=CARTESIAN_POINT('',(0.164263260168229,0.931583241023241,-8.67361737988404E-16));
#429=CARTESIAN_POINT('',(0.164263260168229,0.931583241023241,-1.48984958390691E-15));
#430=CARTESIAN_POINT('',(1.97115912201856,11.1789988922775,-4.00561136949636E-15));
#431=CARTESIAN_POINT('',(3.24337316078976,18.3940832410231,-5.77692953420426E-15));
#432=CARTESIAN_POINT('',(3.24337316078976,18.3940832410231,-5.20417042793042E-15));
#433=CARTESIAN_POINT('',(1.97115912201856,11.1789988922775,-4.00561136949636E-15));
#434=CARTESIAN_POINT('',(18.6778416241764,9.19403442267708E-14,9.62964972193618E-31));
#435=CARTESIAN_POINT('',(18.6778416241764,9.19403442267708E-14,2.52519215353056E-17));
#436=CARTESIAN_POINT('',(11.3514529694598,1.00613961606655E-13,-4.79337229242019E-16));
#437=CARTESIAN_POINT('',(0.945954414121665,1.12757025938492E-13,-1.19599340555238E-15));
#438=CARTESIAN_POINT('',(0.945954414121665,1.12757025938492E-13,-8.67361737988403E-16));
#439=CARTESIAN_POINT('',(11.3514529694598,1.00613961606655E-13,-4.79337229242023E-16));
#440=CARTESIAN_POINT('',(22.5386426787513,18.1184167589769,-4.33680868994202E-15));
#441=CARTESIAN_POINT('',(22.5386426787513,18.1184167589769,-4.37698521184665E-15));
#442=CARTESIAN_POINT('',(20.731746816901,7.87100110772254,-1.86122342625718E-15));
#443=CARTESIAN_POINT('',(19.4595327781298,0.655916758976969,-8.99052615492926E-17));
#444=CARTESIAN_POINT('',(19.4595327781298,0.655916758976969,7.70371977754894E-31));
#445=CARTESIAN_POINT('',(20.731746816901,7.87100110772257,-1.86122342625719E-15));
#446=CARTESIAN_POINT('',(11.3514529694598,9.525,-6.93889390390723E-15));
#447=CARTESIAN_POINT('',(8.31600186360089,6.97795409661709,-6.93889390390723E-15));
#448=CARTESIAN_POINT('',(21.7569515247979,18.25625,-4.46633470948162E-15));
#449=CARTESIAN_POINT('',(4.0250643147432,18.25625,-5.68758003656929E-15));
#450=CARTESIAN_POINT('',(0.945954414121668,0.793750000000114,-1.40050008627194E-15));
#451=CARTESIAN_POINT('',(18.6778416241764,0.793750000000095,-1.7925475918426E-16));
#452=CARTESIAN_POINT('',(11.3514529694598,9.525,-2.93341739787676E-15));
#453=CARTESIAN_POINT('',(21.7569515247979,18.25625,-4.33680868994202E-15));
#454=CARTESIAN_POINT('',(18.6778416241764,0.793750000000095,0.0));
#455=CARTESIAN_POINT('',(0.945954414121668,0.793750000000114,-8.67361737988404E-16));
#456=CARTESIAN_POINT('',(4.0250643147432,18.25625,-5.20417042793042E-15));
#457=CARTESIAN_POINT('',(11.3514529694598,9.525,-33.3676978394524));
#458=MECHANICAL_DESIGN_GEOMETRIC_PRESENTATION_REPRESENTATION('',(#232,#233,#234,
     #235),#459);
#459=(GEOMETRIC_REPRESENTATION_CONTEXT(3)GLOBAL_UNCERTAINTY_ASSIGNED_CONTEXT((#460))
     GLOBAL_UNIT_ASSIGNED_CONTEXT((#466,#462,#461))REPRESENTATION_CONTEXT('CNMG190608',
     'TOP_LEVEL_ASSEMBLY_PART'));
#460=UNCERTAINTY_MEASURE_WITH_UNIT(LENGTH_MEASURE(2.0E-5),#466,'DISTANCE_ACCURACY_VALUE',
     'Maximum Tolerance applied to model');
#461=(NAMED_UNIT(*)SI_UNIT($,.STERADIAN.)SOLID_ANGLE_UNIT());
#462=(CONVERSION_BASED_UNIT('DEGREE',#464)NAMED_UNIT(#463)PLANE_ANGLE_UNIT());
#463=DIMENSIONAL_EXPONENTS(0.0,0.0,0.0,0.0,0.0,0.0,0.0);
#464=PLANE_ANGLE_MEASURE_WITH_UNIT(PLANE_ANGLE_MEASURE(0.0174532925),#465);
#465=(NAMED_UNIT(*)PLANE_ANGLE_UNIT()SI_UNIT($,.RADIAN.));
#466=(LENGTH_UNIT()NAMED_UNIT(*)SI_UNIT(.MILLI.,.METRE.));
#467=CONSTRUCTIVE_GEOMETRY_REPRESENTATION('supplemental geometry',(#249,#250),#459);
#468=CONSTRUCTIVE_GEOMETRY_REPRESENTATION_RELATIONSHIP('supplemental geometry','contains PCS and MCS coordinate systems',
     #24,#467);
ENDSEC;
END-ISO-10303-21;
