ISO-10303-21;
HEADER;
FILE_DESCRIPTION(
/* description */ (''),
/* implementation_level */ '2;1');
FILE_NAME(
/* name */ 'CNMG160624.stp',
/* time_stamp */ '2017-03-21T10:53:57',
/* author */ ('Sandvik Coromant R&D'),
/* organization */ ('Sandvik Machining Solutions'),
/* preprocessor_version */ 'ST-DEVELOPER v15',
/* originating_system */ 'SIEMENS PLM Software NX v8.5.3.3(64 bits)',
/* authorization */ '');
FILE_SCHEMA(('AUTOMOTIVE_DESIGN'));
ENDSEC;
DATA;
#10=GEOMETRICALLY_BOUNDED_WIREFRAME_SHAPE_REPRESENTATION('IsoTurningInsert-None',
     (#25),#475);
#11=SHAPE_REPRESENTATION_RELATIONSHIP('None','relationship between IsoTurningInsert-None and IsoTurningInsert-None',
     #24,#13);
#12=SHAPE_REPRESENTATION_RELATIONSHIP('None','relationship between IsoTurningInsert-None and IsoTurningInsert-None',
     #24,#10);
#13=ADVANCED_BREP_SHAPE_REPRESENTATION('IsoTurningInsert-None',(#31),#475);
#14=SHAPE_DEFINITION_REPRESENTATION(#15,#24);
#15=PRODUCT_DEFINITION_SHAPE('','',#16);
#16=PRODUCT_DEFINITION(' ','',#18,#17);
#17=PRODUCT_DEFINITION_CONTEXT('part definition',#23,'design');
#18=PRODUCT_DEFINITION_FORMATION_WITH_SPECIFIED_SOURCE(' ',' ',#20,.NOT_KNOWN.);
#19=PRODUCT_RELATED_PRODUCT_CATEGORY('part','',(#20));
#20=PRODUCT('IsoTurningInsert','IsoTurningInsert',' ',(#21));
#21=PRODUCT_CONTEXT(' ',#23,'mechanical');
#22=APPLICATION_PROTOCOL_DEFINITION('international standard','automotive_design',
     2010,#23);
#23=APPLICATION_CONTEXT('core data for automotive mechanical design processes');
#24=SHAPE_REPRESENTATION('IsoTurningInsert-None',(#248),#475);
#25=GEOMETRIC_CURVE_SET('geometric curve set',(#228));
#26=SURFACE_STYLE_USAGE(.BOTH.,#27);
#27=SURFACE_SIDE_STYLE('',(#28));
#28=SURFACE_STYLE_FILL_AREA(#29);
#29=FILL_AREA_STYLE('',(#30));
#30=FILL_AREA_STYLE_COLOUR('',#247);
#31=MANIFOLD_SOLID_BREP('CUT',#32);
#32=CLOSED_SHELL('',(#46,#47,#48,#49,#50,#51,#52,#53,#54,#55,#56));
#33=CYLINDRICAL_SURFACE('',#267,2.38125);
#34=CYLINDRICAL_SURFACE('',#268,2.38125);
#35=CYLINDRICAL_SURFACE('',#269,2.38125);
#36=CYLINDRICAL_SURFACE('',#270,2.38125);
#37=CYLINDRICAL_SURFACE('',#271,3.17499999999999);
#38=FACE_OUTER_BOUND('',#103,.T.);
#39=FACE_OUTER_BOUND('',#104,.T.);
#40=FACE_OUTER_BOUND('',#105,.T.);
#41=FACE_OUTER_BOUND('',#106,.T.);
#42=FACE_OUTER_BOUND('',#109,.T.);
#43=FACE_OUTER_BOUND('',#110,.T.);
#44=FACE_OUTER_BOUND('',#111,.T.);
#45=FACE_OUTER_BOUND('',#112,.T.);
#46=ADVANCED_FACE('',(#95,#96),#57,.F.);
#47=ADVANCED_FACE('',(#38),#58,.T.);
#48=ADVANCED_FACE('',(#39),#59,.T.);
#49=ADVANCED_FACE('',(#40),#60,.T.);
#50=ADVANCED_FACE('',(#41),#61,.T.);
#51=ADVANCED_FACE('',(#97,#98),#62,.T.);
#52=ADVANCED_FACE('',(#42),#33,.T.);
#53=ADVANCED_FACE('',(#43),#34,.T.);
#54=ADVANCED_FACE('',(#44),#35,.T.);
#55=ADVANCED_FACE('',(#45),#36,.T.);
#56=ADVANCED_FACE('',(#99,#100),#37,.F.);
#57=PLANE('',#256);
#58=PLANE('',#257);
#59=PLANE('',#258);
#60=PLANE('',#259);
#61=PLANE('',#260);
#62=PLANE('',#266);
#63=LINE('',#421,#79);
#64=LINE('',#426,#80);
#65=LINE('',#430,#81);
#66=LINE('',#434,#82);
#67=LINE('',#438,#83);
#68=LINE('',#441,#84);
#69=LINE('',#442,#85);
#70=LINE('',#444,#86);
#71=LINE('',#446,#87);
#72=LINE('',#448,#88);
#73=LINE('',#450,#89);
#74=LINE('',#452,#90);
#75=LINE('',#454,#91);
#76=LINE('',#456,#92);
#77=LINE('',#458,#93);
#78=LINE('',#460,#94);
#79=VECTOR('',#280,1.0);
#80=VECTOR('',#283,1.0);
#81=VECTOR('',#286,1.0);
#82=VECTOR('',#289,1.0);
#83=VECTOR('',#294,1.0);
#84=VECTOR('',#295,1.0);
#85=VECTOR('',#296,1.0);
#86=VECTOR('',#299,1.0);
#87=VECTOR('',#300,1.0);
#88=VECTOR('',#301,1.0);
#89=VECTOR('',#304,1.0);
#90=VECTOR('',#305,1.0);
#91=VECTOR('',#306,1.0);
#92=VECTOR('',#309,1.0);
#93=VECTOR('',#310,1.0);
#94=VECTOR('',#311,1.0);
#95=FACE_BOUND('',#101,.T.);
#96=FACE_BOUND('',#102,.T.);
#97=FACE_BOUND('',#107,.T.);
#98=FACE_BOUND('',#108,.T.);
#99=FACE_BOUND('',#113,.T.);
#100=FACE_BOUND('',#114,.T.);
#101=EDGE_LOOP('',(#115));
#102=EDGE_LOOP('',(#116,#117,#118,#119,#120,#121,#122,#123));
#103=EDGE_LOOP('',(#124,#125,#126,#127));
#104=EDGE_LOOP('',(#128,#129,#130,#131));
#105=EDGE_LOOP('',(#132,#133,#134,#135));
#106=EDGE_LOOP('',(#136,#137,#138,#139));
#107=EDGE_LOOP('',(#140));
#108=EDGE_LOOP('',(#141,#142,#143,#144,#145,#146,#147,#148));
#109=EDGE_LOOP('',(#149,#150,#151,#152));
#110=EDGE_LOOP('',(#153,#154,#155,#156));
#111=EDGE_LOOP('',(#157,#158,#159,#160));
#112=EDGE_LOOP('',(#161,#162,#163,#164));
#113=EDGE_LOOP('',(#165));
#114=EDGE_LOOP('',(#166));
#115=ORIENTED_EDGE('',*,*,#185,.T.);
#116=ORIENTED_EDGE('',*,*,#186,.T.);
#117=ORIENTED_EDGE('',*,*,#187,.T.);
#118=ORIENTED_EDGE('',*,*,#188,.T.);
#119=ORIENTED_EDGE('',*,*,#189,.T.);
#120=ORIENTED_EDGE('',*,*,#190,.T.);
#121=ORIENTED_EDGE('',*,*,#191,.T.);
#122=ORIENTED_EDGE('',*,*,#192,.T.);
#123=ORIENTED_EDGE('',*,*,#193,.T.);
#124=ORIENTED_EDGE('',*,*,#194,.F.);
#125=ORIENTED_EDGE('',*,*,#195,.T.);
#126=ORIENTED_EDGE('',*,*,#186,.F.);
#127=ORIENTED_EDGE('',*,*,#196,.T.);
#128=ORIENTED_EDGE('',*,*,#192,.F.);
#129=ORIENTED_EDGE('',*,*,#197,.T.);
#130=ORIENTED_EDGE('',*,*,#198,.F.);
#131=ORIENTED_EDGE('',*,*,#199,.T.);
#132=ORIENTED_EDGE('',*,*,#190,.F.);
#133=ORIENTED_EDGE('',*,*,#200,.T.);
#134=ORIENTED_EDGE('',*,*,#201,.F.);
#135=ORIENTED_EDGE('',*,*,#202,.T.);
#136=ORIENTED_EDGE('',*,*,#188,.F.);
#137=ORIENTED_EDGE('',*,*,#203,.T.);
#138=ORIENTED_EDGE('',*,*,#204,.F.);
#139=ORIENTED_EDGE('',*,*,#205,.T.);
#140=ORIENTED_EDGE('',*,*,#206,.F.);
#141=ORIENTED_EDGE('',*,*,#204,.T.);
#142=ORIENTED_EDGE('',*,*,#207,.T.);
#143=ORIENTED_EDGE('',*,*,#194,.T.);
#144=ORIENTED_EDGE('',*,*,#208,.T.);
#145=ORIENTED_EDGE('',*,*,#198,.T.);
#146=ORIENTED_EDGE('',*,*,#209,.T.);
#147=ORIENTED_EDGE('',*,*,#201,.T.);
#148=ORIENTED_EDGE('',*,*,#210,.T.);
#149=ORIENTED_EDGE('',*,*,#187,.F.);
#150=ORIENTED_EDGE('',*,*,#195,.F.);
#151=ORIENTED_EDGE('',*,*,#207,.F.);
#152=ORIENTED_EDGE('',*,*,#203,.F.);
#153=ORIENTED_EDGE('',*,*,#189,.F.);
#154=ORIENTED_EDGE('',*,*,#205,.F.);
#155=ORIENTED_EDGE('',*,*,#210,.F.);
#156=ORIENTED_EDGE('',*,*,#200,.F.);
#157=ORIENTED_EDGE('',*,*,#191,.F.);
#158=ORIENTED_EDGE('',*,*,#202,.F.);
#159=ORIENTED_EDGE('',*,*,#209,.F.);
#160=ORIENTED_EDGE('',*,*,#197,.F.);
#161=ORIENTED_EDGE('',*,*,#193,.F.);
#162=ORIENTED_EDGE('',*,*,#199,.F.);
#163=ORIENTED_EDGE('',*,*,#208,.F.);
#164=ORIENTED_EDGE('',*,*,#196,.F.);
#165=ORIENTED_EDGE('',*,*,#185,.F.);
#166=ORIENTED_EDGE('',*,*,#206,.T.);
#167=VERTEX_POINT('',#420);
#168=VERTEX_POINT('',#422);
#169=VERTEX_POINT('',#423);
#170=VERTEX_POINT('',#425);
#171=VERTEX_POINT('',#427);
#172=VERTEX_POINT('',#429);
#173=VERTEX_POINT('',#431);
#174=VERTEX_POINT('',#433);
#175=VERTEX_POINT('',#435);
#176=VERTEX_POINT('',#439);
#177=VERTEX_POINT('',#440);
#178=VERTEX_POINT('',#445);
#179=VERTEX_POINT('',#447);
#180=VERTEX_POINT('',#451);
#181=VERTEX_POINT('',#453);
#182=VERTEX_POINT('',#457);
#183=VERTEX_POINT('',#459);
#184=VERTEX_POINT('',#463);
#185=EDGE_CURVE('',#167,#167,#211,.T.);
#186=EDGE_CURVE('',#168,#169,#63,.T.);
#187=EDGE_CURVE('',#169,#170,#212,.T.);
#188=EDGE_CURVE('',#170,#171,#64,.T.);
#189=EDGE_CURVE('',#171,#172,#213,.T.);
#190=EDGE_CURVE('',#172,#173,#65,.T.);
#191=EDGE_CURVE('',#173,#174,#214,.T.);
#192=EDGE_CURVE('',#174,#175,#66,.T.);
#193=EDGE_CURVE('',#175,#168,#215,.T.);
#194=EDGE_CURVE('',#176,#177,#67,.T.);
#195=EDGE_CURVE('',#176,#169,#68,.T.);
#196=EDGE_CURVE('',#168,#177,#69,.T.);
#197=EDGE_CURVE('',#174,#178,#70,.T.);
#198=EDGE_CURVE('',#179,#178,#71,.T.);
#199=EDGE_CURVE('',#179,#175,#72,.T.);
#200=EDGE_CURVE('',#172,#180,#73,.T.);
#201=EDGE_CURVE('',#181,#180,#74,.T.);
#202=EDGE_CURVE('',#181,#173,#75,.T.);
#203=EDGE_CURVE('',#170,#182,#76,.T.);
#204=EDGE_CURVE('',#183,#182,#77,.T.);
#205=EDGE_CURVE('',#183,#171,#78,.T.);
#206=EDGE_CURVE('',#184,#184,#216,.T.);
#207=EDGE_CURVE('',#182,#176,#217,.T.);
#208=EDGE_CURVE('',#177,#179,#218,.T.);
#209=EDGE_CURVE('',#178,#181,#219,.T.);
#210=EDGE_CURVE('',#180,#183,#220,.T.);
#211=CIRCLE('',#251,3.17499999999999);
#212=CIRCLE('',#252,2.38125);
#213=CIRCLE('',#253,2.38125);
#214=CIRCLE('',#254,2.38125);
#215=CIRCLE('',#255,2.38125);
#216=CIRCLE('',#261,3.17499999999999);
#217=CIRCLE('',#262,2.38125);
#218=CIRCLE('',#263,2.38125);
#219=CIRCLE('',#264,2.38125);
#220=CIRCLE('',#265,2.38125);
#221=CURVE_STYLE('',#225,POSITIVE_LENGTH_MEASURE(0.18),#224);
#222=CURVE_STYLE('',#226,POSITIVE_LENGTH_MEASURE(0.18),#246);
#223=CURVE_STYLE('',#227,POSITIVE_LENGTH_MEASURE(0.18),#246);
#224=DRAUGHTING_PRE_DEFINED_COLOUR('blue');
#225=DRAUGHTING_PRE_DEFINED_CURVE_FONT('continuous');
#226=DRAUGHTING_PRE_DEFINED_CURVE_FONT('continuous');
#227=DRAUGHTING_PRE_DEFINED_CURVE_FONT('continuous');
#228=B_SPLINE_CURVE_WITH_KNOTS('CUTTING EDGE LINE',5,(#339,#340,#341,#342,#343,#344,
     #345,#346,#347,#348,#349,#350,#351,#352,#353,#354,#355,#356,#357,#358,#359,
     #360,#361,#362,#363,#364,#365,#366,#367,#368,#369,#370,#371,#372,#373,#374,
     #375,#376,#377,#378,#379,#380,#381,#382,#383,#384,#385,#386,#387,#388,#389,
     #390,#391,#392,#393,#394,#395,#396,#397,#398,#399,#400,#401,#402,#403,#404,
     #405,#406,#407,#408,#409,#410,#411,#412,#413,#414,#415,#416),.UNSPECIFIED.,
     .T.,.F.,(2,4,1,1,1,1,1,1,1,4,4,1,1,1,1,1,1,1,1,1,1,1,1,1,1,1,4,4,1,1,1,1,1,
     1,1,4,4,1,1,1,1,1,1,1,1,1,1,1,1,1,1,1,4,4,1,1),(-0.1877602102,0.0,0.00691553219999996,
     0.0138310644,0.0207465966,0.0276621288,0.034577661,0.0414931932,0.0484087254000001,
     0.0553242576,0.2430844677,0.24740667533125,0.2517288829625,0.25605109059375,
     0.260373298225,0.26469550585625,0.2690177134875,0.27333992111875,0.27766212875,
     0.28198433638125,0.2863065440125,0.29062875164375,0.294950959275,0.29927316690625,
     0.3035953745375,0.305756478353125,0.3122397898,0.5,0.5069155322,0.5138310644,
     0.5207465966,0.5276621288,0.534577661,0.5414931932,0.5484087254,0.5553242576,
     0.7430844677,0.74740667533125,0.7517288829625,0.75605109059375,0.760373298225,
     0.76469550585625,0.7690177134875,0.77333992111875,0.77766212875,0.78198433638125,
     0.7863065440125,0.79062875164375,0.794950959275,0.79927316690625,0.8035953745375,
     0.805756478353125,0.8122397898,1.0,1.0069155322,1.0138310644),.UNSPECIFIED.);
#229=PRESENTATION_LAYER_ASSIGNMENT('1','Layer 1',(#228,#249,#250,#31));
#232=STYLED_ITEM('',(#238),#228);
#233=STYLED_ITEM('',(#239),#249);
#234=STYLED_ITEM('',(#240),#250);
#235=STYLED_ITEM('',(#241),#31);
#236=PRESENTATION_STYLE_ASSIGNMENT((#242));
#237=PRESENTATION_STYLE_ASSIGNMENT((#243));
#238=PRESENTATION_STYLE_ASSIGNMENT((#221));
#239=PRESENTATION_STYLE_ASSIGNMENT((#222));
#240=PRESENTATION_STYLE_ASSIGNMENT((#223));
#241=PRESENTATION_STYLE_ASSIGNMENT((#26));
#242=POINT_STYLE('',#244,POSITIVE_LENGTH_MEASURE(3.0),#246);
#243=POINT_STYLE('',#245,POSITIVE_LENGTH_MEASURE(3.0),#246);
#244=PRE_DEFINED_POINT_MARKER_SYMBOL('plus');
#245=PRE_DEFINED_POINT_MARKER_SYMBOL('plus');
#246=COLOUR_RGB('Medium Maroon',0.6,0.4,0.4);
#247=COLOUR_RGB('IsoInsertColor',0.8,0.8,0.8);
#248=AXIS2_PLACEMENT_3D('',#336,#272,#273);
#249=AXIS2_PLACEMENT_3D('PCS',#417,#274,#275);
#250=AXIS2_PLACEMENT_3D('MCS',#418,#276,#277);
#251=AXIS2_PLACEMENT_3D('',#419,#278,#279);
#252=AXIS2_PLACEMENT_3D('',#424,#281,#282);
#253=AXIS2_PLACEMENT_3D('',#428,#284,#285);
#254=AXIS2_PLACEMENT_3D('',#432,#287,#288);
#255=AXIS2_PLACEMENT_3D('',#436,#290,#291);
#256=AXIS2_PLACEMENT_3D('',#437,#292,#293);
#257=AXIS2_PLACEMENT_3D('',#443,#297,#298);
#258=AXIS2_PLACEMENT_3D('',#449,#302,#303);
#259=AXIS2_PLACEMENT_3D('',#455,#307,#308);
#260=AXIS2_PLACEMENT_3D('',#461,#312,#313);
#261=AXIS2_PLACEMENT_3D('',#462,#314,#315);
#262=AXIS2_PLACEMENT_3D('',#464,#316,#317);
#263=AXIS2_PLACEMENT_3D('',#465,#318,#319);
#264=AXIS2_PLACEMENT_3D('',#466,#320,#321);
#265=AXIS2_PLACEMENT_3D('',#467,#322,#323);
#266=AXIS2_PLACEMENT_3D('',#468,#324,#325);
#267=AXIS2_PLACEMENT_3D('',#469,#326,#327);
#268=AXIS2_PLACEMENT_3D('',#470,#328,#329);
#269=AXIS2_PLACEMENT_3D('',#471,#330,#331);
#270=AXIS2_PLACEMENT_3D('',#472,#332,#333);
#271=AXIS2_PLACEMENT_3D('',#473,#334,#335);
#272=DIRECTION('',(0.0,0.0,1.0));
#273=DIRECTION('',(1.0,0.0,0.0));
#274=DIRECTION('',(0.0,0.0,1.0));
#275=DIRECTION('',(1.0,0.0,0.0));
#276=DIRECTION('',(0.0,0.0,1.0));
#277=DIRECTION('',(1.0,0.0,0.0));
#278=DIRECTION('',(0.0,0.0,1.0));
#279=DIRECTION('',(-0.766044443118978,-0.642787609686539,0.0));
#280=DIRECTION('',(1.0,7.21644966006352E-16,0.0));
#281=DIRECTION('',(0.0,0.0,-1.0));
#282=DIRECTION('',(-0.766044443118978,-0.64278760968654,0.0));
#283=DIRECTION('',(-0.173648177666928,-0.984807753012209,0.0));
#284=DIRECTION('',(0.0,0.0,-1.0));
#285=DIRECTION('',(-0.766044443118978,-0.642787609686539,0.0));
#286=DIRECTION('',(-1.0,1.0547118733939E-15,0.0));
#287=DIRECTION('',(0.0,0.0,-1.0));
#288=DIRECTION('',(-0.766044443118978,-0.642787609686539,0.0));
#289=DIRECTION('',(0.17364817766693,0.984807753012208,0.0));
#290=DIRECTION('',(0.0,0.0,-1.0));
#291=DIRECTION('',(-0.766044443118978,-0.64278760968654,0.0));
#292=DIRECTION('',(0.0,0.0,1.0));
#293=DIRECTION('',(-0.766044443118978,-0.642787609686539,0.0));
#294=DIRECTION('',(-1.0,-7.21644966006352E-16,-8.26474009869751E-17));
#295=DIRECTION('',(8.26474009869754E-17,-3.09175454316191E-16,-1.0));
#296=DIRECTION('',(-8.26474009869754E-17,3.09175454316191E-16,1.0));
#297=DIRECTION('',(-8.32667268468867E-16,1.0,-3.09175454316192E-16));
#298=DIRECTION('',(-1.0,-7.21644966006352E-16,0.0));
#299=DIRECTION('',(-8.26474009869754E-17,3.09175454316191E-16,1.0));
#300=DIRECTION('',(-0.17364817766693,-0.984807753012208,2.90126813881361E-16));
#301=DIRECTION('',(8.26474009869754E-17,-3.09175454316191E-16,-1.0));
#302=DIRECTION('',(-0.984807753012208,0.17364817766693,-1.35079555479634E-16));
#303=DIRECTION('',(-0.17364817766693,-0.984807753012208,0.0));
#304=DIRECTION('',(-8.26474009869754E-17,3.09175454316191E-16,1.0));
#305=DIRECTION('',(1.0,-1.0547118733939E-15,8.26474009869757E-17));
#306=DIRECTION('',(8.26474009869754E-17,-3.09175454316191E-16,-1.0));
#307=DIRECTION('',(-1.0547118733939E-15,-1.0,3.09175454316191E-16));
#308=DIRECTION('',(1.0,-1.0547118733939E-15,0.0));
#309=DIRECTION('',(-8.26474009869754E-17,3.09175454316191E-16,1.0));
#310=DIRECTION('',(0.173648177666928,0.984807753012209,-2.90126813881361E-16));
#311=DIRECTION('',(8.26474009869754E-17,-3.09175454316191E-16,-1.0));
#312=DIRECTION('',(0.984807753012209,-0.173648177666928,1.35079555479633E-16));
#313=DIRECTION('',(0.173648177666928,0.984807753012209,0.0));
#314=DIRECTION('',(0.0,0.0,1.0));
#315=DIRECTION('',(-0.766044443118978,-0.642787609686539,0.0));
#316=DIRECTION('',(-8.26474009869754E-17,3.09175454316191E-16,1.0));
#317=DIRECTION('',(-0.64278760968654,0.766044443118978,-2.89966864054927E-16));
#318=DIRECTION('',(-8.26474009869754E-17,3.09175454316191E-16,1.0));
#319=DIRECTION('',(-0.642787609686539,0.766044443118978,-2.89966864054927E-16));
#320=DIRECTION('',(-8.26474009869754E-17,3.09175454316191E-16,1.0));
#321=DIRECTION('',(-0.642787609686539,0.766044443118978,-2.89966864054927E-16));
#322=DIRECTION('',(-8.26474009869754E-17,3.09175454316191E-16,1.0));
#323=DIRECTION('',(-0.64278760968654,0.766044443118978,-2.89966864054927E-16));
#324=DIRECTION('',(-8.26474009869754E-17,3.09175454316191E-16,1.0));
#325=DIRECTION('',(-0.642787609686539,0.766044443118978,-2.89966864054927E-16));
#326=DIRECTION('',(-8.26474009869754E-17,3.09175454316191E-16,1.0));
#327=DIRECTION('',(-0.64278760968654,0.766044443118978,-2.89966864054927E-16));
#328=DIRECTION('',(-8.26474009869754E-17,3.09175454316191E-16,1.0));
#329=DIRECTION('',(-0.64278760968654,0.766044443118978,-2.89966864054927E-16));
#330=DIRECTION('',(-8.26474009869754E-17,3.09175454316191E-16,1.0));
#331=DIRECTION('',(-0.642787609686539,0.766044443118978,-2.89966864054927E-16));
#332=DIRECTION('',(-8.26474009869754E-17,3.09175454316191E-16,1.0));
#333=DIRECTION('',(-0.642787609686539,0.766044443118978,-2.89966864054927E-16));
#334=DIRECTION('',(0.0,0.0,1.0));
#335=DIRECTION('',(-0.766044443118978,-0.642787609686539,0.0));
#336=CARTESIAN_POINT('',(0.0,0.0,0.0));
#339=CARTESIAN_POINT('',(11.8650058220292,8.79296635503124E-14,0.0));
#340=CARTESIAN_POINT('',(14.1983233667235,8.43769498715119E-14,7.42549213199703E-16));
#341=CARTESIAN_POINT('',(14.3513871662801,0.00614921961548998,7.52795759725767E-16));
#342=CARTESIAN_POINT('',(14.5943024497229,0.0348865615962826,7.61638421781347E-16));
#343=CARTESIAN_POINT('',(14.9133195696056,0.116079614077419,7.56265349778407E-16));
#344=CARTESIAN_POINT('',(15.3066445425725,0.292710686951899,7.1972614999758E-16));
#345=CARTESIAN_POINT('',(15.6650933769249,0.542014404324219,6.51896215194086E-16));
#346=CARTESIAN_POINT('',(15.9728535975202,0.851726459245549,5.56262900199601E-16));
#347=CARTESIAN_POINT('',(16.2151014122963,1.20840427815251,4.36855865692509E-16));
#348=CARTESIAN_POINT('',(16.3504577013827,1.50847578555365,3.30742380285062E-16));
#349=CARTESIAN_POINT('',(16.4209402548637,1.74271045294772,2.45003391884404E-16));
#350=CARTESIAN_POINT('',(16.4535753038757,1.89238106867628,1.89193163740192E-16));
#351=CARTESIAN_POINT('',(16.8587516434301,4.19025027693069,9.64974574457631E-17));
#352=CARTESIAN_POINT('',(17.2506383580547,6.41275027693068,6.43316382971754E-17));
#353=CARTESIAN_POINT('',(17.6425250726792,8.63525027693066,6.43316382971754E-17));
#354=CARTESIAN_POINT('',(18.0344117873038,10.8577502769306,9.64974574457631E-17));
#355=CARTESIAN_POINT('',(18.4342174810555,13.1251610392847,1.50182747182275E-16));
#356=CARTESIAN_POINT('',(18.4479052118139,13.2153617071151,1.28904523619086E-16));
#357=CARTESIAN_POINT('',(18.4627891544065,13.3580384062404,9.55657688538407E-17));
#358=CARTESIAN_POINT('',(18.4681386398103,13.5513754807555,5.10868873418882E-17));
#359=CARTESIAN_POINT('',(18.4492119715281,13.8037228278529,-5.74836453314268E-18));
#360=CARTESIAN_POINT('',(18.4017181792354,14.0598179807611,-6.20963792499993E-17));
#361=CARTESIAN_POINT('',(18.3242028624947,14.3159125252745,-1.17031228583523E-16));
#362=CARTESIAN_POINT('',(18.2160303747994,14.5664555921468,-1.6925319752531E-16));
#363=CARTESIAN_POINT('',(18.0778607627277,14.8061335570056,-2.17577826875571E-16));
#364=CARTESIAN_POINT('',(17.9115990067027,15.0296156135486,-2.60875322388394E-16));
#365=CARTESIAN_POINT('',(17.7203814899239,15.2321596788,-2.98208522619828E-16));
#366=CARTESIAN_POINT('',(17.5083410432927,15.4098492506336,-3.28876022951757E-16));
#367=CARTESIAN_POINT('',(17.2803829217066,15.55988508138,-3.52468353654555E-16));
#368=CARTESIAN_POINT('',(17.0416433659014,15.6806928552947,-3.68867127873089E-16));
#369=CARTESIAN_POINT('',(16.8221056448118,15.7628114574594,-3.77319280476645E-16));
#370=CARTESIAN_POINT('',(16.5768419809425,15.8288681635454,-3.80886325638514E-16));
#371=CARTESIAN_POINT('',(16.3854655596447,15.8598235173334,-3.7896002760727E-16));
#372=CARTESIAN_POINT('',(16.2408375814585,15.8717249026683,-3.74875325821747E-16));
#373=CARTESIAN_POINT('',(16.1496304149496,15.875,-3.71331668179073E-16));
#374=CARTESIAN_POINT('',(13.824439395152,15.875,-2.20867215177129E-16));
#375=CARTESIAN_POINT('',(11.5676537502359,15.875,-1.47244810118086E-16));
#376=CARTESIAN_POINT('',(9.31086810531987,15.875,-1.47244810118086E-16));
#377=CARTESIAN_POINT('',(7.05408246040382,15.875,-2.20867215177129E-16));
#378=CARTESIAN_POINT('',(4.72076491570947,15.875,-3.88536696475621E-16));
#379=CARTESIAN_POINT('',(4.56770111615286,15.8688507803846,-4.26782503949047E-16));
#380=CARTESIAN_POINT('',(4.32478583271007,15.8401134384038,-4.79444038154975E-16));
#381=CARTESIAN_POINT('',(4.00576871282738,15.7589203859227,-5.30206102616234E-16));
#382=CARTESIAN_POINT('',(3.61244373986048,15.5822893130482,-5.60391525281187E-16));
#383=CARTESIAN_POINT('',(3.25399490550811,15.3329855956759,-5.50500208569612E-16));
#384=CARTESIAN_POINT('',(2.94623468491278,15.0232735407545,-5.01504771049476E-16));
#385=CARTESIAN_POINT('',(2.70398687013666,14.6665957218476,-4.15140558453339E-16));
#386=CARTESIAN_POINT('',(2.56863058105035,14.3665242144464,-3.24216062898494E-16));
#387=CARTESIAN_POINT('',(2.49814802756935,14.1322895470524,-2.43853041805357E-16));
#388=CARTESIAN_POINT('',(2.46551297855734,13.9826189313238,-1.89193163740192E-16));
#389=CARTESIAN_POINT('',(2.0603366390029,11.6847497230694,-9.64974574457635E-17));
#390=CARTESIAN_POINT('',(1.66844992437834,9.46224972306941,-6.43316382971757E-17));
#391=CARTESIAN_POINT('',(1.27656320975378,7.23974972306943,-6.43316382971756E-17));
#392=CARTESIAN_POINT('',(0.884676495129217,5.01724972306945,-9.64974574457634E-17));
#393=CARTESIAN_POINT('',(0.484870801377445,2.74983896071538,-1.50182747182275E-16));
#394=CARTESIAN_POINT('',(0.471183070619119,2.65963829288496,-1.28904523619086E-16));
#395=CARTESIAN_POINT('',(0.456299128026524,2.51696159375973,-9.55657688538415E-17));
#396=CARTESIAN_POINT('',(0.450949642622705,2.32362451924456,-5.10868873418889E-17));
#397=CARTESIAN_POINT('',(0.469876310904905,2.07127717214724,5.74836453314174E-18));
#398=CARTESIAN_POINT('',(0.517370103197592,1.81518201923898,6.20963792499982E-17));
#399=CARTESIAN_POINT('',(0.594885419938333,1.55908747472558,1.17031228583522E-16));
#400=CARTESIAN_POINT('',(0.703057907633552,1.30854440785328,1.69253197525308E-16));
#401=CARTESIAN_POINT('',(0.841227519705292,1.06886644299454,2.1757782687557E-16));
#402=CARTESIAN_POINT('',(1.00748927573031,0.845384386451531,2.60875322388392E-16));
#403=CARTESIAN_POINT('',(1.19870679250912,0.642840321200152,2.98208522619826E-16));
#404=CARTESIAN_POINT('',(1.41074723914032,0.46515074936652,3.28876022951756E-16));
#405=CARTESIAN_POINT('',(1.63870536072642,0.315114918620119,3.52468353654554E-16));
#406=CARTESIAN_POINT('',(1.87744491653158,0.194307144705424,3.68867127873087E-16));
#407=CARTESIAN_POINT('',(2.09698263762118,0.1121885425407,3.77319280476645E-16));
#408=CARTESIAN_POINT('',(2.34224630149046,0.046131836454717,3.80886325638513E-16));
#409=CARTESIAN_POINT('',(2.53362272278832,0.0151764826666678,3.7896002760727E-16));
#410=CARTESIAN_POINT('',(2.67825070097448,0.00327509733182119,3.74875325821746E-16));
#411=CARTESIAN_POINT('',(2.76945786748333,9.76996261670138E-14,3.71331668179072E-16));
#412=CARTESIAN_POINT('',(5.09464888728102,9.41469124882133E-14,2.20867215177129E-16));
#413=CARTESIAN_POINT('',(7.35143453219708,9.2370555648813E-14,1.10433607588564E-16));
#414=CARTESIAN_POINT('',(9.60822017711313,9.05941988094128E-14,3.68112025295215E-17));
#415=CARTESIAN_POINT('',(11.8650058220292,8.79296635503124E-14,0.0));
#416=CARTESIAN_POINT('',(14.1983233667235,8.43769498715119E-14,7.42549213199703E-16));
#417=CARTESIAN_POINT('',(0.0,0.0,0.0));
#418=CARTESIAN_POINT('',(9.45954414121654,7.9375,0.0));
#419=CARTESIAN_POINT('',(9.45954414121654,7.9375,-6.35));
#420=CARTESIAN_POINT('',(7.02735303431379,5.89664933924524,-6.35));
#421=CARTESIAN_POINT('',(9.4595441412165,15.875,-6.35));
#422=CARTESIAN_POINT('',(4.79729681548777,15.875,-6.35));
#423=CARTESIAN_POINT('',(16.081225040068,15.875,-6.35));
#424=CARTESIAN_POINT('',(16.081225040068,13.49375,-6.35));
#425=CARTESIAN_POINT('',(18.4262985019283,13.0802502769306,-6.35));
#426=CARTESIAN_POINT('',(17.2764556807509,6.5591675897688,-6.35));
#427=CARTESIAN_POINT('',(16.4668649288056,1.96775027693071,-6.35));
#428=CARTESIAN_POINT('',(14.1217914669452,2.38125000000008,-6.35));
#429=CARTESIAN_POINT('',(14.1217914669452,8.32667268468867E-14,-6.35));
#430=CARTESIAN_POINT('',(9.4595441412165,8.84708972748172E-14,-6.35));
#431=CARTESIAN_POINT('',(2.83786324236497,9.54097911787244E-14,-6.35));
#432=CARTESIAN_POINT('',(2.83786324236498,2.3812500000001,-6.35));
#433=CARTESIAN_POINT('',(0.492789780504661,2.79474972306947,-6.35));
#434=CARTESIAN_POINT('',(1.64263260168215,9.31583241023129,-6.35));
#435=CARTESIAN_POINT('',(2.45222335362746,13.9072497230694,-6.35));
#436=CARTESIAN_POINT('',(4.79729681548778,13.49375,-6.35));
#437=CARTESIAN_POINT('',(9.41332282867938,7.40918798019793,-6.35));
#438=CARTESIAN_POINT('',(9.45954414121653,15.875,-5.38749756651153E-15));
#439=CARTESIAN_POINT('',(16.081225040068,15.875,-4.84023285005636E-15));
#440=CARTESIAN_POINT('',(4.79729681548777,15.875,-5.77282019074149E-15));
#441=CARTESIAN_POINT('',(16.081225040068,15.875,-4.33680868994202E-15));
#442=CARTESIAN_POINT('',(4.79729681548777,15.875,-5.20417042793042E-15));
#443=CARTESIAN_POINT('',(9.4595441412165,15.875,-5.38749756651153E-15));
#444=CARTESIAN_POINT('',(0.49278978050466,2.79474972306947,-1.73472347597681E-15));
#445=CARTESIAN_POINT('',(0.49278978050466,2.79474972306947,-2.08448418777351E-15));
#446=CARTESIAN_POINT('',(1.64263260168214,9.31583241023126,-4.00561136949636E-15));
#447=CARTESIAN_POINT('',(2.45222335362746,13.9072497230694,-5.35825433163693E-15));
#448=CARTESIAN_POINT('',(2.45222335362746,13.9072497230694,-5.20417042793042E-15));
#449=CARTESIAN_POINT('',(1.64263260168215,9.31583241023129,-4.00561136949637E-15));
#450=CARTESIAN_POINT('',(14.1217914669452,8.50014503228635E-14,1.92592994438724E-31));
#451=CARTESIAN_POINT('',(14.1217914669452,8.50014503228635E-14,-9.40146050120656E-17));
#452=CARTESIAN_POINT('',(9.45954414121653,9.0205620750794E-14,-4.79337229242021E-16));
#453=CARTESIAN_POINT('',(2.83786324236497,9.54097911787244E-14,-1.0266019456972E-15));
#454=CARTESIAN_POINT('',(2.83786324236497,9.54097911787244E-14,-8.67361737988403E-16));
#455=CARTESIAN_POINT('',(9.45954414121649,9.0205620750794E-14,-4.79337229242024E-16));
#456=CARTESIAN_POINT('',(18.4262985019283,13.0802502769306,-3.46944695195361E-15));
#457=CARTESIAN_POINT('',(18.4262985019283,13.0802502769306,-3.78235060798005E-15));
#458=CARTESIAN_POINT('',(17.2764556807508,6.55916758976878,-1.86122342625718E-15));
#459=CARTESIAN_POINT('',(16.4668649288056,1.96775027693071,-5.08580464116619E-16));
#460=CARTESIAN_POINT('',(16.4668649288056,1.96775027693071,0.0));
#461=CARTESIAN_POINT('',(17.2764556807509,6.5591675897688,-1.86122342625719E-15));
#462=CARTESIAN_POINT('',(9.45954414121654,7.9375,0.0));
#463=CARTESIAN_POINT('',(7.02735303431379,5.89664933924524,0.0));
#464=CARTESIAN_POINT('',(16.081225040068,13.49375,-4.10400879946593E-15));
#465=CARTESIAN_POINT('',(4.79729681548778,13.49375,-5.03659614015106E-15));
#466=CARTESIAN_POINT('',(2.83786324236498,2.3812500000001,-1.76282599628763E-15));
#467=CARTESIAN_POINT('',(14.1217914669452,2.38125000000008,-8.30238655602495E-16));
#468=CARTESIAN_POINT('',(9.45954414121654,7.9375,-2.93341739787676E-15));
#469=CARTESIAN_POINT('',(16.081225040068,13.49375,-3.46944695195361E-15));
#470=CARTESIAN_POINT('',(14.1217914669452,2.38125000000008,-8.67361737988404E-16));
#471=CARTESIAN_POINT('',(2.83786324236498,2.3812500000001,-1.73472347597681E-15));
#472=CARTESIAN_POINT('',(4.79729681548778,13.49375,-4.33680868994202E-15));
#473=CARTESIAN_POINT('',(9.45954414121654,7.9375,-33.3676978394524));
#474=MECHANICAL_DESIGN_GEOMETRIC_PRESENTATION_REPRESENTATION('',(#232,#233,#234,
     #235),#475);
#475=(GEOMETRIC_REPRESENTATION_CONTEXT(3)GLOBAL_UNCERTAINTY_ASSIGNED_CONTEXT((#476))
     GLOBAL_UNIT_ASSIGNED_CONTEXT((#482,#478,#477))REPRESENTATION_CONTEXT('CNMG160624',
     'TOP_LEVEL_ASSEMBLY_PART'));
#476=UNCERTAINTY_MEASURE_WITH_UNIT(LENGTH_MEASURE(2.0E-5),#482,'DISTANCE_ACCURACY_VALUE',
     'Maximum Tolerance applied to model');
#477=(NAMED_UNIT(*)SI_UNIT($,.STERADIAN.)SOLID_ANGLE_UNIT());
#478=(CONVERSION_BASED_UNIT('DEGREE',#480)NAMED_UNIT(#479)PLANE_ANGLE_UNIT());
#479=DIMENSIONAL_EXPONENTS(0.0,0.0,0.0,0.0,0.0,0.0,0.0);
#480=PLANE_ANGLE_MEASURE_WITH_UNIT(PLANE_ANGLE_MEASURE(0.0174532925),#481);
#481=(NAMED_UNIT(*)PLANE_ANGLE_UNIT()SI_UNIT($,.RADIAN.));
#482=(LENGTH_UNIT()NAMED_UNIT(*)SI_UNIT(.MILLI.,.METRE.));
#483=CONSTRUCTIVE_GEOMETRY_REPRESENTATION('supplemental geometry',(#249,#250),#475);
#484=CONSTRUCTIVE_GEOMETRY_REPRESENTATION_RELATIONSHIP('supplemental geometry','contains PCS and MCS coordinate systems',
     #24,#483);
ENDSEC;
END-ISO-10303-21;
