ISO-10303-21;
HEADER;
FILE_DESCRIPTION(
/* description */ (''),
/* implementation_level */ '2;1');
FILE_NAME(
/* name */ 'CCMT120412.stp',
/* time_stamp */ '2017-03-21T10:53:51',
/* author */ ('Sandvik Coromant R&D'),
/* organization */ ('Sandvik Machining Solutions'),
/* preprocessor_version */ 'ST-DEVELOPER v15',
/* originating_system */ 'SIEMENS PLM Software NX v8.5.3.3(64 bits)',
/* authorization */ '');
FILE_SCHEMA(('AUTOMOTIVE_DESIGN'));
ENDSEC;
DATA;
#10=GEOMETRICALLY_BOUNDED_WIREFRAME_SHAPE_REPRESENTATION('IsoTurningInsert-None',
     (#25),#519);
#11=SHAPE_REPRESENTATION_RELATIONSHIP('None','relationship between IsoTurningInsert-None and IsoTurningInsert-None',
     #24,#13);
#12=SHAPE_REPRESENTATION_RELATIONSHIP('None','relationship between IsoTurningInsert-None and IsoTurningInsert-None',
     #24,#10);
#13=ADVANCED_BREP_SHAPE_REPRESENTATION('IsoTurningInsert-None',(#31),#519);
#14=SHAPE_DEFINITION_REPRESENTATION(#15,#24);
#15=PRODUCT_DEFINITION_SHAPE('','',#16);
#16=PRODUCT_DEFINITION(' ','',#18,#17);
#17=PRODUCT_DEFINITION_CONTEXT('part definition',#23,'design');
#18=PRODUCT_DEFINITION_FORMATION_WITH_SPECIFIED_SOURCE(' ',' ',#20,.NOT_KNOWN.);
#19=PRODUCT_RELATED_PRODUCT_CATEGORY('part','',(#20));
#20=PRODUCT('IsoTurningInsert','IsoTurningInsert',' ',(#21));
#21=PRODUCT_CONTEXT(' ',#23,'mechanical');
#22=APPLICATION_PROTOCOL_DEFINITION('international standard','automotive_design',
     2010,#23);
#23=APPLICATION_CONTEXT('core data for automotive mechanical design processes');
#24=SHAPE_REPRESENTATION('IsoTurningInsert-None',(#281),#519);
#25=GEOMETRIC_CURVE_SET('geometric curve set',(#261));
#26=SURFACE_STYLE_USAGE(.BOTH.,#27);
#27=SURFACE_SIDE_STYLE('',(#28));
#28=SURFACE_STYLE_FILL_AREA(#29);
#29=FILL_AREA_STYLE('',(#30));
#30=FILL_AREA_STYLE_COLOUR('',#280);
#31=MANIFOLD_SOLID_BREP('CUT',#32);
#32=CLOSED_SHELL('',(#49,#50,#51,#52,#53,#54,#55,#56,#57,#58,#59,#60,#61,#62));
#33=CYLINDRICAL_SURFACE('',#309,2.74999999999999);
#34=TOROIDAL_SURFACE('',#308,7.75,5.0);
#35=TOROIDAL_SURFACE('',#310,3.70770146243638,0.3);
#36=CONICAL_SURFACE('',#300,1.190625,7.0);
#37=CONICAL_SURFACE('',#301,1.190625,7.0);
#38=CONICAL_SURFACE('',#302,1.190625,7.0);
#39=CONICAL_SURFACE('',#303,1.190625,7.0);
#40=CONICAL_SURFACE('',#305,3.99999999997937,4.00000000120342);
#41=FACE_OUTER_BOUND('',#115,.T.);
#42=FACE_OUTER_BOUND('',#116,.T.);
#43=FACE_OUTER_BOUND('',#117,.T.);
#44=FACE_OUTER_BOUND('',#118,.T.);
#45=FACE_OUTER_BOUND('',#121,.T.);
#46=FACE_OUTER_BOUND('',#122,.T.);
#47=FACE_OUTER_BOUND('',#123,.T.);
#48=FACE_OUTER_BOUND('',#124,.T.);
#49=ADVANCED_FACE('',(#101,#102),#63,.F.);
#50=ADVANCED_FACE('',(#41),#64,.F.);
#51=ADVANCED_FACE('',(#42),#65,.F.);
#52=ADVANCED_FACE('',(#43),#66,.F.);
#53=ADVANCED_FACE('',(#44),#67,.F.);
#54=ADVANCED_FACE('',(#103,#104),#68,.T.);
#55=ADVANCED_FACE('',(#45),#36,.T.);
#56=ADVANCED_FACE('',(#46),#37,.T.);
#57=ADVANCED_FACE('',(#47),#38,.T.);
#58=ADVANCED_FACE('',(#48),#39,.T.);
#59=ADVANCED_FACE('',(#105,#106),#40,.F.);
#60=ADVANCED_FACE('',(#107,#108),#34,.T.);
#61=ADVANCED_FACE('',(#109,#110),#33,.F.);
#62=ADVANCED_FACE('',(#111,#112),#35,.F.);
#63=PLANE('',#289);
#64=PLANE('',#290);
#65=PLANE('',#291);
#66=PLANE('',#292);
#67=PLANE('',#293);
#68=PLANE('',#299);
#69=LINE('',#456,#85);
#70=LINE('',#461,#86);
#71=LINE('',#465,#87);
#72=LINE('',#469,#88);
#73=LINE('',#473,#89);
#74=LINE('',#476,#90);
#75=LINE('',#477,#91);
#76=LINE('',#479,#92);
#77=LINE('',#481,#93);
#78=LINE('',#483,#94);
#79=LINE('',#485,#95);
#80=LINE('',#487,#96);
#81=LINE('',#489,#97);
#82=LINE('',#491,#98);
#83=LINE('',#493,#99);
#84=LINE('',#495,#100);
#85=VECTOR('',#319,1.0);
#86=VECTOR('',#322,1.0);
#87=VECTOR('',#325,1.0);
#88=VECTOR('',#328,1.0);
#89=VECTOR('',#333,1.0);
#90=VECTOR('',#334,1.0);
#91=VECTOR('',#335,1.0);
#92=VECTOR('',#338,1.0);
#93=VECTOR('',#339,1.0);
#94=VECTOR('',#340,1.0);
#95=VECTOR('',#343,1.0);
#96=VECTOR('',#344,1.0);
#97=VECTOR('',#345,1.0);
#98=VECTOR('',#348,1.0);
#99=VECTOR('',#349,1.0);
#100=VECTOR('',#350,1.0);
#101=FACE_BOUND('',#113,.T.);
#102=FACE_BOUND('',#114,.T.);
#103=FACE_BOUND('',#119,.T.);
#104=FACE_BOUND('',#120,.T.);
#105=FACE_BOUND('',#125,.T.);
#106=FACE_BOUND('',#126,.T.);
#107=FACE_BOUND('',#127,.T.);
#108=FACE_BOUND('',#128,.T.);
#109=FACE_BOUND('',#129,.T.);
#110=FACE_BOUND('',#130,.T.);
#111=FACE_BOUND('',#131,.T.);
#112=FACE_BOUND('',#132,.T.);
#113=EDGE_LOOP('',(#133));
#114=EDGE_LOOP('',(#134,#135,#136,#137,#138,#139,#140,#141));
#115=EDGE_LOOP('',(#142,#143,#144,#145));
#116=EDGE_LOOP('',(#146,#147,#148,#149));
#117=EDGE_LOOP('',(#150,#151,#152,#153));
#118=EDGE_LOOP('',(#154,#155,#156,#157));
#119=EDGE_LOOP('',(#158));
#120=EDGE_LOOP('',(#159,#160,#161,#162,#163,#164,#165,#166));
#121=EDGE_LOOP('',(#167,#168,#169,#170));
#122=EDGE_LOOP('',(#171,#172,#173,#174));
#123=EDGE_LOOP('',(#175,#176,#177,#178));
#124=EDGE_LOOP('',(#179,#180,#181,#182));
#125=EDGE_LOOP('',(#183));
#126=EDGE_LOOP('',(#184));
#127=EDGE_LOOP('',(#185));
#128=EDGE_LOOP('',(#186));
#129=EDGE_LOOP('',(#187));
#130=EDGE_LOOP('',(#188));
#131=EDGE_LOOP('',(#189));
#132=EDGE_LOOP('',(#190));
#133=ORIENTED_EDGE('',*,*,#212,.T.);
#134=ORIENTED_EDGE('',*,*,#213,.T.);
#135=ORIENTED_EDGE('',*,*,#214,.T.);
#136=ORIENTED_EDGE('',*,*,#215,.T.);
#137=ORIENTED_EDGE('',*,*,#216,.T.);
#138=ORIENTED_EDGE('',*,*,#217,.T.);
#139=ORIENTED_EDGE('',*,*,#218,.T.);
#140=ORIENTED_EDGE('',*,*,#219,.T.);
#141=ORIENTED_EDGE('',*,*,#220,.T.);
#142=ORIENTED_EDGE('',*,*,#221,.F.);
#143=ORIENTED_EDGE('',*,*,#222,.T.);
#144=ORIENTED_EDGE('',*,*,#213,.F.);
#145=ORIENTED_EDGE('',*,*,#223,.T.);
#146=ORIENTED_EDGE('',*,*,#219,.F.);
#147=ORIENTED_EDGE('',*,*,#224,.T.);
#148=ORIENTED_EDGE('',*,*,#225,.F.);
#149=ORIENTED_EDGE('',*,*,#226,.T.);
#150=ORIENTED_EDGE('',*,*,#217,.F.);
#151=ORIENTED_EDGE('',*,*,#227,.T.);
#152=ORIENTED_EDGE('',*,*,#228,.F.);
#153=ORIENTED_EDGE('',*,*,#229,.T.);
#154=ORIENTED_EDGE('',*,*,#215,.F.);
#155=ORIENTED_EDGE('',*,*,#230,.T.);
#156=ORIENTED_EDGE('',*,*,#231,.F.);
#157=ORIENTED_EDGE('',*,*,#232,.T.);
#158=ORIENTED_EDGE('',*,*,#233,.F.);
#159=ORIENTED_EDGE('',*,*,#231,.T.);
#160=ORIENTED_EDGE('',*,*,#234,.T.);
#161=ORIENTED_EDGE('',*,*,#221,.T.);
#162=ORIENTED_EDGE('',*,*,#235,.T.);
#163=ORIENTED_EDGE('',*,*,#225,.T.);
#164=ORIENTED_EDGE('',*,*,#236,.T.);
#165=ORIENTED_EDGE('',*,*,#228,.T.);
#166=ORIENTED_EDGE('',*,*,#237,.T.);
#167=ORIENTED_EDGE('',*,*,#214,.F.);
#168=ORIENTED_EDGE('',*,*,#222,.F.);
#169=ORIENTED_EDGE('',*,*,#234,.F.);
#170=ORIENTED_EDGE('',*,*,#230,.F.);
#171=ORIENTED_EDGE('',*,*,#216,.F.);
#172=ORIENTED_EDGE('',*,*,#232,.F.);
#173=ORIENTED_EDGE('',*,*,#237,.F.);
#174=ORIENTED_EDGE('',*,*,#227,.F.);
#175=ORIENTED_EDGE('',*,*,#218,.F.);
#176=ORIENTED_EDGE('',*,*,#229,.F.);
#177=ORIENTED_EDGE('',*,*,#236,.F.);
#178=ORIENTED_EDGE('',*,*,#224,.F.);
#179=ORIENTED_EDGE('',*,*,#220,.F.);
#180=ORIENTED_EDGE('',*,*,#226,.F.);
#181=ORIENTED_EDGE('',*,*,#235,.F.);
#182=ORIENTED_EDGE('',*,*,#223,.F.);
#183=ORIENTED_EDGE('',*,*,#238,.T.);
#184=ORIENTED_EDGE('',*,*,#233,.T.);
#185=ORIENTED_EDGE('',*,*,#239,.T.);
#186=ORIENTED_EDGE('',*,*,#240,.T.);
#187=ORIENTED_EDGE('',*,*,#240,.F.);
#188=ORIENTED_EDGE('',*,*,#212,.F.);
#189=ORIENTED_EDGE('',*,*,#239,.F.);
#190=ORIENTED_EDGE('',*,*,#238,.F.);
#191=VERTEX_POINT('',#455);
#192=VERTEX_POINT('',#457);
#193=VERTEX_POINT('',#458);
#194=VERTEX_POINT('',#460);
#195=VERTEX_POINT('',#462);
#196=VERTEX_POINT('',#464);
#197=VERTEX_POINT('',#466);
#198=VERTEX_POINT('',#468);
#199=VERTEX_POINT('',#470);
#200=VERTEX_POINT('',#474);
#201=VERTEX_POINT('',#475);
#202=VERTEX_POINT('',#480);
#203=VERTEX_POINT('',#482);
#204=VERTEX_POINT('',#486);
#205=VERTEX_POINT('',#488);
#206=VERTEX_POINT('',#492);
#207=VERTEX_POINT('',#494);
#208=VERTEX_POINT('',#498);
#209=VERTEX_POINT('',#509);
#210=VERTEX_POINT('',#512);
#211=VERTEX_POINT('',#514);
#212=EDGE_CURVE('',#191,#191,#241,.T.);
#213=EDGE_CURVE('',#192,#193,#69,.T.);
#214=EDGE_CURVE('',#193,#194,#242,.T.);
#215=EDGE_CURVE('',#194,#195,#70,.T.);
#216=EDGE_CURVE('',#195,#196,#243,.T.);
#217=EDGE_CURVE('',#196,#197,#71,.T.);
#218=EDGE_CURVE('',#197,#198,#244,.T.);
#219=EDGE_CURVE('',#198,#199,#72,.T.);
#220=EDGE_CURVE('',#199,#192,#245,.T.);
#221=EDGE_CURVE('',#200,#201,#73,.T.);
#222=EDGE_CURVE('',#200,#193,#74,.T.);
#223=EDGE_CURVE('',#192,#201,#75,.T.);
#224=EDGE_CURVE('',#198,#202,#76,.T.);
#225=EDGE_CURVE('',#203,#202,#77,.T.);
#226=EDGE_CURVE('',#203,#199,#78,.T.);
#227=EDGE_CURVE('',#196,#204,#79,.T.);
#228=EDGE_CURVE('',#205,#204,#80,.T.);
#229=EDGE_CURVE('',#205,#197,#81,.T.);
#230=EDGE_CURVE('',#194,#206,#82,.T.);
#231=EDGE_CURVE('',#207,#206,#83,.T.);
#232=EDGE_CURVE('',#207,#195,#84,.T.);
#233=EDGE_CURVE('',#208,#208,#246,.T.);
#234=EDGE_CURVE('',#206,#200,#247,.T.);
#235=EDGE_CURVE('',#201,#203,#248,.T.);
#236=EDGE_CURVE('',#202,#205,#249,.T.);
#237=EDGE_CURVE('',#204,#207,#250,.T.);
#238=EDGE_CURVE('',#209,#209,#251,.T.);
#239=EDGE_CURVE('',#210,#210,#252,.T.);
#240=EDGE_CURVE('',#211,#211,#253,.T.);
#241=CIRCLE('',#284,2.74999999999999);
#242=CIRCLE('',#285,0.605863528699916);
#243=CIRCLE('',#286,0.605863528699915);
#244=CIRCLE('',#287,0.605863528699915);
#245=CIRCLE('',#288,0.605863528699916);
#246=CIRCLE('',#294,4.06293413074916);
#247=CIRCLE('',#295,1.190625);
#248=CIRCLE('',#296,1.190625);
#249=CIRCLE('',#297,1.190625);
#250=CIRCLE('',#298,1.190625);
#251=CIRCLE('',#304,4.00697067751389);
#252=CIRCLE('',#306,3.93651081361923);
#253=CIRCLE('',#307,2.74999999999999);
#254=CURVE_STYLE('',#258,POSITIVE_LENGTH_MEASURE(0.18),#257);
#255=CURVE_STYLE('',#259,POSITIVE_LENGTH_MEASURE(0.18),#279);
#256=CURVE_STYLE('',#260,POSITIVE_LENGTH_MEASURE(0.18),#279);
#257=DRAUGHTING_PRE_DEFINED_COLOUR('blue');
#258=DRAUGHTING_PRE_DEFINED_CURVE_FONT('continuous');
#259=DRAUGHTING_PRE_DEFINED_CURVE_FONT('continuous');
#260=DRAUGHTING_PRE_DEFINED_CURVE_FONT('continuous');
#261=B_SPLINE_CURVE_WITH_KNOTS('CUTTING EDGE LINE',5,(#390,#391,#392,#393,#394,#395,
     #396,#397,#398,#399,#400,#401,#402,#403,#404,#405,#406,#407,#408,#409,#410,
     #411,#412,#413,#414,#415,#416,#417,#418,#419,#420,#421,#422,#423,#424,#425,
     #426,#427,#428,#429,#430,#431,#432,#433,#434,#435,#436,#437,#438,#439,#440,
     #441,#442,#443,#444,#445,#446,#447,#448,#449,#450,#451),.UNSPECIFIED.,.T.,.F.,
     (2,4,1,1,1,1,1,1,1,4,4,1,1,1,1,1,1,1,4,4,1,1,1,1,1,1,1,4,4,1,1,1,1,1,1,1,4,
     4,1,1),(-0.2121354728,0.0,0.00420716968750001,0.00841433937500002,0.0126215090625,
     0.01682867875,0.0210358484374999,0.025243018125,0.0294501878125,0.0336573575,
     0.2457928303,0.2510517924125,0.256310754525,0.2615697166375,0.26682867875,0.2720876408625,
     0.277346602975,0.2826055650875,0.2878645272,0.5,0.5042071696875,0.508414339375,
     0.5126215090625,0.51682867875,0.5210358484375,0.525243018125,0.5294501878125,
     0.5336573575,0.7457928303,0.7510517924125,0.756310754525,0.7615697166375,0.76682867875,
     0.7720876408625,0.777346602975,0.7826055650875,0.7878645272,1.0,1.0042071696875,
     1.008414339375),.UNSPECIFIED.);
#262=PRESENTATION_LAYER_ASSIGNMENT('1','Layer 1',(#261,#282,#283,#31));
#265=STYLED_ITEM('',(#271),#261);
#266=STYLED_ITEM('',(#272),#282);
#267=STYLED_ITEM('',(#273),#283);
#268=STYLED_ITEM('',(#274),#31);
#269=PRESENTATION_STYLE_ASSIGNMENT((#275));
#270=PRESENTATION_STYLE_ASSIGNMENT((#276));
#271=PRESENTATION_STYLE_ASSIGNMENT((#254));
#272=PRESENTATION_STYLE_ASSIGNMENT((#255));
#273=PRESENTATION_STYLE_ASSIGNMENT((#256));
#274=PRESENTATION_STYLE_ASSIGNMENT((#26));
#275=POINT_STYLE('',#277,POSITIVE_LENGTH_MEASURE(3.0),#279);
#276=POINT_STYLE('',#278,POSITIVE_LENGTH_MEASURE(3.0),#279);
#277=PRE_DEFINED_POINT_MARKER_SYMBOL('plus');
#278=PRE_DEFINED_POINT_MARKER_SYMBOL('plus');
#279=COLOUR_RGB('Medium Maroon',0.6,0.4,0.4);
#280=COLOUR_RGB('IsoInsertColor',0.8,0.8,0.8);
#281=AXIS2_PLACEMENT_3D('',#387,#311,#312);
#282=AXIS2_PLACEMENT_3D('PCS',#452,#313,#314);
#283=AXIS2_PLACEMENT_3D('MCS',#453,#315,#316);
#284=AXIS2_PLACEMENT_3D('',#454,#317,#318);
#285=AXIS2_PLACEMENT_3D('',#459,#320,#321);
#286=AXIS2_PLACEMENT_3D('',#463,#323,#324);
#287=AXIS2_PLACEMENT_3D('',#467,#326,#327);
#288=AXIS2_PLACEMENT_3D('',#471,#329,#330);
#289=AXIS2_PLACEMENT_3D('',#472,#331,#332);
#290=AXIS2_PLACEMENT_3D('',#478,#336,#337);
#291=AXIS2_PLACEMENT_3D('',#484,#341,#342);
#292=AXIS2_PLACEMENT_3D('',#490,#346,#347);
#293=AXIS2_PLACEMENT_3D('',#496,#351,#352);
#294=AXIS2_PLACEMENT_3D('',#497,#353,#354);
#295=AXIS2_PLACEMENT_3D('',#499,#355,#356);
#296=AXIS2_PLACEMENT_3D('',#500,#357,#358);
#297=AXIS2_PLACEMENT_3D('',#501,#359,#360);
#298=AXIS2_PLACEMENT_3D('',#502,#361,#362);
#299=AXIS2_PLACEMENT_3D('',#503,#363,#364);
#300=AXIS2_PLACEMENT_3D('',#504,#365,#366);
#301=AXIS2_PLACEMENT_3D('',#505,#367,#368);
#302=AXIS2_PLACEMENT_3D('',#506,#369,#370);
#303=AXIS2_PLACEMENT_3D('',#507,#371,#372);
#304=AXIS2_PLACEMENT_3D('',#508,#373,#374);
#305=AXIS2_PLACEMENT_3D('',#510,#375,#376);
#306=AXIS2_PLACEMENT_3D('',#511,#377,#378);
#307=AXIS2_PLACEMENT_3D('',#513,#379,#380);
#308=AXIS2_PLACEMENT_3D('',#515,#381,#382);
#309=AXIS2_PLACEMENT_3D('',#516,#383,#384);
#310=AXIS2_PLACEMENT_3D('',#517,#385,#386);
#311=DIRECTION('',(0.0,0.0,1.0));
#312=DIRECTION('',(1.0,0.0,0.0));
#313=DIRECTION('',(0.0,0.0,1.0));
#314=DIRECTION('',(1.0,0.0,0.0));
#315=DIRECTION('',(0.0,0.0,1.0));
#316=DIRECTION('',(1.0,0.0,0.0));
#317=DIRECTION('',(0.0,0.0,1.0));
#318=DIRECTION('',(-0.766044443118978,-0.64278760968654,0.0));
#319=DIRECTION('',(1.0,3.88578058618805E-16,0.0));
#320=DIRECTION('',(0.0,0.0,-1.0));
#321=DIRECTION('',(-0.766044443118979,-0.642787609686539,0.0));
#322=DIRECTION('',(-0.173648177666928,-0.984807753012209,0.0));
#323=DIRECTION('',(0.0,0.0,-1.0));
#324=DIRECTION('',(-0.766044443118979,-0.64278760968654,0.0));
#325=DIRECTION('',(-1.0,7.21644966006352E-16,0.0));
#326=DIRECTION('',(0.0,0.0,-1.0));
#327=DIRECTION('',(-0.766044443118978,-0.64278760968654,0.0));
#328=DIRECTION('',(0.173648177666929,0.984807753012208,0.0));
#329=DIRECTION('',(0.0,0.0,-1.0));
#330=DIRECTION('',(-0.766044443118978,-0.642787609686538,0.0));
#331=DIRECTION('',(0.0,0.0,1.0));
#332=DIRECTION('',(-0.766044443118978,-0.64278760968654,0.0));
#333=DIRECTION('',(-1.0,-3.88578058618805E-16,-1.01774888095285E-16));
#334=DIRECTION('',(1.73472347597681E-16,-0.121869343405148,-0.992546151641322));
#335=DIRECTION('',(-1.73472347597681E-16,0.121869343405148,0.992546151641322));
#336=DIRECTION('',(3.88578058618805E-16,-0.992546151641322,0.121869343405148));
#337=DIRECTION('',(1.0,3.88578058618805E-16,0.0));
#338=DIRECTION('',(-0.120017874239897,0.0211623893957694,0.992546151641322));
#339=DIRECTION('',(-0.173648177666929,-0.984807753012208,3.57272263417822E-16));
#340=DIRECTION('',(0.120017874239897,-0.0211623893957694,-0.992546151641322));
#341=DIRECTION('',(0.977467145358805,-0.172353830482839,0.121869343405148));
#342=DIRECTION('',(0.173648177666929,0.984807753012208,0.0));
#343=DIRECTION('',(-1.94289029309402E-16,-0.121869343405147,0.992546151641322));
#344=DIRECTION('',(1.0,-7.21644966006352E-16,1.01774888095285E-16));
#345=DIRECTION('',(1.94289029309402E-16,0.121869343405147,-0.992546151641322));
#346=DIRECTION('',(6.66133814775094E-16,0.992546151641322,0.121869343405147));
#347=DIRECTION('',(-1.0,7.21644966006352E-16,0.0));
#348=DIRECTION('',(0.120017874239896,-0.0211623893957685,0.992546151641322));
#349=DIRECTION('',(0.173648177666928,0.984807753012209,-3.57272263417822E-16));
#350=DIRECTION('',(-0.120017874239896,0.0211623893957685,-0.992546151641322));
#351=DIRECTION('',(-0.977467145358805,0.172353830482838,0.121869343405147));
#352=DIRECTION('',(-0.173648177666928,-0.984807753012209,0.0));
#353=DIRECTION('',(0.0,0.0,1.0));
#354=DIRECTION('',(-0.766044443118978,-0.64278760968654,0.0));
#355=DIRECTION('',(-1.03309251233719E-16,3.86469317895238E-16,1.0));
#356=DIRECTION('',(-0.64278760968654,0.766044443118978,-3.62458580068657E-16));
#357=DIRECTION('',(-1.03309251233719E-16,3.86469317895238E-16,1.0));
#358=DIRECTION('',(-0.64278760968654,0.766044443118978,-3.62458580068657E-16));
#359=DIRECTION('',(-1.03309251233719E-16,3.86469317895238E-16,1.0));
#360=DIRECTION('',(-0.64278760968654,0.766044443118978,-3.62458580068657E-16));
#361=DIRECTION('',(-1.03309251233719E-16,3.86469317895238E-16,1.0));
#362=DIRECTION('',(-0.64278760968654,0.766044443118978,-3.62458580068657E-16));
#363=DIRECTION('',(-1.03309251233719E-16,3.86469317895238E-16,1.0));
#364=DIRECTION('',(-0.64278760968654,0.766044443118978,-3.62458580068657E-16));
#365=DIRECTION('',(-1.03309251233719E-16,3.86469317895238E-16,1.0));
#366=DIRECTION('',(-0.64278760968654,0.766044443118978,3.49812638582251E-17));
#367=DIRECTION('',(-1.03309251233719E-16,3.86469317895238E-16,1.0));
#368=DIRECTION('',(-0.64278760968654,0.766044443118978,0.0));
#369=DIRECTION('',(-1.03309251233719E-16,3.86469317895238E-16,1.0));
#370=DIRECTION('',(-0.64278760968654,0.766044443118978,6.99625277164503E-18));
#371=DIRECTION('',(-1.03309251233719E-16,3.86469317895238E-16,1.0));
#372=DIRECTION('',(-0.64278760968654,0.766044443118978,4.19775166298702E-17));
#373=DIRECTION('',(0.0,0.0,-1.0));
#374=DIRECTION('',(0.766044443118978,0.64278760968654,0.0));
#375=DIRECTION('',(0.0,0.0,1.0));
#376=DIRECTION('',(-0.766044443118978,-0.64278760968654,-5.63170009865728E-16));
#377=DIRECTION('',(0.0,0.0,1.0));
#378=DIRECTION('',(0.766044443118978,0.64278760968654,0.0));
#379=DIRECTION('',(0.0,0.0,-1.0));
#380=DIRECTION('',(-0.766044443118978,-0.64278760968654,0.0));
#381=DIRECTION('',(0.0,0.0,1.0));
#382=DIRECTION('',(-0.766044443118978,-0.64278760968654,0.0));
#383=DIRECTION('',(0.0,0.0,1.0));
#384=DIRECTION('',(-0.766044443118978,-0.64278760968654,0.0));
#385=DIRECTION('',(0.0,0.0,-1.0));
#386=DIRECTION('',(0.766044443118978,0.64278760968654,0.0));
#387=CARTESIAN_POINT('',(0.0,0.0,0.0));
#390=CARTESIAN_POINT('',(9.80127830229927,4.17443857259059E-14,-1.97215226305253E-32));
#391=CARTESIAN_POINT('',(11.9351309224676,3.90798504668055E-14,4.64093258249812E-16));
#392=CARTESIAN_POINT('',(12.0116628222459,0.00307460980774099,4.70497349828603E-16));
#393=CARTESIAN_POINT('',(12.1331204639673,0.0174432807981395,4.76024013613341E-16));
#394=CARTESIAN_POINT('',(12.2926290239087,0.0580398070386989,4.72665843611503E-16));
#395=CARTESIAN_POINT('',(12.4892915103921,0.146355343475953,4.49828843748486E-16));
#396=CARTESIAN_POINT('',(12.6685159275683,0.271007202162101,4.07435134496303E-16));
#397=CARTESIAN_POINT('',(12.822396037866,0.425863229622775,3.4766431262475E-16));
#398=CARTESIAN_POINT('',(12.943519945254,0.604202139076249,2.73034916057817E-16));
#399=CARTESIAN_POINT('',(13.0111980897972,0.754237892776816,2.06713987678163E-16));
#400=CARTESIAN_POINT('',(13.0464393665377,0.871355226473856,1.53127119927752E-16));
#401=CARTESIAN_POINT('',(13.0627568910437,0.946190534338138,1.1824572733762E-16));
#402=CARTESIAN_POINT('',(13.4332965099457,3.04762513846534,6.03109109036018E-17));
#403=CARTESIAN_POINT('',(13.7971913163828,5.11137513846534,4.02072739357345E-17));
#404=CARTESIAN_POINT('',(14.1610861228199,7.17512513846533,4.02072739357344E-17));
#405=CARTESIAN_POINT('',(14.524980929257,9.23887513846532,6.03109109036016E-17));
#406=CARTESIAN_POINT('',(14.8967947148213,11.3475359008194,8.72102491385061E-17));
#407=CARTESIAN_POINT('',(14.9083322180835,11.438115711772,6.06305616321936E-17));
#408=CARTESIAN_POINT('',(14.9137078943771,11.5884281670748,1.73331160778441E-17));
#409=CARTESIAN_POINT('',(14.8878535539902,11.7914580452035,-3.92012574752398E-17));
#410=CARTESIAN_POINT('',(14.795391984268,12.0502244937314,-1.07754492081612E-16));
#411=CARTESIAN_POINT('',(14.6408884221314,12.2851640751182,-1.65844369573752E-16));
#412=CARTESIAN_POINT('',(14.4363473629003,12.4781172111481,-2.08984510894297E-16));
#413=CARTESIAN_POINT('',(14.1975679412565,12.6141084040943,-2.3382226390305E-16));
#414=CARTESIAN_POINT('',(14.0021121022771,12.6748257273054,-2.39684685309805E-16));
#415=CARTESIAN_POINT('',(13.8531497545272,12.6956332035577,-2.36870457126149E-16));
#416=CARTESIAN_POINT('',(13.7619425880183,12.7,-2.32753051546056E-16));
#417=CARTESIAN_POINT('',(11.6207523344847,12.7,-1.38042009485705E-16));
#418=CARTESIAN_POINT('',(9.52516566420552,12.7,-9.20280063238035E-17));
#419=CARTESIAN_POINT('',(7.42957899392633,12.7,-9.20280063238035E-17));
#420=CARTESIAN_POINT('',(5.33399232364713,12.7,-1.38042009485705E-16));
#421=CARTESIAN_POINT('',(3.20013970347879,12.7,-2.42835435297263E-16));
#422=CARTESIAN_POINT('',(3.12360780370048,12.6969253901923,-2.66739064968153E-16));
#423=CARTESIAN_POINT('',(3.00215016197909,12.6825567192019,-2.99652523846859E-16));
#424=CARTESIAN_POINT('',(2.84264160203774,12.6419601929613,-3.31378814135145E-16));
#425=CARTESIAN_POINT('',(2.64597911555429,12.5536446565241,-3.50244703300741E-16));
#426=CARTESIAN_POINT('',(2.46675469837811,12.4289927978379,-3.44062630356006E-16));
#427=CARTESIAN_POINT('',(2.31287458808044,12.2741367703773,-3.13440481905921E-16));
#428=CARTESIAN_POINT('',(2.19175068069238,12.0957978609238,-2.59462849033336E-16));
#429=CARTESIAN_POINT('',(2.12407253614923,11.9457621072232,-2.02635039311558E-16));
#430=CARTESIAN_POINT('',(2.08883125940873,11.8286447735262,-1.52408151128347E-16));
#431=CARTESIAN_POINT('',(2.07251373490273,11.7538094656619,-1.1824572733762E-16));
#432=CARTESIAN_POINT('',(1.70197411600069,9.65237486153469,-6.03109109036018E-17));
#433=CARTESIAN_POINT('',(1.3380793095636,7.5886248615347,-4.02072739357345E-17));
#434=CARTESIAN_POINT('',(0.974184503126512,5.52487486153471,-4.02072739357345E-17));
#435=CARTESIAN_POINT('',(0.610289696689422,3.46112486153472,-6.03109109036018E-17));
#436=CARTESIAN_POINT('',(0.238475911125119,1.35246409918064,-8.72102491385065E-17));
#437=CARTESIAN_POINT('',(0.22693840786289,1.26188428822799,-6.0630561632194E-17));
#438=CARTESIAN_POINT('',(0.221562731569278,1.11157183292522,-1.73331160778446E-17));
#439=CARTESIAN_POINT('',(0.247417071956235,0.908541954796587,3.92012574752394E-17));
#440=CARTESIAN_POINT('',(0.33987864167837,0.649775506268646,1.07754492081612E-16));
#441=CARTESIAN_POINT('',(0.494382203815049,0.414835924881862,1.65844369573752E-16));
#442=CARTESIAN_POINT('',(0.698923263046082,0.22188278885197,2.08984510894297E-16));
#443=CARTESIAN_POINT('',(0.937702684689866,0.085891595905764,2.3382226390305E-16));
#444=CARTESIAN_POINT('',(1.13315852366933,0.0251742726946826,2.39684685309805E-16));
#445=CARTESIAN_POINT('',(1.28212087141921,0.00436679644234328,2.36870457126149E-16));
#446=CARTESIAN_POINT('',(1.37332803792807,4.79616346638068E-14,2.32753051546056E-16));
#447=CARTESIAN_POINT('',(3.51451829146169,4.70734562441066E-14,1.38042009485705E-16));
#448=CARTESIAN_POINT('',(5.61010496174088,4.52970994047064E-14,6.90210047428526E-17));
#449=CARTESIAN_POINT('',(7.70569163202008,4.2632564145606E-14,2.30070015809508E-17));
#450=CARTESIAN_POINT('',(9.80127830229927,4.17443857259059E-14,-1.97215226305253E-32));
#451=CARTESIAN_POINT('',(11.9351309224676,3.90798504668055E-14,4.64093258249812E-16));
#452=CARTESIAN_POINT('',(0.0,0.0,0.0));
#453=CARTESIAN_POINT('',(7.56763531297323,6.35,0.0));
#454=CARTESIAN_POINT('',(7.56763531297323,6.35,-4.7625));
#455=CARTESIAN_POINT('',(5.46101309439604,4.58233407336202,-4.7625));
#456=CARTESIAN_POINT('',(7.5676353129732,12.1152385286999,-4.7625));
#457=CARTESIAN_POINT('',(3.23840565336794,12.1152385286999,-4.7625));
#458=CARTESIAN_POINT('',(13.7163390047639,12.1152385286999,-4.7625));
#459=CARTESIAN_POINT('',(13.7163390047639,11.509375,-4.7625));
#460=CARTESIAN_POINT('',(14.3129981050949,11.4041679023264,-4.7625));
#461=CARTESIAN_POINT('',(13.2452869140016,5.34887683567612,-4.7625));
#462=CARTESIAN_POINT('',(12.4935240729095,1.08541790232644,-4.7625));
#463=CARTESIAN_POINT('',(11.8968649725785,1.19062500000004,-4.7625));
#464=CARTESIAN_POINT('',(11.8968649725785,0.584761471300123,-4.7625));
#465=CARTESIAN_POINT('',(7.5676353129732,0.584761471300125,-4.7625));
#466=CARTESIAN_POINT('',(1.41893162118249,0.58476147130013,-4.7625));
#467=CARTESIAN_POINT('',(1.41893162118249,1.19062500000005,-4.7625));
#468=CARTESIAN_POINT('',(0.82227252085148,1.29583209767364,-4.7625));
#469=CARTESIAN_POINT('',(1.88998371194486,7.35112316432392,-4.7625));
#470=CARTESIAN_POINT('',(2.64174655303693,11.6145820976736,-4.7625));
#471=CARTESIAN_POINT('',(3.23840565336794,11.509375,-4.7625));
#472=CARTESIAN_POINT('',(7.52141400043606,5.82168798019793,-4.7625));
#473=CARTESIAN_POINT('',(7.56763531297323,12.7,-5.38749756651153E-15));
#474=CARTESIAN_POINT('',(13.7163390047639,12.7,-4.75227959205463E-15));
#475=CARTESIAN_POINT('',(3.23840565336794,12.7,-5.83474704106416E-15));
#476=CARTESIAN_POINT('',(13.7163390047639,12.7,-4.31398083801098E-15));
#477=CARTESIAN_POINT('',(3.23840565336794,12.7,-5.10717932783875E-15));
#478=CARTESIAN_POINT('',(7.5676353129732,12.7,-5.38749756651153E-15));
#479=CARTESIAN_POINT('',(0.246394890252332,1.39737486153473,-1.64199812453241E-15));
#480=CARTESIAN_POINT('',(0.246394890252332,1.39737486153473,-1.77573160499662E-15));
#481=CARTESIAN_POINT('',(1.31410608134571,7.452665928185,-4.00561136949636E-15));
#482=CARTESIAN_POINT('',(2.06586892243778,11.7161248615347,-5.57564337912381E-15));
#483=CARTESIAN_POINT('',(2.06586892243778,11.7161248615347,-5.11850365832606E-15));
#484=CARTESIAN_POINT('',(1.31410608134571,7.45266592818501,-4.00561136949636E-15));
#485=CARTESIAN_POINT('',(11.8968649725785,4.0766001685455E-14,2.47943132029111E-16));
#486=CARTESIAN_POINT('',(11.8968649725785,4.0766001685455E-14,-3.20877546893993E-17));
#487=CARTESIAN_POINT('',(7.56763531297322,4.42354486374086E-14,-4.79337229242026E-16));
#488=CARTESIAN_POINT('',(1.41893162118249,4.9439619065339E-14,-1.11455520369893E-15));
#489=CARTESIAN_POINT('',(1.41893162118249,4.9439619065339E-14,-6.45913014938668E-16));
#490=CARTESIAN_POINT('',(7.5676353129732,4.42354486374086E-14,-4.79337229242028E-16));
#491=CARTESIAN_POINT('',(14.8888757356941,11.3026251384653,-3.42376919474486E-15));
#492=CARTESIAN_POINT('',(14.8888757356941,11.3026251384653,-4.09110319075694E-15));
#493=CARTESIAN_POINT('',(13.8211645446007,5.24733407181502,-1.86122342625719E-15));
#494=CARTESIAN_POINT('',(13.0694017035086,0.983875138465352,-2.91191416629743E-16));
#495=CARTESIAN_POINT('',(13.0694017035086,0.983875138465352,-1.06969564629733E-18));
#496=CARTESIAN_POINT('',(13.8211645446007,5.24733407181503,-1.8612234262572E-15));
#497=CARTESIAN_POINT('',(7.56763531297323,6.35,-6.93889390390723E-15));
#498=CARTESIAN_POINT('',(4.4552471993544,3.73839628178189,-6.93889390390723E-15));
#499=CARTESIAN_POINT('',(13.7163390047639,11.509375,-4.29213956043561E-15));
#500=CARTESIAN_POINT('',(3.23840565336794,11.509375,-5.37460700944514E-15));
#501=CARTESIAN_POINT('',(1.41893162118249,1.19062500000005,-1.57469523531795E-15));
#502=CARTESIAN_POINT('',(11.8968649725785,1.19062500000004,-4.92227786308415E-16));
#503=CARTESIAN_POINT('',(7.56763531297323,6.35,-2.93341739787677E-15));
#504=CARTESIAN_POINT('',(13.7163390047639,11.509375,-4.33680868994202E-15));
#505=CARTESIAN_POINT('',(11.8968649725785,1.19062500000004,0.0));
#506=CARTESIAN_POINT('',(1.41893162118249,1.19062500000005,-8.67361737988404E-16));
#507=CARTESIAN_POINT('',(3.23840565336794,11.509375,-5.20417042793042E-15));
#508=CARTESIAN_POINT('',(7.56763531297323,6.35,-0.800314667049155));
#509=CARTESIAN_POINT('',(10.6371529342234,8.92563110388321,-0.800314667049155));
#510=CARTESIAN_POINT('',(7.56763531297323,6.35,-0.900000000023396));
#511=CARTESIAN_POINT('',(7.56763531297323,6.35,-0.973414220046672));
#512=CARTESIAN_POINT('',(10.583177547024,8.88034037639152,-0.973414220046672));
#513=CARTESIAN_POINT('',(7.56763531297323,6.35,-4.20718913883075));
#514=CARTESIAN_POINT('',(5.46101309439604,4.58233407336202,-4.20718913883075));
#515=CARTESIAN_POINT('',(7.56763531297323,6.35,-4.20718913883075));
#516=CARTESIAN_POINT('',(7.56763531297323,6.35,-33.3676978394524));
#517=CARTESIAN_POINT('',(7.56763531297323,6.35,-0.779387724919628));
#518=MECHANICAL_DESIGN_GEOMETRIC_PRESENTATION_REPRESENTATION('',(#265,#266,#267,
     #268),#519);
#519=(GEOMETRIC_REPRESENTATION_CONTEXT(3)GLOBAL_UNCERTAINTY_ASSIGNED_CONTEXT((#520))
     GLOBAL_UNIT_ASSIGNED_CONTEXT((#526,#522,#521))REPRESENTATION_CONTEXT('CCMT120412',
     'TOP_LEVEL_ASSEMBLY_PART'));
#520=UNCERTAINTY_MEASURE_WITH_UNIT(LENGTH_MEASURE(2.0E-5),#526,'DISTANCE_ACCURACY_VALUE',
     'Maximum Tolerance applied to model');
#521=(NAMED_UNIT(*)SI_UNIT($,.STERADIAN.)SOLID_ANGLE_UNIT());
#522=(CONVERSION_BASED_UNIT('DEGREE',#524)NAMED_UNIT(#523)PLANE_ANGLE_UNIT());
#523=DIMENSIONAL_EXPONENTS(0.0,0.0,0.0,0.0,0.0,0.0,0.0);
#524=PLANE_ANGLE_MEASURE_WITH_UNIT(PLANE_ANGLE_MEASURE(0.0174532925),#525);
#525=(NAMED_UNIT(*)PLANE_ANGLE_UNIT()SI_UNIT($,.RADIAN.));
#526=(LENGTH_UNIT()NAMED_UNIT(*)SI_UNIT(.MILLI.,.METRE.));
#527=CONSTRUCTIVE_GEOMETRY_REPRESENTATION('supplemental geometry',(#282,#283),#519);
#528=CONSTRUCTIVE_GEOMETRY_REPRESENTATION_RELATIONSHIP('supplemental geometry','contains PCS and MCS coordinate systems',
     #24,#527);
ENDSEC;
END-ISO-10303-21;
