ISO-10303-21;
HEADER;
FILE_DESCRIPTION(
/* description */ (''),
/* implementation_level */ '2;1');
FILE_NAME(
/* name */ 'VNGA160404.stp',
/* time_stamp */ '2017-03-21T10:54:47',
/* author */ ('Sandvik Coromant R&D'),
/* organization */ ('Sandvik Machining Solutions'),
/* preprocessor_version */ 'ST-DEVELOPER v15',
/* originating_system */ 'SIEMENS PLM Software NX v8.5.3.3(64 bits)',
/* authorization */ '');
FILE_SCHEMA(('AUTOMOTIVE_DESIGN'));
ENDSEC;
DATA;
#10=GEOMETRICALLY_BOUNDED_WIREFRAME_SHAPE_REPRESENTATION('IsoTurningInsert-None',
     (#25),#447);
#11=SHAPE_REPRESENTATION_RELATIONSHIP('None','relationship between IsoTurningInsert-None and IsoTurningInsert-None',
     #24,#13);
#12=SHAPE_REPRESENTATION_RELATIONSHIP('None','relationship between IsoTurningInsert-None and IsoTurningInsert-None',
     #24,#10);
#13=ADVANCED_BREP_SHAPE_REPRESENTATION('IsoTurningInsert-None',(#31),#447);
#14=SHAPE_DEFINITION_REPRESENTATION(#15,#24);
#15=PRODUCT_DEFINITION_SHAPE('','',#16);
#16=PRODUCT_DEFINITION(' ','',#18,#17);
#17=PRODUCT_DEFINITION_CONTEXT('part definition',#23,'design');
#18=PRODUCT_DEFINITION_FORMATION_WITH_SPECIFIED_SOURCE(' ',' ',#20,.NOT_KNOWN.);
#19=PRODUCT_RELATED_PRODUCT_CATEGORY('part','',(#20));
#20=PRODUCT('IsoTurningInsert','IsoTurningInsert',' ',(#21));
#21=PRODUCT_CONTEXT(' ',#23,'mechanical');
#22=APPLICATION_PROTOCOL_DEFINITION('international standard','automotive_design',
     2010,#23);
#23=APPLICATION_CONTEXT('core data for automotive mechanical design processes');
#24=SHAPE_REPRESENTATION('IsoTurningInsert-None',(#248),#447);
#25=GEOMETRIC_CURVE_SET('geometric curve set',(#228));
#26=SURFACE_STYLE_USAGE(.BOTH.,#27);
#27=SURFACE_SIDE_STYLE('',(#28));
#28=SURFACE_STYLE_FILL_AREA(#29);
#29=FILL_AREA_STYLE('',(#30));
#30=FILL_AREA_STYLE_COLOUR('',#247);
#31=MANIFOLD_SOLID_BREP('CUT',#32);
#32=CLOSED_SHELL('',(#46,#47,#48,#49,#50,#51,#52,#53,#54,#55,#56));
#33=CYLINDRICAL_SURFACE('',#267,0.396875000000004);
#34=CYLINDRICAL_SURFACE('',#268,0.396875000000004);
#35=CYLINDRICAL_SURFACE('',#269,0.396875000000004);
#36=CYLINDRICAL_SURFACE('',#270,0.396875000000004);
#37=CYLINDRICAL_SURFACE('',#271,1.905);
#38=FACE_OUTER_BOUND('',#103,.T.);
#39=FACE_OUTER_BOUND('',#104,.T.);
#40=FACE_OUTER_BOUND('',#105,.T.);
#41=FACE_OUTER_BOUND('',#106,.T.);
#42=FACE_OUTER_BOUND('',#109,.T.);
#43=FACE_OUTER_BOUND('',#110,.T.);
#44=FACE_OUTER_BOUND('',#111,.T.);
#45=FACE_OUTER_BOUND('',#112,.T.);
#46=ADVANCED_FACE('',(#95,#96),#57,.F.);
#47=ADVANCED_FACE('',(#38),#58,.T.);
#48=ADVANCED_FACE('',(#39),#59,.T.);
#49=ADVANCED_FACE('',(#40),#60,.T.);
#50=ADVANCED_FACE('',(#41),#61,.T.);
#51=ADVANCED_FACE('',(#97,#98),#62,.T.);
#52=ADVANCED_FACE('',(#42),#33,.T.);
#53=ADVANCED_FACE('',(#43),#34,.T.);
#54=ADVANCED_FACE('',(#44),#35,.T.);
#55=ADVANCED_FACE('',(#45),#36,.T.);
#56=ADVANCED_FACE('',(#99,#100),#37,.F.);
#57=PLANE('',#256);
#58=PLANE('',#257);
#59=PLANE('',#258);
#60=PLANE('',#259);
#61=PLANE('',#260);
#62=PLANE('',#266);
#63=LINE('',#393,#79);
#64=LINE('',#398,#80);
#65=LINE('',#402,#81);
#66=LINE('',#406,#82);
#67=LINE('',#410,#83);
#68=LINE('',#413,#84);
#69=LINE('',#414,#85);
#70=LINE('',#416,#86);
#71=LINE('',#418,#87);
#72=LINE('',#420,#88);
#73=LINE('',#422,#89);
#74=LINE('',#424,#90);
#75=LINE('',#426,#91);
#76=LINE('',#428,#92);
#77=LINE('',#430,#93);
#78=LINE('',#432,#94);
#79=VECTOR('',#280,1.0);
#80=VECTOR('',#283,1.0);
#81=VECTOR('',#286,1.0);
#82=VECTOR('',#289,1.0);
#83=VECTOR('',#294,1.0);
#84=VECTOR('',#295,1.0);
#85=VECTOR('',#296,1.0);
#86=VECTOR('',#299,1.0);
#87=VECTOR('',#300,1.0);
#88=VECTOR('',#301,1.0);
#89=VECTOR('',#304,1.0);
#90=VECTOR('',#305,1.0);
#91=VECTOR('',#306,1.0);
#92=VECTOR('',#309,1.0);
#93=VECTOR('',#310,1.0);
#94=VECTOR('',#311,1.0);
#95=FACE_BOUND('',#101,.T.);
#96=FACE_BOUND('',#102,.T.);
#97=FACE_BOUND('',#107,.T.);
#98=FACE_BOUND('',#108,.T.);
#99=FACE_BOUND('',#113,.T.);
#100=FACE_BOUND('',#114,.T.);
#101=EDGE_LOOP('',(#115));
#102=EDGE_LOOP('',(#116,#117,#118,#119,#120,#121,#122,#123));
#103=EDGE_LOOP('',(#124,#125,#126,#127));
#104=EDGE_LOOP('',(#128,#129,#130,#131));
#105=EDGE_LOOP('',(#132,#133,#134,#135));
#106=EDGE_LOOP('',(#136,#137,#138,#139));
#107=EDGE_LOOP('',(#140));
#108=EDGE_LOOP('',(#141,#142,#143,#144,#145,#146,#147,#148));
#109=EDGE_LOOP('',(#149,#150,#151,#152));
#110=EDGE_LOOP('',(#153,#154,#155,#156));
#111=EDGE_LOOP('',(#157,#158,#159,#160));
#112=EDGE_LOOP('',(#161,#162,#163,#164));
#113=EDGE_LOOP('',(#165));
#114=EDGE_LOOP('',(#166));
#115=ORIENTED_EDGE('',*,*,#185,.T.);
#116=ORIENTED_EDGE('',*,*,#186,.T.);
#117=ORIENTED_EDGE('',*,*,#187,.T.);
#118=ORIENTED_EDGE('',*,*,#188,.T.);
#119=ORIENTED_EDGE('',*,*,#189,.T.);
#120=ORIENTED_EDGE('',*,*,#190,.T.);
#121=ORIENTED_EDGE('',*,*,#191,.T.);
#122=ORIENTED_EDGE('',*,*,#192,.T.);
#123=ORIENTED_EDGE('',*,*,#193,.T.);
#124=ORIENTED_EDGE('',*,*,#194,.F.);
#125=ORIENTED_EDGE('',*,*,#195,.T.);
#126=ORIENTED_EDGE('',*,*,#186,.F.);
#127=ORIENTED_EDGE('',*,*,#196,.T.);
#128=ORIENTED_EDGE('',*,*,#192,.F.);
#129=ORIENTED_EDGE('',*,*,#197,.T.);
#130=ORIENTED_EDGE('',*,*,#198,.F.);
#131=ORIENTED_EDGE('',*,*,#199,.T.);
#132=ORIENTED_EDGE('',*,*,#190,.F.);
#133=ORIENTED_EDGE('',*,*,#200,.T.);
#134=ORIENTED_EDGE('',*,*,#201,.F.);
#135=ORIENTED_EDGE('',*,*,#202,.T.);
#136=ORIENTED_EDGE('',*,*,#188,.F.);
#137=ORIENTED_EDGE('',*,*,#203,.T.);
#138=ORIENTED_EDGE('',*,*,#204,.F.);
#139=ORIENTED_EDGE('',*,*,#205,.T.);
#140=ORIENTED_EDGE('',*,*,#206,.F.);
#141=ORIENTED_EDGE('',*,*,#204,.T.);
#142=ORIENTED_EDGE('',*,*,#207,.T.);
#143=ORIENTED_EDGE('',*,*,#194,.T.);
#144=ORIENTED_EDGE('',*,*,#208,.T.);
#145=ORIENTED_EDGE('',*,*,#198,.T.);
#146=ORIENTED_EDGE('',*,*,#209,.T.);
#147=ORIENTED_EDGE('',*,*,#201,.T.);
#148=ORIENTED_EDGE('',*,*,#210,.T.);
#149=ORIENTED_EDGE('',*,*,#187,.F.);
#150=ORIENTED_EDGE('',*,*,#195,.F.);
#151=ORIENTED_EDGE('',*,*,#207,.F.);
#152=ORIENTED_EDGE('',*,*,#203,.F.);
#153=ORIENTED_EDGE('',*,*,#189,.F.);
#154=ORIENTED_EDGE('',*,*,#205,.F.);
#155=ORIENTED_EDGE('',*,*,#210,.F.);
#156=ORIENTED_EDGE('',*,*,#200,.F.);
#157=ORIENTED_EDGE('',*,*,#191,.F.);
#158=ORIENTED_EDGE('',*,*,#202,.F.);
#159=ORIENTED_EDGE('',*,*,#209,.F.);
#160=ORIENTED_EDGE('',*,*,#197,.F.);
#161=ORIENTED_EDGE('',*,*,#193,.F.);
#162=ORIENTED_EDGE('',*,*,#199,.F.);
#163=ORIENTED_EDGE('',*,*,#208,.F.);
#164=ORIENTED_EDGE('',*,*,#196,.F.);
#165=ORIENTED_EDGE('',*,*,#185,.F.);
#166=ORIENTED_EDGE('',*,*,#206,.T.);
#167=VERTEX_POINT('',#392);
#168=VERTEX_POINT('',#394);
#169=VERTEX_POINT('',#395);
#170=VERTEX_POINT('',#397);
#171=VERTEX_POINT('',#399);
#172=VERTEX_POINT('',#401);
#173=VERTEX_POINT('',#403);
#174=VERTEX_POINT('',#405);
#175=VERTEX_POINT('',#407);
#176=VERTEX_POINT('',#411);
#177=VERTEX_POINT('',#412);
#178=VERTEX_POINT('',#417);
#179=VERTEX_POINT('',#419);
#180=VERTEX_POINT('',#423);
#181=VERTEX_POINT('',#425);
#182=VERTEX_POINT('',#429);
#183=VERTEX_POINT('',#431);
#184=VERTEX_POINT('',#435);
#185=EDGE_CURVE('',#167,#167,#211,.T.);
#186=EDGE_CURVE('',#168,#169,#63,.T.);
#187=EDGE_CURVE('',#169,#170,#212,.T.);
#188=EDGE_CURVE('',#170,#171,#64,.T.);
#189=EDGE_CURVE('',#171,#172,#213,.T.);
#190=EDGE_CURVE('',#172,#173,#65,.T.);
#191=EDGE_CURVE('',#173,#174,#214,.T.);
#192=EDGE_CURVE('',#174,#175,#66,.T.);
#193=EDGE_CURVE('',#175,#168,#215,.T.);
#194=EDGE_CURVE('',#176,#177,#67,.T.);
#195=EDGE_CURVE('',#176,#169,#68,.T.);
#196=EDGE_CURVE('',#168,#177,#69,.T.);
#197=EDGE_CURVE('',#174,#178,#70,.T.);
#198=EDGE_CURVE('',#179,#178,#71,.T.);
#199=EDGE_CURVE('',#179,#175,#72,.T.);
#200=EDGE_CURVE('',#172,#180,#73,.T.);
#201=EDGE_CURVE('',#181,#180,#74,.T.);
#202=EDGE_CURVE('',#181,#173,#75,.T.);
#203=EDGE_CURVE('',#170,#182,#76,.T.);
#204=EDGE_CURVE('',#183,#182,#77,.T.);
#205=EDGE_CURVE('',#183,#171,#78,.T.);
#206=EDGE_CURVE('',#184,#184,#216,.T.);
#207=EDGE_CURVE('',#182,#176,#217,.T.);
#208=EDGE_CURVE('',#177,#179,#218,.T.);
#209=EDGE_CURVE('',#178,#181,#219,.T.);
#210=EDGE_CURVE('',#180,#183,#220,.T.);
#211=CIRCLE('',#251,1.905);
#212=CIRCLE('',#252,0.396875000000004);
#213=CIRCLE('',#253,0.396875000000004);
#214=CIRCLE('',#254,0.396875000000004);
#215=CIRCLE('',#255,0.396875000000004);
#216=CIRCLE('',#261,1.905);
#217=CIRCLE('',#262,0.396875000000004);
#218=CIRCLE('',#263,0.396875000000004);
#219=CIRCLE('',#264,0.396875000000004);
#220=CIRCLE('',#265,0.396875000000004);
#221=CURVE_STYLE('',#225,POSITIVE_LENGTH_MEASURE(0.18),#224);
#222=CURVE_STYLE('',#226,POSITIVE_LENGTH_MEASURE(0.18),#246);
#223=CURVE_STYLE('',#227,POSITIVE_LENGTH_MEASURE(0.18),#246);
#224=DRAUGHTING_PRE_DEFINED_COLOUR('blue');
#225=DRAUGHTING_PRE_DEFINED_CURVE_FONT('continuous');
#226=DRAUGHTING_PRE_DEFINED_CURVE_FONT('continuous');
#227=DRAUGHTING_PRE_DEFINED_CURVE_FONT('continuous');
#228=B_SPLINE_CURVE_WITH_KNOTS('CUTTING EDGE LINE',5,(#339,#340,#341,#342,#343,#344,
     #345,#346,#347,#348,#349,#350,#351,#352,#353,#354,#355,#356,#357,#358,#359,
     #360,#361,#362,#363,#364,#365,#366,#367,#368,#369,#370,#371,#372,#373,#374,
     #375,#376,#377,#378,#379,#380,#381,#382,#383,#384,#385,#386,#387,#388),.UNSPECIFIED.,
     .T.,.F.,(2,4,1,4,4,1,1,1,1,1,1,1,4,4,1,4,4,1,1,1,1,1,1,1,4,4,1,1),(-0.2401644812,
     0.0,0.001912462,0.003824924,0.2439894051,0.2459701693125,0.247950933525049,
     0.2499316977375,0.251912461950037,0.2538932261625,0.255873990375046,0.2578547545875,
     0.2598355188,0.5,0.501912462,0.503824924,0.7439894051,0.7459701693125,0.747950933525049,
     0.7499316977375,0.751912461950037,0.7538932261625,0.755873990375047,0.7578547545875,
     0.7598355188,1.0,1.001912462,1.003824924),.UNSPECIFIED.);
#229=PRESENTATION_LAYER_ASSIGNMENT('1','Layer 1',(#228,#249,#250,#31));
#232=STYLED_ITEM('',(#238),#228);
#233=STYLED_ITEM('',(#239),#249);
#234=STYLED_ITEM('',(#240),#250);
#235=STYLED_ITEM('',(#241),#31);
#236=PRESENTATION_STYLE_ASSIGNMENT((#242));
#237=PRESENTATION_STYLE_ASSIGNMENT((#243));
#238=PRESENTATION_STYLE_ASSIGNMENT((#221));
#239=PRESENTATION_STYLE_ASSIGNMENT((#222));
#240=PRESENTATION_STYLE_ASSIGNMENT((#223));
#241=PRESENTATION_STYLE_ASSIGNMENT((#26));
#242=POINT_STYLE('',#244,POSITIVE_LENGTH_MEASURE(3.0),#246);
#243=POINT_STYLE('',#245,POSITIVE_LENGTH_MEASURE(3.0),#246);
#244=PRE_DEFINED_POINT_MARKER_SYMBOL('plus');
#245=PRE_DEFINED_POINT_MARKER_SYMBOL('plus');
#246=COLOUR_RGB('Medium Maroon',0.6,0.4,0.4);
#247=COLOUR_RGB('IsoInsertColor',0.8,0.8,0.8);
#248=AXIS2_PLACEMENT_3D('',#336,#272,#273);
#249=AXIS2_PLACEMENT_3D('PCS',#389,#274,#275);
#250=AXIS2_PLACEMENT_3D('MCS',#390,#276,#277);
#251=AXIS2_PLACEMENT_3D('',#391,#278,#279);
#252=AXIS2_PLACEMENT_3D('',#396,#281,#282);
#253=AXIS2_PLACEMENT_3D('',#400,#284,#285);
#254=AXIS2_PLACEMENT_3D('',#404,#287,#288);
#255=AXIS2_PLACEMENT_3D('',#408,#290,#291);
#256=AXIS2_PLACEMENT_3D('',#409,#292,#293);
#257=AXIS2_PLACEMENT_3D('',#415,#297,#298);
#258=AXIS2_PLACEMENT_3D('',#421,#302,#303);
#259=AXIS2_PLACEMENT_3D('',#427,#307,#308);
#260=AXIS2_PLACEMENT_3D('',#433,#312,#313);
#261=AXIS2_PLACEMENT_3D('',#434,#314,#315);
#262=AXIS2_PLACEMENT_3D('',#436,#316,#317);
#263=AXIS2_PLACEMENT_3D('',#437,#318,#319);
#264=AXIS2_PLACEMENT_3D('',#438,#320,#321);
#265=AXIS2_PLACEMENT_3D('',#439,#322,#323);
#266=AXIS2_PLACEMENT_3D('',#440,#324,#325);
#267=AXIS2_PLACEMENT_3D('',#441,#326,#327);
#268=AXIS2_PLACEMENT_3D('',#442,#328,#329);
#269=AXIS2_PLACEMENT_3D('',#443,#330,#331);
#270=AXIS2_PLACEMENT_3D('',#444,#332,#333);
#271=AXIS2_PLACEMENT_3D('',#445,#334,#335);
#272=DIRECTION('',(0.0,0.0,1.0));
#273=DIRECTION('',(1.0,0.0,0.0));
#274=DIRECTION('',(0.0,0.0,1.0));
#275=DIRECTION('',(1.0,0.0,0.0));
#276=DIRECTION('',(0.0,0.0,1.0));
#277=DIRECTION('',(1.0,0.0,0.0));
#278=DIRECTION('',(0.0,0.0,1.0));
#279=DIRECTION('',(-0.953716950748226,-0.300705799504274,0.0));
#280=DIRECTION('',(1.0,9.43689570931383E-16,0.0));
#281=DIRECTION('',(0.0,0.0,-1.0));
#282=DIRECTION('',(-0.953716950748229,-0.300705799504274,0.0));
#283=DIRECTION('',(-0.819152044288991,-0.573576436351047,0.0));
#284=DIRECTION('',(0.0,0.0,-1.0));
#285=DIRECTION('',(-0.953716950748229,-0.300705799504273,0.0));
#286=DIRECTION('',(-1.0,1.66533453693773E-16,0.0));
#287=DIRECTION('',(0.0,0.0,-1.0));
#288=DIRECTION('',(-0.953716950748227,-0.300705799504273,0.0));
#289=DIRECTION('',(0.819152044288992,0.573576436351046,0.0));
#290=DIRECTION('',(0.0,0.0,-1.0));
#291=DIRECTION('',(-0.953716950748225,-0.300705799504274,0.0));
#292=DIRECTION('',(0.0,0.0,1.0));
#293=DIRECTION('',(-0.953716950748227,-0.300705799504273,0.0));
#294=DIRECTION('',(-1.0,-9.43689570931383E-16,-8.02264902071657E-17));
#295=DIRECTION('',(8.02264902071663E-17,-6.05579448138538E-16,-1.0));
#296=DIRECTION('',(-8.02264902071663E-17,6.05579448138538E-16,1.0));
#297=DIRECTION('',(-9.43689570931383E-16,1.0,-6.05579448138538E-16));
#298=DIRECTION('',(-1.0,-9.43689570931383E-16,0.0));
#299=DIRECTION('',(-8.02264902071663E-17,6.05579448138538E-16,1.0));
#300=DIRECTION('',(-0.819152044288992,-0.573576436351046,2.81628408331405E-16));
#301=DIRECTION('',(8.02264902071663E-17,-6.05579448138538E-16,-1.0));
#302=DIRECTION('',(-0.573576436351046,0.819152044288992,-5.42077667276061E-16));
#303=DIRECTION('',(-0.819152044288992,-0.573576436351046,0.0));
#304=DIRECTION('',(-8.02264902071663E-17,6.05579448138538E-16,1.0));
#305=DIRECTION('',(1.0,-1.66533453693773E-16,8.02264902071664E-17));
#306=DIRECTION('',(8.02264902071663E-17,-6.05579448138538E-16,-1.0));
#307=DIRECTION('',(-1.66533453693773E-16,-1.0,6.05579448138537E-16));
#308=DIRECTION('',(1.0,-1.66533453693773E-16,0.0));
#309=DIRECTION('',(-8.02264902071663E-17,6.05579448138538E-16,1.0));
#310=DIRECTION('',(0.819152044288991,0.573576436351047,-2.81628408331405E-16));
#311=DIRECTION('',(8.02264902071663E-17,-6.05579448138538E-16,-1.0));
#312=DIRECTION('',(0.573576436351047,-0.819152044288991,5.4207766727606E-16));
#313=DIRECTION('',(0.819152044288991,0.573576436351047,0.0));
#314=DIRECTION('',(0.0,0.0,1.0));
#315=DIRECTION('',(-0.953716950748226,-0.300705799504274,0.0));
#316=DIRECTION('',(-8.02264902071663E-17,6.05579448138538E-16,1.0));
#317=DIRECTION('',(-0.30070579950427,0.953716950748225,-6.01675955593648E-16));
#318=DIRECTION('',(-8.02264902071663E-17,6.05579448138538E-16,1.0));
#319=DIRECTION('',(-0.300705799504274,0.953716950748225,-6.01675955593648E-16));
#320=DIRECTION('',(-8.02264902071663E-17,6.05579448138538E-16,1.0));
#321=DIRECTION('',(-0.300705799504273,0.953716950748227,-6.01675955593647E-16));
#322=DIRECTION('',(-8.02264902071663E-17,6.05579448138538E-16,1.0));
#323=DIRECTION('',(-0.30070579950427,0.953716950748227,-6.01675955593648E-16));
#324=DIRECTION('',(-8.02264902071663E-17,6.05579448138538E-16,1.0));
#325=DIRECTION('',(-0.300705799504273,0.953716950748227,-6.01675955593648E-16));
#326=DIRECTION('',(-8.02264902071663E-17,6.05579448138538E-16,1.0));
#327=DIRECTION('',(-0.30070579950427,0.953716950748225,-6.01675955593648E-16));
#328=DIRECTION('',(-8.02264902071663E-17,6.05579448138538E-16,1.0));
#329=DIRECTION('',(-0.30070579950427,0.953716950748227,-6.01675955593648E-16));
#330=DIRECTION('',(-8.02264902071663E-17,6.05579448138538E-16,1.0));
#331=DIRECTION('',(-0.300705799504273,0.953716950748227,-6.01675955593648E-16));
#332=DIRECTION('',(-8.02264902071663E-17,6.05579448138538E-16,1.0));
#333=DIRECTION('',(-0.300705799504274,0.953716950748225,-6.01675955593648E-16));
#334=DIRECTION('',(0.0,0.0,1.0));
#335=DIRECTION('',(-0.953716950748226,-0.300705799504274,0.0));
#336=CARTESIAN_POINT('',(0.0,0.0,0.0));
#339=CARTESIAN_POINT('',(13.4367025546013,-3.5527136788005E-15,4.43734259186819E-32));
#340=CARTESIAN_POINT('',(16.5050650442902,-5.32907051820075E-15,2.42254231293518E-16));
#341=CARTESIAN_POINT('',(16.5528020899615,0.00358870162113778,2.43910762973322E-16));
#342=CARTESIAN_POINT('',(16.6017647228591,0.01448151909507,2.41994719926169E-16));
#343=CARTESIAN_POINT('',(16.6481204271195,0.0336424578849925,2.21084405324518E-16));
#344=CARTESIAN_POINT('',(16.6892827203564,0.0580836101537656,1.5632228605545E-16));
#345=CARTESIAN_POINT('',(19.2027381264048,1.8180240324228,2.15137074200189E-17));
#346=CARTESIAN_POINT('',(21.6966415831782,3.5642740324228,-9.86076131526265E-33));
#347=CARTESIAN_POINT('',(24.1905450399516,5.3105240324228,5.91645678915759E-32));
#348=CARTESIAN_POINT('',(26.6844484967251,7.0567740324228,2.1513707420019E-17));
#349=CARTESIAN_POINT('',(29.1975754873805,8.81648449575806,1.22473101214597E-16));
#350=CARTESIAN_POINT('',(29.2340327296847,8.84624718769398,1.41091518546309E-16));
#351=CARTESIAN_POINT('',(29.2871947594799,8.90391630451427,1.44841676148314E-16));
#352=CARTESIAN_POINT('',(29.3364899556373,8.99591670993017,1.08398159920536E-16));
#353=CARTESIAN_POINT('',(29.3582342433164,9.13042881280308,3.19003468757932E-17));
#354=CARTESIAN_POINT('',(29.3368589045799,9.24987608212826,-4.2715685461257E-17));
#355=CARTESIAN_POINT('',(29.2858564179306,9.35998194760069,-1.14223719466174E-16));
#356=CARTESIAN_POINT('',(29.1908915676145,9.45769580061082,-1.77378422305532E-16));
#357=CARTESIAN_POINT('',(29.0977420422279,9.50478355784105,-1.96275016060065E-16));
#358=CARTESIAN_POINT('',(29.0211166103294,9.52153084517728,-1.74121656201258E-16));
#359=CARTESIAN_POINT('',(28.9741814069911,9.52500000000001,-1.42320882772472E-16));
#360=CARTESIAN_POINT('',(25.9062198384683,9.525,-2.40339343479984E-17));
#361=CARTESIAN_POINT('',(22.861725871615,9.525,-8.38164711797325E-32));
#362=CARTESIAN_POINT('',(19.8172319047616,9.525,-1.97215226305253E-32));
#363=CARTESIAN_POINT('',(16.7727379379083,9.525,-2.40339343479985E-17));
#364=CARTESIAN_POINT('',(13.7043754482193,9.52499999999999,-1.69040064482381E-16));
#365=CARTESIAN_POINT('',(13.656638402548,9.52141129837885,-2.301995083551E-16));
#366=CARTESIAN_POINT('',(13.6076757696504,9.51051848090492,-2.42835174109724E-16));
#367=CARTESIAN_POINT('',(13.5613200653901,9.49135754211499,-2.21084405324517E-16));
#368=CARTESIAN_POINT('',(13.5201577721531,9.46691638984622,-1.56322286055449E-16));
#369=CARTESIAN_POINT('',(11.0067023661047,7.70697596757719,-2.15137074200189E-17));
#370=CARTESIAN_POINT('',(8.51279890933132,5.96072596757719,3.94430452610506E-32));
#371=CARTESIAN_POINT('',(6.01889545255791,4.21447596757719,0.0));
#372=CARTESIAN_POINT('',(3.5249919957845,2.46822596757719,-2.15137074200189E-17));
#373=CARTESIAN_POINT('',(1.01186500512902,0.708515504241942,-1.22473101214597E-16));
#374=CARTESIAN_POINT('',(0.975407762824817,0.67875281230603,-1.41091518546309E-16));
#375=CARTESIAN_POINT('',(0.922245733029627,0.62108369548573,-1.44841676148314E-16));
#376=CARTESIAN_POINT('',(0.872950536872233,0.529083290069832,-1.08398159920535E-16));
#377=CARTESIAN_POINT('',(0.85120624919319,0.394571187196915,-3.19003468757918E-17));
#378=CARTESIAN_POINT('',(0.872581587929687,0.275123917871739,4.2715685461258E-17));
#379=CARTESIAN_POINT('',(0.923584074578883,0.165018052399295,1.14223719466176E-16));
#380=CARTESIAN_POINT('',(1.01854892489504,0.0673041993891825,1.77378422305532E-16));
#381=CARTESIAN_POINT('',(1.11169845028167,0.0202164421589393,1.96275016060066E-16));
#382=CARTESIAN_POINT('',(1.18832388218016,0.00346915482272703,1.74121656201258E-16));
#383=CARTESIAN_POINT('',(1.23525908551847,-4.44089209850063E-15,1.42320882772472E-16));
#384=CARTESIAN_POINT('',(4.30322065404124,-2.66453525910038E-15,2.40339343479984E-17));
#385=CARTESIAN_POINT('',(7.34771462089458,-1.77635683940025E-15,-3.94430452610506E-32));
#386=CARTESIAN_POINT('',(10.3922085877479,-2.66453525910038E-15,6.40949485492072E-32));
#387=CARTESIAN_POINT('',(13.4367025546013,-3.5527136788005E-15,4.43734259186819E-32));
#388=CARTESIAN_POINT('',(16.5050650442902,-5.32907051820075E-15,2.42254231293518E-16));
#389=CARTESIAN_POINT('',(0.0,0.0,0.0));
#390=CARTESIAN_POINT('',(15.1047202462548,4.7625,0.0));
#391=CARTESIAN_POINT('',(15.1047202462548,4.7625,-4.7625));
#392=CARTESIAN_POINT('',(13.2878894550794,4.18965545194436,-4.7625));
#393=CARTESIAN_POINT('',(15.1047202462548,9.52499999999999,-4.7625));
#394=CARTESIAN_POINT('',(13.728243971055,9.52499999999999,-4.7625));
#395=CARTESIAN_POINT('',(28.9507138053216,9.525,-4.7625));
#396=CARTESIAN_POINT('',(28.9507138053216,9.128125,-4.7625));
#397=CARTESIAN_POINT('',(29.1783519534985,8.8030240324228,-4.7625));
#398=CARTESIAN_POINT('',(17.8363780243766,0.861288389073673,-4.7625));
#399=CARTESIAN_POINT('',(16.7088346696314,0.071774032422799,-4.7625));
#400=CARTESIAN_POINT('',(16.4811965214546,0.396874999999996,-4.7625));
#401=CARTESIAN_POINT('',(16.4811965214546,-6.07153216591882E-15,-4.7625));
#402=CARTESIAN_POINT('',(15.1047202462548,-6.07153216591882E-15,-4.7625));
#403=CARTESIAN_POINT('',(1.25872668718791,-2.60208521396521E-15,-4.7625));
#404=CARTESIAN_POINT('',(1.25872668718791,0.396874999999997,-4.7625));
#405=CARTESIAN_POINT('',(1.03108853901109,0.721975967577195,-4.7625));
#406=CARTESIAN_POINT('',(12.3730624681329,8.66371161092631,-4.7625));
#407=CARTESIAN_POINT('',(13.5006058228781,9.45322596757718,-4.7625));
#408=CARTESIAN_POINT('',(13.728243971055,9.12812499999998,-4.7625));
#409=CARTESIAN_POINT('',(14.8598410645383,4.29209146865531,-4.7625));
#410=CARTESIAN_POINT('',(15.1047202462548,9.52499999999999,-5.81748951963656E-15));
#411=CARTESIAN_POINT('',(28.9507138053216,9.52500000000001,-4.7066740529616E-15));
#412=CARTESIAN_POINT('',(13.728243971055,9.52499999999999,-5.92791938004927E-15));
#413=CARTESIAN_POINT('',(28.9507138053216,9.52500000000001,-4.33680868994202E-15));
#414=CARTESIAN_POINT('',(13.728243971055,9.52499999999999,-5.20417042793042E-15));
#415=CARTESIAN_POINT('',(15.1047202462548,9.52499999999999,-5.81748951963656E-15));
#416=CARTESIAN_POINT('',(1.03108853901109,0.721975967577198,-8.67361737988404E-16));
#417=CARTESIAN_POINT('',(1.03108853901109,0.721975967577198,-1.61563716047213E-15));
#418=CARTESIAN_POINT('',(12.3730624681329,8.66371161092632,-5.51506228827902E-15));
#419=CARTESIAN_POINT('',(13.5006058228781,9.45322596757718,-5.90271711076948E-15));
#420=CARTESIAN_POINT('',(13.5006058228781,9.45322596757718,-5.20417042793042E-15));
#421=CARTESIAN_POINT('',(12.3730624681329,8.66371161092631,-5.51506228827901E-15));
#422=CARTESIAN_POINT('',(16.4811965214546,-3.46944695195361E-15,-6.37964294078272E-31));
#423=CARTESIAN_POINT('',(16.4811965214546,-3.46944695195361E-15,6.10845842957207E-17));
#424=CARTESIAN_POINT('',(15.1047202462548,-3.46944695195361E-15,-4.93452761169929E-17));
#425=CARTESIAN_POINT('',(1.25872668718791,0.0,-1.16016074279196E-15));
#426=CARTESIAN_POINT('',(1.25872668718791,0.0,-8.67361737988405E-16));
#427=CARTESIAN_POINT('',(15.1047202462548,-2.60208521396521E-15,-4.93452761169945E-17));
#428=CARTESIAN_POINT('',(29.1783519534985,8.8030240324228,-4.33680868994202E-15));
#429=CARTESIAN_POINT('',(29.1783519534985,8.8030240324228,-4.25119763528143E-15));
#430=CARTESIAN_POINT('',(17.8363780243767,0.861288389073683,-3.51772507474542E-16));
#431=CARTESIAN_POINT('',(16.7088346696314,0.0717740324228016,3.58823150159268E-17));
#432=CARTESIAN_POINT('',(16.7088346696314,0.0717740324228016,-4.33334237487128E-31));
#433=CARTESIAN_POINT('',(17.8363780243766,0.861288389073676,-3.51772507474539E-16));
#434=CARTESIAN_POINT('',(15.1047202462548,4.7625,-6.93889390390723E-15));
#435=CARTESIAN_POINT('',(13.2878894550794,4.18965545194436,-6.93889390390723E-15));
#436=CARTESIAN_POINT('',(28.9507138053216,9.128125,-4.46633470948162E-15));
#437=CARTESIAN_POINT('',(13.728243971055,9.12812499999999,-5.68758003656929E-15));
#438=CARTESIAN_POINT('',(1.25872668718791,0.396875,-1.40050008627194E-15));
#439=CARTESIAN_POINT('',(16.4811965214546,0.396874999999999,-1.79254759184262E-16));
#440=CARTESIAN_POINT('',(15.1047202462548,4.7625,-2.93341739787678E-15));
#441=CARTESIAN_POINT('',(28.9507138053216,9.128125,-4.33680868994202E-15));
#442=CARTESIAN_POINT('',(16.4811965214546,0.396874999999999,0.0));
#443=CARTESIAN_POINT('',(1.25872668718791,0.396875,-8.67361737988404E-16));
#444=CARTESIAN_POINT('',(13.728243971055,9.12812499999999,-5.20417042793042E-15));
#445=CARTESIAN_POINT('',(15.1047202462548,4.7625,-33.3676978394524));
#446=MECHANICAL_DESIGN_GEOMETRIC_PRESENTATION_REPRESENTATION('',(#232,#233,#234,
     #235),#447);
#447=(GEOMETRIC_REPRESENTATION_CONTEXT(3)GLOBAL_UNCERTAINTY_ASSIGNED_CONTEXT((#448))
     GLOBAL_UNIT_ASSIGNED_CONTEXT((#454,#450,#449))REPRESENTATION_CONTEXT('VNGA160404',
     'TOP_LEVEL_ASSEMBLY_PART'));
#448=UNCERTAINTY_MEASURE_WITH_UNIT(LENGTH_MEASURE(2.0E-5),#454,'DISTANCE_ACCURACY_VALUE',
     'Maximum Tolerance applied to model');
#449=(NAMED_UNIT(*)SI_UNIT($,.STERADIAN.)SOLID_ANGLE_UNIT());
#450=(CONVERSION_BASED_UNIT('DEGREE',#452)NAMED_UNIT(#451)PLANE_ANGLE_UNIT());
#451=DIMENSIONAL_EXPONENTS(0.0,0.0,0.0,0.0,0.0,0.0,0.0);
#452=PLANE_ANGLE_MEASURE_WITH_UNIT(PLANE_ANGLE_MEASURE(0.0174532925),#453);
#453=(NAMED_UNIT(*)PLANE_ANGLE_UNIT()SI_UNIT($,.RADIAN.));
#454=(LENGTH_UNIT()NAMED_UNIT(*)SI_UNIT(.MILLI.,.METRE.));
#455=CONSTRUCTIVE_GEOMETRY_REPRESENTATION('supplemental geometry',(#249,#250),#447);
#456=CONSTRUCTIVE_GEOMETRY_REPRESENTATION_RELATIONSHIP('supplemental geometry','contains PCS and MCS coordinate systems',
     #24,#455);
ENDSEC;
END-ISO-10303-21;
