ISO-10303-21;
HEADER;
FILE_DESCRIPTION(
/* description */ (''),
/* implementation_level */ '2;1');
FILE_NAME(
/* name */ 'CNMG160608.stp',
/* time_stamp */ '2017-03-21T10:53:56',
/* author */ ('Sandvik Coromant R&D'),
/* organization */ ('Sandvik Machining Solutions'),
/* preprocessor_version */ 'ST-DEVELOPER v15',
/* originating_system */ 'SIEMENS PLM Software NX v8.5.3.3(64 bits)',
/* authorization */ '');
FILE_SCHEMA(('AUTOMOTIVE_DESIGN'));
ENDSEC;
DATA;
#10=GEOMETRICALLY_BOUNDED_WIREFRAME_SHAPE_REPRESENTATION('IsoTurningInsert-None',
     (#25),#459);
#11=SHAPE_REPRESENTATION_RELATIONSHIP('None','relationship between IsoTurningInsert-None and IsoTurningInsert-None',
     #24,#13);
#12=SHAPE_REPRESENTATION_RELATIONSHIP('None','relationship between IsoTurningInsert-None and IsoTurningInsert-None',
     #24,#10);
#13=ADVANCED_BREP_SHAPE_REPRESENTATION('IsoTurningInsert-None',(#31),#459);
#14=SHAPE_DEFINITION_REPRESENTATION(#15,#24);
#15=PRODUCT_DEFINITION_SHAPE('','',#16);
#16=PRODUCT_DEFINITION(' ','',#18,#17);
#17=PRODUCT_DEFINITION_CONTEXT('part definition',#23,'design');
#18=PRODUCT_DEFINITION_FORMATION_WITH_SPECIFIED_SOURCE(' ',' ',#20,.NOT_KNOWN.);
#19=PRODUCT_RELATED_PRODUCT_CATEGORY('part','',(#20));
#20=PRODUCT('IsoTurningInsert','IsoTurningInsert',' ',(#21));
#21=PRODUCT_CONTEXT(' ',#23,'mechanical');
#22=APPLICATION_PROTOCOL_DEFINITION('international standard','automotive_design',
     2010,#23);
#23=APPLICATION_CONTEXT('core data for automotive mechanical design processes');
#24=SHAPE_REPRESENTATION('IsoTurningInsert-None',(#248),#459);
#25=GEOMETRIC_CURVE_SET('geometric curve set',(#228));
#26=SURFACE_STYLE_USAGE(.BOTH.,#27);
#27=SURFACE_SIDE_STYLE('',(#28));
#28=SURFACE_STYLE_FILL_AREA(#29);
#29=FILL_AREA_STYLE('',(#30));
#30=FILL_AREA_STYLE_COLOUR('',#247);
#31=MANIFOLD_SOLID_BREP('CUT',#32);
#32=CLOSED_SHELL('',(#46,#47,#48,#49,#50,#51,#52,#53,#54,#55,#56));
#33=CYLINDRICAL_SURFACE('',#267,0.793749999999997);
#34=CYLINDRICAL_SURFACE('',#268,0.793749999999997);
#35=CYLINDRICAL_SURFACE('',#269,0.793749999999997);
#36=CYLINDRICAL_SURFACE('',#270,0.793749999999997);
#37=CYLINDRICAL_SURFACE('',#271,3.17499999999999);
#38=FACE_OUTER_BOUND('',#103,.T.);
#39=FACE_OUTER_BOUND('',#104,.T.);
#40=FACE_OUTER_BOUND('',#105,.T.);
#41=FACE_OUTER_BOUND('',#106,.T.);
#42=FACE_OUTER_BOUND('',#109,.T.);
#43=FACE_OUTER_BOUND('',#110,.T.);
#44=FACE_OUTER_BOUND('',#111,.T.);
#45=FACE_OUTER_BOUND('',#112,.T.);
#46=ADVANCED_FACE('',(#95,#96),#57,.F.);
#47=ADVANCED_FACE('',(#38),#58,.T.);
#48=ADVANCED_FACE('',(#39),#59,.T.);
#49=ADVANCED_FACE('',(#40),#60,.T.);
#50=ADVANCED_FACE('',(#41),#61,.T.);
#51=ADVANCED_FACE('',(#97,#98),#62,.T.);
#52=ADVANCED_FACE('',(#42),#33,.T.);
#53=ADVANCED_FACE('',(#43),#34,.T.);
#54=ADVANCED_FACE('',(#44),#35,.T.);
#55=ADVANCED_FACE('',(#45),#36,.T.);
#56=ADVANCED_FACE('',(#99,#100),#37,.F.);
#57=PLANE('',#256);
#58=PLANE('',#257);
#59=PLANE('',#258);
#60=PLANE('',#259);
#61=PLANE('',#260);
#62=PLANE('',#266);
#63=LINE('',#405,#79);
#64=LINE('',#410,#80);
#65=LINE('',#414,#81);
#66=LINE('',#418,#82);
#67=LINE('',#422,#83);
#68=LINE('',#425,#84);
#69=LINE('',#426,#85);
#70=LINE('',#428,#86);
#71=LINE('',#430,#87);
#72=LINE('',#432,#88);
#73=LINE('',#434,#89);
#74=LINE('',#436,#90);
#75=LINE('',#438,#91);
#76=LINE('',#440,#92);
#77=LINE('',#442,#93);
#78=LINE('',#444,#94);
#79=VECTOR('',#280,1.0);
#80=VECTOR('',#283,1.0);
#81=VECTOR('',#286,1.0);
#82=VECTOR('',#289,1.0);
#83=VECTOR('',#294,1.0);
#84=VECTOR('',#295,1.0);
#85=VECTOR('',#296,1.0);
#86=VECTOR('',#299,1.0);
#87=VECTOR('',#300,1.0);
#88=VECTOR('',#301,1.0);
#89=VECTOR('',#304,1.0);
#90=VECTOR('',#305,1.0);
#91=VECTOR('',#306,1.0);
#92=VECTOR('',#309,1.0);
#93=VECTOR('',#310,1.0);
#94=VECTOR('',#311,1.0);
#95=FACE_BOUND('',#101,.T.);
#96=FACE_BOUND('',#102,.T.);
#97=FACE_BOUND('',#107,.T.);
#98=FACE_BOUND('',#108,.T.);
#99=FACE_BOUND('',#113,.T.);
#100=FACE_BOUND('',#114,.T.);
#101=EDGE_LOOP('',(#115));
#102=EDGE_LOOP('',(#116,#117,#118,#119,#120,#121,#122,#123));
#103=EDGE_LOOP('',(#124,#125,#126,#127));
#104=EDGE_LOOP('',(#128,#129,#130,#131));
#105=EDGE_LOOP('',(#132,#133,#134,#135));
#106=EDGE_LOOP('',(#136,#137,#138,#139));
#107=EDGE_LOOP('',(#140));
#108=EDGE_LOOP('',(#141,#142,#143,#144,#145,#146,#147,#148));
#109=EDGE_LOOP('',(#149,#150,#151,#152));
#110=EDGE_LOOP('',(#153,#154,#155,#156));
#111=EDGE_LOOP('',(#157,#158,#159,#160));
#112=EDGE_LOOP('',(#161,#162,#163,#164));
#113=EDGE_LOOP('',(#165));
#114=EDGE_LOOP('',(#166));
#115=ORIENTED_EDGE('',*,*,#185,.T.);
#116=ORIENTED_EDGE('',*,*,#186,.T.);
#117=ORIENTED_EDGE('',*,*,#187,.T.);
#118=ORIENTED_EDGE('',*,*,#188,.T.);
#119=ORIENTED_EDGE('',*,*,#189,.T.);
#120=ORIENTED_EDGE('',*,*,#190,.T.);
#121=ORIENTED_EDGE('',*,*,#191,.T.);
#122=ORIENTED_EDGE('',*,*,#192,.T.);
#123=ORIENTED_EDGE('',*,*,#193,.T.);
#124=ORIENTED_EDGE('',*,*,#194,.F.);
#125=ORIENTED_EDGE('',*,*,#195,.T.);
#126=ORIENTED_EDGE('',*,*,#186,.F.);
#127=ORIENTED_EDGE('',*,*,#196,.T.);
#128=ORIENTED_EDGE('',*,*,#192,.F.);
#129=ORIENTED_EDGE('',*,*,#197,.T.);
#130=ORIENTED_EDGE('',*,*,#198,.F.);
#131=ORIENTED_EDGE('',*,*,#199,.T.);
#132=ORIENTED_EDGE('',*,*,#190,.F.);
#133=ORIENTED_EDGE('',*,*,#200,.T.);
#134=ORIENTED_EDGE('',*,*,#201,.F.);
#135=ORIENTED_EDGE('',*,*,#202,.T.);
#136=ORIENTED_EDGE('',*,*,#188,.F.);
#137=ORIENTED_EDGE('',*,*,#203,.T.);
#138=ORIENTED_EDGE('',*,*,#204,.F.);
#139=ORIENTED_EDGE('',*,*,#205,.T.);
#140=ORIENTED_EDGE('',*,*,#206,.F.);
#141=ORIENTED_EDGE('',*,*,#204,.T.);
#142=ORIENTED_EDGE('',*,*,#207,.T.);
#143=ORIENTED_EDGE('',*,*,#194,.T.);
#144=ORIENTED_EDGE('',*,*,#208,.T.);
#145=ORIENTED_EDGE('',*,*,#198,.T.);
#146=ORIENTED_EDGE('',*,*,#209,.T.);
#147=ORIENTED_EDGE('',*,*,#201,.T.);
#148=ORIENTED_EDGE('',*,*,#210,.T.);
#149=ORIENTED_EDGE('',*,*,#187,.F.);
#150=ORIENTED_EDGE('',*,*,#195,.F.);
#151=ORIENTED_EDGE('',*,*,#207,.F.);
#152=ORIENTED_EDGE('',*,*,#203,.F.);
#153=ORIENTED_EDGE('',*,*,#189,.F.);
#154=ORIENTED_EDGE('',*,*,#205,.F.);
#155=ORIENTED_EDGE('',*,*,#210,.F.);
#156=ORIENTED_EDGE('',*,*,#200,.F.);
#157=ORIENTED_EDGE('',*,*,#191,.F.);
#158=ORIENTED_EDGE('',*,*,#202,.F.);
#159=ORIENTED_EDGE('',*,*,#209,.F.);
#160=ORIENTED_EDGE('',*,*,#197,.F.);
#161=ORIENTED_EDGE('',*,*,#193,.F.);
#162=ORIENTED_EDGE('',*,*,#199,.F.);
#163=ORIENTED_EDGE('',*,*,#208,.F.);
#164=ORIENTED_EDGE('',*,*,#196,.F.);
#165=ORIENTED_EDGE('',*,*,#185,.F.);
#166=ORIENTED_EDGE('',*,*,#206,.T.);
#167=VERTEX_POINT('',#404);
#168=VERTEX_POINT('',#406);
#169=VERTEX_POINT('',#407);
#170=VERTEX_POINT('',#409);
#171=VERTEX_POINT('',#411);
#172=VERTEX_POINT('',#413);
#173=VERTEX_POINT('',#415);
#174=VERTEX_POINT('',#417);
#175=VERTEX_POINT('',#419);
#176=VERTEX_POINT('',#423);
#177=VERTEX_POINT('',#424);
#178=VERTEX_POINT('',#429);
#179=VERTEX_POINT('',#431);
#180=VERTEX_POINT('',#435);
#181=VERTEX_POINT('',#437);
#182=VERTEX_POINT('',#441);
#183=VERTEX_POINT('',#443);
#184=VERTEX_POINT('',#447);
#185=EDGE_CURVE('',#167,#167,#211,.T.);
#186=EDGE_CURVE('',#168,#169,#63,.T.);
#187=EDGE_CURVE('',#169,#170,#212,.T.);
#188=EDGE_CURVE('',#170,#171,#64,.T.);
#189=EDGE_CURVE('',#171,#172,#213,.T.);
#190=EDGE_CURVE('',#172,#173,#65,.T.);
#191=EDGE_CURVE('',#173,#174,#214,.T.);
#192=EDGE_CURVE('',#174,#175,#66,.T.);
#193=EDGE_CURVE('',#175,#168,#215,.T.);
#194=EDGE_CURVE('',#176,#177,#67,.T.);
#195=EDGE_CURVE('',#176,#169,#68,.T.);
#196=EDGE_CURVE('',#168,#177,#69,.T.);
#197=EDGE_CURVE('',#174,#178,#70,.T.);
#198=EDGE_CURVE('',#179,#178,#71,.T.);
#199=EDGE_CURVE('',#179,#175,#72,.T.);
#200=EDGE_CURVE('',#172,#180,#73,.T.);
#201=EDGE_CURVE('',#181,#180,#74,.T.);
#202=EDGE_CURVE('',#181,#173,#75,.T.);
#203=EDGE_CURVE('',#170,#182,#76,.T.);
#204=EDGE_CURVE('',#183,#182,#77,.T.);
#205=EDGE_CURVE('',#183,#171,#78,.T.);
#206=EDGE_CURVE('',#184,#184,#216,.T.);
#207=EDGE_CURVE('',#182,#176,#217,.T.);
#208=EDGE_CURVE('',#177,#179,#218,.T.);
#209=EDGE_CURVE('',#178,#181,#219,.T.);
#210=EDGE_CURVE('',#180,#183,#220,.T.);
#211=CIRCLE('',#251,3.17499999999999);
#212=CIRCLE('',#252,0.793749999999997);
#213=CIRCLE('',#253,0.793749999999997);
#214=CIRCLE('',#254,0.793749999999997);
#215=CIRCLE('',#255,0.793749999999997);
#216=CIRCLE('',#261,3.17499999999999);
#217=CIRCLE('',#262,0.793749999999997);
#218=CIRCLE('',#263,0.793749999999997);
#219=CIRCLE('',#264,0.793749999999997);
#220=CIRCLE('',#265,0.793749999999997);
#221=CURVE_STYLE('',#225,POSITIVE_LENGTH_MEASURE(0.18),#224);
#222=CURVE_STYLE('',#226,POSITIVE_LENGTH_MEASURE(0.18),#246);
#223=CURVE_STYLE('',#227,POSITIVE_LENGTH_MEASURE(0.18),#246);
#224=DRAUGHTING_PRE_DEFINED_COLOUR('blue');
#225=DRAUGHTING_PRE_DEFINED_CURVE_FONT('continuous');
#226=DRAUGHTING_PRE_DEFINED_CURVE_FONT('continuous');
#227=DRAUGHTING_PRE_DEFINED_CURVE_FONT('continuous');
#228=B_SPLINE_CURVE_WITH_KNOTS('CUTTING EDGE LINE',5,(#339,#340,#341,#342,#343,#344,
     #345,#346,#347,#348,#349,#350,#351,#352,#353,#354,#355,#356,#357,#358,#359,
     #360,#361,#362,#363,#364,#365,#366,#367,#368,#369,#370,#371,#372,#373,#374,
     #375,#376,#377,#378,#379,#380,#381,#382,#383,#384,#385,#386,#387,#388,#389,
     #390,#391,#392,#393,#394,#395,#396,#397,#398,#399,#400),.UNSPECIFIED.,.T.,.F.,
     (2,4,1,1,1,1,1,1,1,4,4,1,1,1,1,1,1,1,4,4,1,1,1,1,1,1,1,4,4,1,1,1,1,1,1,1,4,
     4,1,1),(-0.2302151513,0.0,0.00219831651250002,0.00439663302500004,0.00659494953749995,
     0.00879326604999997,0.0109915825625,0.013189899075,0.0153882155875,0.0175865321000001,
     0.2478016834,0.2505495790625,0.253297474725,0.2560453703875,0.25879326605,0.2615411617125,
     0.264289057375,0.2670369530375,0.2697848487,0.5,0.5021983165125,0.504396633025,
     0.5065949495375,0.50879326605,0.5109915825625,0.513189899075,0.5153882155875,
     0.5175865321,0.7478016834,0.7505495790625,0.753297474725,0.7560453703875,0.75879326605,
     0.7615411617125,0.764289057375,0.7670369530375,0.7697848487,1.0,1.0021983165125,
     1.004396633025),.UNSPECIFIED.);
#229=PRESENTATION_LAYER_ASSIGNMENT('1','Layer 1',(#228,#249,#250,#31));
#232=STYLED_ITEM('',(#238),#228);
#233=STYLED_ITEM('',(#239),#249);
#234=STYLED_ITEM('',(#240),#250);
#235=STYLED_ITEM('',(#241),#31);
#236=PRESENTATION_STYLE_ASSIGNMENT((#242));
#237=PRESENTATION_STYLE_ASSIGNMENT((#243));
#238=PRESENTATION_STYLE_ASSIGNMENT((#221));
#239=PRESENTATION_STYLE_ASSIGNMENT((#222));
#240=PRESENTATION_STYLE_ASSIGNMENT((#223));
#241=PRESENTATION_STYLE_ASSIGNMENT((#26));
#242=POINT_STYLE('',#244,POSITIVE_LENGTH_MEASURE(3.0),#246);
#243=POINT_STYLE('',#245,POSITIVE_LENGTH_MEASURE(3.0),#246);
#244=PRE_DEFINED_POINT_MARKER_SYMBOL('plus');
#245=PRE_DEFINED_POINT_MARKER_SYMBOL('plus');
#246=COLOUR_RGB('Medium Maroon',0.6,0.4,0.4);
#247=COLOUR_RGB('IsoInsertColor',0.8,0.8,0.8);
#248=AXIS2_PLACEMENT_3D('',#336,#272,#273);
#249=AXIS2_PLACEMENT_3D('PCS',#401,#274,#275);
#250=AXIS2_PLACEMENT_3D('MCS',#402,#276,#277);
#251=AXIS2_PLACEMENT_3D('',#403,#278,#279);
#252=AXIS2_PLACEMENT_3D('',#408,#281,#282);
#253=AXIS2_PLACEMENT_3D('',#412,#284,#285);
#254=AXIS2_PLACEMENT_3D('',#416,#287,#288);
#255=AXIS2_PLACEMENT_3D('',#420,#290,#291);
#256=AXIS2_PLACEMENT_3D('',#421,#292,#293);
#257=AXIS2_PLACEMENT_3D('',#427,#297,#298);
#258=AXIS2_PLACEMENT_3D('',#433,#302,#303);
#259=AXIS2_PLACEMENT_3D('',#439,#307,#308);
#260=AXIS2_PLACEMENT_3D('',#445,#312,#313);
#261=AXIS2_PLACEMENT_3D('',#446,#314,#315);
#262=AXIS2_PLACEMENT_3D('',#448,#316,#317);
#263=AXIS2_PLACEMENT_3D('',#449,#318,#319);
#264=AXIS2_PLACEMENT_3D('',#450,#320,#321);
#265=AXIS2_PLACEMENT_3D('',#451,#322,#323);
#266=AXIS2_PLACEMENT_3D('',#452,#324,#325);
#267=AXIS2_PLACEMENT_3D('',#453,#326,#327);
#268=AXIS2_PLACEMENT_3D('',#454,#328,#329);
#269=AXIS2_PLACEMENT_3D('',#455,#330,#331);
#270=AXIS2_PLACEMENT_3D('',#456,#332,#333);
#271=AXIS2_PLACEMENT_3D('',#457,#334,#335);
#272=DIRECTION('',(0.0,0.0,1.0));
#273=DIRECTION('',(1.0,0.0,0.0));
#274=DIRECTION('',(0.0,0.0,1.0));
#275=DIRECTION('',(1.0,0.0,0.0));
#276=DIRECTION('',(0.0,0.0,1.0));
#277=DIRECTION('',(1.0,0.0,0.0));
#278=DIRECTION('',(0.0,0.0,1.0));
#279=DIRECTION('',(-0.766044443118978,-0.642787609686539,0.0));
#280=DIRECTION('',(1.0,7.21644966006352E-16,0.0));
#281=DIRECTION('',(0.0,0.0,-1.0));
#282=DIRECTION('',(-0.76604444311898,-0.642787609686539,0.0));
#283=DIRECTION('',(-0.173648177666928,-0.984807753012209,0.0));
#284=DIRECTION('',(0.0,0.0,-1.0));
#285=DIRECTION('',(-0.766044443118977,-0.642787609686539,0.0));
#286=DIRECTION('',(-1.0,1.0547118733939E-15,0.0));
#287=DIRECTION('',(0.0,0.0,-1.0));
#288=DIRECTION('',(-0.766044443118978,-0.642787609686539,0.0));
#289=DIRECTION('',(0.17364817766693,0.984807753012208,0.0));
#290=DIRECTION('',(0.0,0.0,-1.0));
#291=DIRECTION('',(-0.766044443118978,-0.642787609686539,0.0));
#292=DIRECTION('',(0.0,0.0,1.0));
#293=DIRECTION('',(-0.766044443118978,-0.642787609686539,0.0));
#294=DIRECTION('',(-1.0,-7.21644966006352E-16,-8.26474009869751E-17));
#295=DIRECTION('',(8.26474009869754E-17,-3.09175454316191E-16,-1.0));
#296=DIRECTION('',(-8.26474009869754E-17,3.09175454316191E-16,1.0));
#297=DIRECTION('',(-8.32667268468867E-16,1.0,-3.09175454316192E-16));
#298=DIRECTION('',(-1.0,-7.21644966006352E-16,0.0));
#299=DIRECTION('',(-8.26474009869754E-17,3.09175454316191E-16,1.0));
#300=DIRECTION('',(-0.17364817766693,-0.984807753012208,2.90126813881361E-16));
#301=DIRECTION('',(8.26474009869754E-17,-3.09175454316191E-16,-1.0));
#302=DIRECTION('',(-0.984807753012208,0.17364817766693,-1.35079555479634E-16));
#303=DIRECTION('',(-0.17364817766693,-0.984807753012208,0.0));
#304=DIRECTION('',(-8.26474009869754E-17,3.09175454316191E-16,1.0));
#305=DIRECTION('',(1.0,-1.0547118733939E-15,8.26474009869757E-17));
#306=DIRECTION('',(8.26474009869754E-17,-3.09175454316191E-16,-1.0));
#307=DIRECTION('',(-1.0547118733939E-15,-1.0,3.09175454316191E-16));
#308=DIRECTION('',(1.0,-1.0547118733939E-15,0.0));
#309=DIRECTION('',(-8.26474009869754E-17,3.09175454316191E-16,1.0));
#310=DIRECTION('',(0.173648177666928,0.984807753012209,-2.90126813881361E-16));
#311=DIRECTION('',(8.26474009869754E-17,-3.09175454316191E-16,-1.0));
#312=DIRECTION('',(0.984807753012209,-0.173648177666928,1.35079555479633E-16));
#313=DIRECTION('',(0.173648177666928,0.984807753012209,0.0));
#314=DIRECTION('',(0.0,0.0,1.0));
#315=DIRECTION('',(-0.766044443118978,-0.642787609686539,0.0));
#316=DIRECTION('',(-8.26474009869754E-17,3.09175454316191E-16,1.0));
#317=DIRECTION('',(-0.642787609686539,0.76604444311898,-2.89966864054927E-16));
#318=DIRECTION('',(-8.26474009869754E-17,3.09175454316191E-16,1.0));
#319=DIRECTION('',(-0.642787609686539,0.766044443118977,-2.89966864054927E-16));
#320=DIRECTION('',(-8.26474009869754E-17,3.09175454316191E-16,1.0));
#321=DIRECTION('',(-0.642787609686539,0.766044443118978,-2.89966864054927E-16));
#322=DIRECTION('',(-8.26474009869754E-17,3.09175454316191E-16,1.0));
#323=DIRECTION('',(-0.642787609686539,0.766044443118978,-2.89966864054927E-16));
#324=DIRECTION('',(-8.26474009869754E-17,3.09175454316191E-16,1.0));
#325=DIRECTION('',(-0.642787609686539,0.766044443118978,-2.89966864054927E-16));
#326=DIRECTION('',(-8.26474009869754E-17,3.09175454316191E-16,1.0));
#327=DIRECTION('',(-0.642787609686539,0.76604444311898,-2.89966864054927E-16));
#328=DIRECTION('',(-8.26474009869754E-17,3.09175454316191E-16,1.0));
#329=DIRECTION('',(-0.642787609686539,0.766044443118978,-2.89966864054927E-16));
#330=DIRECTION('',(-8.26474009869754E-17,3.09175454316191E-16,1.0));
#331=DIRECTION('',(-0.642787609686539,0.766044443118978,-2.89966864054927E-16));
#332=DIRECTION('',(-8.26474009869754E-17,3.09175454316191E-16,1.0));
#333=DIRECTION('',(-0.642787609686539,0.766044443118977,-2.89966864054927E-16));
#334=DIRECTION('',(0.0,0.0,1.0));
#335=DIRECTION('',(-0.766044443118978,-0.642787609686539,0.0));
#336=CARTESIAN_POINT('',(0.0,0.0,0.0));
#339=CARTESIAN_POINT('',(12.5522805879757,8.5265128291212E-14,0.0));
#340=CARTESIAN_POINT('',(15.4793727646986,8.26005930321116E-14,2.475164043999E-16));
#341=CARTESIAN_POINT('',(15.5303940312175,0.00204973987188062,2.50931919908588E-16));
#342=CARTESIAN_POINT('',(15.6113657923651,0.0116288538654841,2.53879473927115E-16));
#343=CARTESIAN_POINT('',(15.717704832326,0.0386932046925326,2.52088449926135E-16));
#344=CARTESIAN_POINT('',(15.8488131566483,0.0975702289840203,2.39908716665859E-16));
#345=CARTESIAN_POINT('',(15.9682961014324,0.180671468108131,2.17298738398028E-16));
#346=CARTESIAN_POINT('',(16.0708828416308,0.283908819748569,1.854209667332E-16));
#347=CARTESIAN_POINT('',(16.1516321132229,0.402801426050902,1.45618621897502E-16));
#348=CARTESIAN_POINT('',(16.1967508762516,0.502825261851263,1.1024746009502E-16));
#349=CARTESIAN_POINT('',(16.2202450607453,0.580903484315964,8.1667797294801E-17));
#350=CARTESIAN_POINT('',(16.231123410416,0.630793689558817,6.3064387913397E-17));
#351=CARTESIAN_POINT('',(16.739407632767,3.51341675897694,3.21658191485876E-17));
#352=CARTESIAN_POINT('',(17.2432619801415,6.37091675897693,2.14438794323917E-17));
#353=CARTESIAN_POINT('',(17.7471163275159,9.22841675897691,2.14438794323918E-17));
#354=CARTESIAN_POINT('',(18.2509706748903,12.0859167589769,3.21658191485878E-17));
#355=CARTESIAN_POINT('',(18.7601043416829,14.9733572672129,4.65121328738704E-17));
#356=CARTESIAN_POINT('',(18.7677960105244,15.033743807848,3.23362995371703E-17));
#357=CARTESIAN_POINT('',(18.7713797947201,15.1339521113832,9.2443285748506E-18));
#358=CARTESIAN_POINT('',(18.7541435677955,15.269305363469,-2.09073373201277E-17));
#359=CARTESIAN_POINT('',(18.6925025213141,15.4418163291543,-5.74690624435264E-17));
#360=CARTESIAN_POINT('',(18.5895001465563,15.5984427167455,-8.84503304393348E-17));
#361=CARTESIAN_POINT('',(18.4531394404022,15.7270781407654,-1.11458405810292E-16));
#362=CARTESIAN_POINT('',(18.2939531593064,15.8177389360629,-1.24705207414961E-16));
#363=CARTESIAN_POINT('',(18.1636492666534,15.8582171515369,-1.2783183216523E-16));
#364=CARTESIAN_POINT('',(18.0643410348202,15.8720888023718,-1.2633091046728E-16));
#365=CARTESIAN_POINT('',(18.0035362571476,15.875,-1.24134960824564E-16));
#366=CARTESIAN_POINT('',(15.0715523248478,15.875,-7.36224050590429E-17));
#367=CARTESIAN_POINT('',(12.1699707813843,15.875,-4.90816033726953E-17));
#368=CARTESIAN_POINT('',(9.26838923792083,15.875,-4.90816033726953E-17));
#369=CARTESIAN_POINT('',(6.36680769445733,15.875,-7.36224050590428E-17));
#370=CARTESIAN_POINT('',(3.43971551773441,15.875,-1.2951223215854E-16));
#371=CARTESIAN_POINT('',(3.38869425121554,15.8729502601282,-1.42260834649682E-16));
#372=CARTESIAN_POINT('',(3.30772249006793,15.8633711461346,-1.59814679384992E-16));
#373=CARTESIAN_POINT('',(3.20138345010705,15.8363067953075,-1.76735367538744E-16));
#374=CARTESIAN_POINT('',(3.07027512578474,15.7774297710161,-1.86797175093729E-16));
#375=CARTESIAN_POINT('',(2.95079218100063,15.6943285318919,-1.83500069523203E-16));
#376=CARTESIAN_POINT('',(2.84820544080217,15.5910911802515,-1.67168257016492E-16));
#377=CARTESIAN_POINT('',(2.76745616921015,15.4721985739492,-1.38380186151113E-16));
#378=CARTESIAN_POINT('',(2.72233740618137,15.3721747381488,-1.08072020966164E-16));
#379=CARTESIAN_POINT('',(2.69884322168771,15.2940965156841,-8.1284347268452E-17));
#380=CARTESIAN_POINT('',(2.68796487201704,15.2442063104413,-6.30643879133973E-17));
#381=CARTESIAN_POINT('',(2.17968064966597,12.3615832410231,-3.21658191485877E-17));
#382=CARTESIAN_POINT('',(1.67582630229154,9.50408324102316,-2.14438794323918E-17));
#383=CARTESIAN_POINT('',(1.1719719549171,6.64658324102318,-2.14438794323919E-17));
#384=CARTESIAN_POINT('',(0.668117607542667,3.7890832410232,-3.21658191485878E-17));
#385=CARTESIAN_POINT('',(0.15898394075009,0.901642732787161,-4.65121328738705E-17));
#386=CARTESIAN_POINT('',(0.151292271908611,0.841256192152072,-3.23362995371705E-17));
#387=CARTESIAN_POINT('',(0.14770848771286,0.741047888616881,-9.2443285748508E-18));
#388=CARTESIAN_POINT('',(0.1649447146375,0.605694636531127,2.09073373201273E-17));
#389=CARTESIAN_POINT('',(0.226585761118921,0.433183670845832,5.7469062443526E-17));
#390=CARTESIAN_POINT('',(0.329588135876708,0.276557283254646,8.84503304393342E-17));
#391=CARTESIAN_POINT('',(0.465948842030727,0.147921859234715,1.11458405810291E-16));
#392=CARTESIAN_POINT('',(0.625135123126588,0.0572610639372488,1.2470520741496E-16));
#393=CARTESIAN_POINT('',(0.755439015779553,0.0167828484631869,1.27831832165229E-16));
#394=CARTESIAN_POINT('',(0.854747247612815,0.00291119762829872,1.26330910467279E-16));
#395=CARTESIAN_POINT('',(0.915552025285383,1.00364161426114E-13,1.24134960824563E-16));
#396=CARTESIAN_POINT('',(3.84753595758517,9.68114477473137E-14,7.36224050590428E-17));
#397=CARTESIAN_POINT('',(6.74911750104867,9.32587340685131E-14,3.68112025295214E-17));
#398=CARTESIAN_POINT('',(9.65069904451217,8.70414851306123E-14,1.22704008431738E-17));
#399=CARTESIAN_POINT('',(12.5522805879757,8.5265128291212E-14,0.0));
#400=CARTESIAN_POINT('',(15.4793727646986,8.26005930321116E-14,2.475164043999E-16));
#401=CARTESIAN_POINT('',(0.0,0.0,0.0));
#402=CARTESIAN_POINT('',(9.45954414121654,7.9375,0.0));
#403=CARTESIAN_POINT('',(9.45954414121654,7.9375,-6.35));
#404=CARTESIAN_POINT('',(7.02735303431379,5.89664933924524,-6.35));
#405=CARTESIAN_POINT('',(9.4595441412165,15.875,-6.35));
#406=CARTESIAN_POINT('',(3.46522615099384,15.875,-6.35));
#407=CARTESIAN_POINT('',(17.9731338683113,15.875,-6.35));
#408=CARTESIAN_POINT('',(17.9731338683113,15.08125,-6.35));
#409=CARTESIAN_POINT('',(18.7548250222648,14.9434167589769,-6.35));
#410=CARTESIAN_POINT('',(17.2764556807509,6.5591675897688,-6.35));
#411=CARTESIAN_POINT('',(16.2355532853926,0.655916758976955,-6.35));
#412=CARTESIAN_POINT('',(15.4538621314392,0.793750000000079,-6.35));
#413=CARTESIAN_POINT('',(15.4538621314392,7.97972798949331E-14,-6.35));
#414=CARTESIAN_POINT('',(9.4595441412165,8.67361737988404E-14,-6.35));
#415=CARTESIAN_POINT('',(0.94595441412167,9.71445146547012E-14,-6.35));
#416=CARTESIAN_POINT('',(0.94595441412167,0.793750000000098,-6.35));
#417=CARTESIAN_POINT('',(0.164263260168234,0.931583241023224,-6.35));
#418=CARTESIAN_POINT('',(1.64263260168215,9.31583241023129,-6.35));
#419=CARTESIAN_POINT('',(2.68353499704041,15.2190832410231,-6.35));
#420=CARTESIAN_POINT('',(3.46522615099384,15.08125,-6.35));
#421=CARTESIAN_POINT('',(9.41332282867938,7.40918798019793,-6.35));
#422=CARTESIAN_POINT('',(9.45954414121654,15.875,-5.38749756651153E-15));
#423=CARTESIAN_POINT('',(17.9731338683113,15.875,-4.68387150249773E-15));
#424=CARTESIAN_POINT('',(3.46522615099384,15.875,-5.8829123690929E-15));
#425=CARTESIAN_POINT('',(17.9731338683113,15.875,-4.33680868994202E-15));
#426=CARTESIAN_POINT('',(3.46522615099384,15.875,-5.20417042793042E-15));
#427=CARTESIAN_POINT('',(9.4595441412165,15.875,-5.38749756651153E-15));
#428=CARTESIAN_POINT('',(0.164263260168234,0.931583241023225,-8.67361737988403E-16));
#429=CARTESIAN_POINT('',(0.164263260168234,0.931583241023225,-1.53559070728126E-15));
#430=CARTESIAN_POINT('',(1.64263260168214,9.31583241023126,-4.00561136949636E-15));
#431=CARTESIAN_POINT('',(2.68353499704041,15.2190832410231,-5.74472374939139E-15));
#432=CARTESIAN_POINT('',(2.68353499704041,15.2190832410231,-5.20417042793042E-15));
#433=CARTESIAN_POINT('',(1.64263260168215,9.31583241023129,-4.00561136949637E-15));
#434=CARTESIAN_POINT('',(15.4538621314392,8.32667268468867E-14,6.74075480535533E-31));
#435=CARTESIAN_POINT('',(15.4538621314392,8.32667268468867E-14,1.60775733393522E-17));
#436=CARTESIAN_POINT('',(9.45954414121653,9.0205620750794E-14,-4.79337229242021E-16));
#437=CARTESIAN_POINT('',(0.945954414121668,9.8879238130678E-14,-1.18296329325583E-15));
#438=CARTESIAN_POINT('',(0.945954414121668,9.8879238130678E-14,-8.67361737988403E-16));
#439=CARTESIAN_POINT('',(9.4595441412165,8.84708972748172E-14,-4.79337229242024E-16));
#440=CARTESIAN_POINT('',(18.7548250222648,14.9434167589769,-4.33680868994202E-15));
#441=CARTESIAN_POINT('',(18.7548250222648,14.9434167589769,-4.3312440884723E-15));
#442=CARTESIAN_POINT('',(17.2764556807509,6.55916758976878,-1.86122342625718E-15));
#443=CARTESIAN_POINT('',(16.2355532853926,0.655916758976957,-1.22111046362165E-16));
#444=CARTESIAN_POINT('',(16.2355532853926,0.655916758976957,0.0));
#445=CARTESIAN_POINT('',(17.2764556807509,6.5591675897688,-1.86122342625719E-15));
#446=CARTESIAN_POINT('',(9.45954414121654,7.9375,0.0));
#447=CARTESIAN_POINT('',(7.02735303431379,5.89664933924524,0.0));
#448=CARTESIAN_POINT('',(17.9731338683113,15.08125,-4.43846348563426E-15));
#449=CARTESIAN_POINT('',(3.46522615099384,15.08125,-5.63750435222943E-15));
#450=CARTESIAN_POINT('',(0.945954414121668,0.7937500000001,-1.4283713101193E-15));
#451=CARTESIAN_POINT('',(15.4538621314392,0.79375000000008,-2.29330443524124E-16));
#452=CARTESIAN_POINT('',(9.45954414121654,7.9375,-2.93341739787676E-15));
#453=CARTESIAN_POINT('',(17.9731338683113,15.08125,-4.33680868994202E-15));
#454=CARTESIAN_POINT('',(15.4538621314392,0.79375000000008,0.0));
#455=CARTESIAN_POINT('',(0.945954414121668,0.7937500000001,-8.67361737988404E-16));
#456=CARTESIAN_POINT('',(3.46522615099384,15.08125,-5.20417042793042E-15));
#457=CARTESIAN_POINT('',(9.45954414121654,7.9375,-33.3676978394524));
#458=MECHANICAL_DESIGN_GEOMETRIC_PRESENTATION_REPRESENTATION('',(#232,#233,#234,
     #235),#459);
#459=(GEOMETRIC_REPRESENTATION_CONTEXT(3)GLOBAL_UNCERTAINTY_ASSIGNED_CONTEXT((#460))
     GLOBAL_UNIT_ASSIGNED_CONTEXT((#466,#462,#461))REPRESENTATION_CONTEXT('CNMG160608',
     'TOP_LEVEL_ASSEMBLY_PART'));
#460=UNCERTAINTY_MEASURE_WITH_UNIT(LENGTH_MEASURE(2.0E-5),#466,'DISTANCE_ACCURACY_VALUE',
     'Maximum Tolerance applied to model');
#461=(NAMED_UNIT(*)SI_UNIT($,.STERADIAN.)SOLID_ANGLE_UNIT());
#462=(CONVERSION_BASED_UNIT('DEGREE',#464)NAMED_UNIT(#463)PLANE_ANGLE_UNIT());
#463=DIMENSIONAL_EXPONENTS(0.0,0.0,0.0,0.0,0.0,0.0,0.0);
#464=PLANE_ANGLE_MEASURE_WITH_UNIT(PLANE_ANGLE_MEASURE(0.0174532925),#465);
#465=(NAMED_UNIT(*)PLANE_ANGLE_UNIT()SI_UNIT($,.RADIAN.));
#466=(LENGTH_UNIT()NAMED_UNIT(*)SI_UNIT(.MILLI.,.METRE.));
#467=CONSTRUCTIVE_GEOMETRY_REPRESENTATION('supplemental geometry',(#249,#250),#459);
#468=CONSTRUCTIVE_GEOMETRY_REPRESENTATION_RELATIONSHIP('supplemental geometry','contains PCS and MCS coordinate systems',
     #24,#467);
ENDSEC;
END-ISO-10303-21;
