ISO-10303-21;
HEADER;
FILE_DESCRIPTION(
/* description */ (''),
/* implementation_level */ '2;1');
FILE_NAME(
/* name */ 'RNMG090300.stp',
/* time_stamp */ '2017-03-21T10:54:14',
/* author */ ('Sandvik Coromant R&D'),
/* organization */ ('Sandvik Machining Solutions'),
/* preprocessor_version */ 'ST-DEVELOPER v15',
/* originating_system */ 'SIEMENS PLM Software NX v8.5.3.3(64 bits)',
/* authorization */ '');
FILE_SCHEMA(('AUTOMOTIVE_DESIGN'));
ENDSEC;
DATA;
#10=GEOMETRICALLY_BOUNDED_WIREFRAME_SHAPE_REPRESENTATION('IsoTurningInsert-None',
     (#25),#168);
#11=SHAPE_REPRESENTATION_RELATIONSHIP('None','relationship between IsoTurningInsert-None and IsoTurningInsert-None',
     #24,#13);
#12=SHAPE_REPRESENTATION_RELATIONSHIP('None','relationship between IsoTurningInsert-None and IsoTurningInsert-None',
     #24,#10);
#13=ADVANCED_BREP_SHAPE_REPRESENTATION('IsoTurningInsert-None',(#31),#168);
#14=SHAPE_DEFINITION_REPRESENTATION(#15,#24);
#15=PRODUCT_DEFINITION_SHAPE('','',#16);
#16=PRODUCT_DEFINITION(' ','',#18,#17);
#17=PRODUCT_DEFINITION_CONTEXT('part definition',#23,'design');
#18=PRODUCT_DEFINITION_FORMATION_WITH_SPECIFIED_SOURCE(' ',' ',#20,.NOT_KNOWN.);
#19=PRODUCT_RELATED_PRODUCT_CATEGORY('part','',(#20));
#20=PRODUCT('IsoTurningInsert','IsoTurningInsert',' ',(#21));
#21=PRODUCT_CONTEXT(' ',#23,'mechanical');
#22=APPLICATION_PROTOCOL_DEFINITION('international standard','automotive_design',
     2010,#23);
#23=APPLICATION_CONTEXT('core data for automotive mechanical design processes');
#24=SHAPE_REPRESENTATION('IsoTurningInsert-None',(#104),#168);
#25=GEOMETRIC_CURVE_SET('geometric curve set',(#84));
#26=SURFACE_STYLE_USAGE(.BOTH.,#27);
#27=SURFACE_SIDE_STYLE('',(#28));
#28=SURFACE_STYLE_FILL_AREA(#29);
#29=FILL_AREA_STYLE('',(#30));
#30=FILL_AREA_STYLE_COLOUR('',#103);
#31=MANIFOLD_SOLID_BREP('CUT',#32);
#32=CLOSED_SHELL('',(#35,#36,#37,#38));
#33=CYLINDRICAL_SURFACE('',#113,4.76249999999999);
#34=CYLINDRICAL_SURFACE('',#114,1.905);
#35=ADVANCED_FACE('',(#41,#42),#39,.F.);
#36=ADVANCED_FACE('',(#43,#44),#40,.F.);
#37=ADVANCED_FACE('',(#45,#46),#33,.T.);
#38=ADVANCED_FACE('',(#47,#48),#34,.F.);
#39=PLANE('',#109);
#40=PLANE('',#112);
#41=FACE_BOUND('',#49,.T.);
#42=FACE_BOUND('',#50,.T.);
#43=FACE_BOUND('',#51,.T.);
#44=FACE_BOUND('',#52,.T.);
#45=FACE_BOUND('',#53,.T.);
#46=FACE_BOUND('',#54,.T.);
#47=FACE_BOUND('',#55,.T.);
#48=FACE_BOUND('',#56,.T.);
#49=EDGE_LOOP('',(#57));
#50=EDGE_LOOP('',(#58));
#51=EDGE_LOOP('',(#59));
#52=EDGE_LOOP('',(#60));
#53=EDGE_LOOP('',(#61));
#54=EDGE_LOOP('',(#62));
#55=EDGE_LOOP('',(#63));
#56=EDGE_LOOP('',(#64));
#57=ORIENTED_EDGE('',*,*,#69,.F.);
#58=ORIENTED_EDGE('',*,*,#70,.F.);
#59=ORIENTED_EDGE('',*,*,#71,.T.);
#60=ORIENTED_EDGE('',*,*,#72,.F.);
#61=ORIENTED_EDGE('',*,*,#72,.T.);
#62=ORIENTED_EDGE('',*,*,#69,.T.);
#63=ORIENTED_EDGE('',*,*,#71,.F.);
#64=ORIENTED_EDGE('',*,*,#70,.T.);
#65=VERTEX_POINT('',#156);
#66=VERTEX_POINT('',#158);
#67=VERTEX_POINT('',#161);
#68=VERTEX_POINT('',#163);
#69=EDGE_CURVE('',#65,#65,#73,.T.);
#70=EDGE_CURVE('',#66,#66,#74,.T.);
#71=EDGE_CURVE('',#67,#67,#75,.T.);
#72=EDGE_CURVE('',#68,#68,#76,.T.);
#73=CIRCLE('',#107,4.76249999999999);
#74=CIRCLE('',#108,1.905);
#75=CIRCLE('',#110,1.905);
#76=CIRCLE('',#111,4.76249999999999);
#77=CURVE_STYLE('',#81,POSITIVE_LENGTH_MEASURE(0.18),#80);
#78=CURVE_STYLE('',#82,POSITIVE_LENGTH_MEASURE(0.18),#102);
#79=CURVE_STYLE('',#83,POSITIVE_LENGTH_MEASURE(0.18),#102);
#80=DRAUGHTING_PRE_DEFINED_COLOUR('blue');
#81=DRAUGHTING_PRE_DEFINED_CURVE_FONT('continuous');
#82=DRAUGHTING_PRE_DEFINED_CURVE_FONT('continuous');
#83=DRAUGHTING_PRE_DEFINED_CURVE_FONT('continuous');
#84=B_SPLINE_CURVE_WITH_KNOTS('CUTTING EDGE LINE',5,(#140,#141,#142,#143,#144,#145,
     #146,#147,#148,#149,#150,#151,#152),.UNSPECIFIED.,.T.,.F.,(1,1,1,1,1,1,1,1,
     1,1,1,1,1,1,1,1,1,1,1),(-0.625,-0.5,-0.375,-0.25,-0.125,0.0,0.125,0.25,0.375,
     0.5,0.625,0.75,0.875,1.0,1.125,1.25,1.375,1.5,1.625),.UNSPECIFIED.);
#85=PRESENTATION_LAYER_ASSIGNMENT('1','Layer 1',(#84,#105,#106,#31));
#88=STYLED_ITEM('',(#94),#84);
#89=STYLED_ITEM('',(#95),#105);
#90=STYLED_ITEM('',(#96),#106);
#91=STYLED_ITEM('',(#97),#31);
#92=PRESENTATION_STYLE_ASSIGNMENT((#98));
#93=PRESENTATION_STYLE_ASSIGNMENT((#99));
#94=PRESENTATION_STYLE_ASSIGNMENT((#77));
#95=PRESENTATION_STYLE_ASSIGNMENT((#78));
#96=PRESENTATION_STYLE_ASSIGNMENT((#79));
#97=PRESENTATION_STYLE_ASSIGNMENT((#26));
#98=POINT_STYLE('',#100,POSITIVE_LENGTH_MEASURE(3.0),#102);
#99=POINT_STYLE('',#101,POSITIVE_LENGTH_MEASURE(3.0),#102);
#100=PRE_DEFINED_POINT_MARKER_SYMBOL('plus');
#101=PRE_DEFINED_POINT_MARKER_SYMBOL('plus');
#102=COLOUR_RGB('Medium Maroon',0.6,0.4,0.4);
#103=COLOUR_RGB('IsoInsertColor',0.8,0.8,0.8);
#104=AXIS2_PLACEMENT_3D('',#137,#115,#116);
#105=AXIS2_PLACEMENT_3D('PCS',#153,#117,#118);
#106=AXIS2_PLACEMENT_3D('MCS',#154,#119,#120);
#107=AXIS2_PLACEMENT_3D('',#155,#121,#122);
#108=AXIS2_PLACEMENT_3D('',#157,#123,#124);
#109=AXIS2_PLACEMENT_3D('',#159,#125,#126);
#110=AXIS2_PLACEMENT_3D('',#160,#127,#128);
#111=AXIS2_PLACEMENT_3D('',#162,#129,#130);
#112=AXIS2_PLACEMENT_3D('',#164,#131,#132);
#113=AXIS2_PLACEMENT_3D('',#165,#133,#134);
#114=AXIS2_PLACEMENT_3D('',#166,#135,#136);
#115=DIRECTION('',(0.0,0.0,1.0));
#116=DIRECTION('',(1.0,0.0,0.0));
#117=DIRECTION('',(0.0,0.0,1.0));
#118=DIRECTION('',(1.0,0.0,0.0));
#119=DIRECTION('',(0.0,0.0,1.0));
#120=DIRECTION('',(1.0,0.0,0.0));
#121=DIRECTION('',(0.0,0.0,-1.0));
#122=DIRECTION('',(-0.882015164970351,-0.471221019015837,0.0));
#123=DIRECTION('',(0.0,0.0,1.0));
#124=DIRECTION('',(-0.707106781186548,-0.707106781186548,0.0));
#125=DIRECTION('',(0.0,0.0,-1.0));
#126=DIRECTION('',(0.707106781186548,0.707106781186548,0.0));
#127=DIRECTION('',(0.0,0.0,1.0));
#128=DIRECTION('',(-0.707106781186548,-0.707106781186548,0.0));
#129=DIRECTION('',(0.0,0.0,1.0));
#130=DIRECTION('',(-0.707106781186548,-0.707106781186548,0.0));
#131=DIRECTION('',(0.0,0.0,1.0));
#132=DIRECTION('',(-0.707106781186548,-0.707106781186548,0.0));
#133=DIRECTION('',(0.0,0.0,1.0));
#134=DIRECTION('',(-0.707106781186548,-0.707106781186548,0.0));
#135=DIRECTION('',(0.0,0.0,1.0));
#136=DIRECTION('',(-0.707106781186548,-0.707106781186548,0.0));
#137=CARTESIAN_POINT('',(0.0,0.0,0.0));
#140=CARTESIAN_POINT('',(7.38295329074918,-0.142373612229472,0.0));
#141=CARTESIAN_POINT('',(3.14717089979694,-0.558709683665213,0.0));
#142=CARTESIAN_POINT('',(-0.142373612026049,2.14204670913506,0.0));
#143=CARTESIAN_POINT('',(-0.558709683919888,6.37782910018464,0.0));
#144=CARTESIAN_POINT('',(2.14204670961067,9.66737361225845,0.0));
#145=CARTESIAN_POINT('',(6.37782909998273,10.0837096837508,0.0));
#146=CARTESIAN_POINT('',(9.66737361229553,7.38295329059351,0.0));
#147=CARTESIAN_POINT('',(10.0837096836863,3.14717089993356,0.0));
#148=CARTESIAN_POINT('',(7.38295329074918,-0.142373612229472,0.0));
#149=CARTESIAN_POINT('',(3.14717089979694,-0.558709683665213,0.0));
#150=CARTESIAN_POINT('',(-0.142373612026049,2.14204670913506,0.0));
#151=CARTESIAN_POINT('',(-0.558709683919888,6.37782910018464,0.0));
#152=CARTESIAN_POINT('',(2.14204670961067,9.66737361225845,0.0));
#153=CARTESIAN_POINT('',(0.0,0.0,0.0));
#154=CARTESIAN_POINT('',(4.7625,4.7625,0.0));
#155=CARTESIAN_POINT('',(4.76249999999999,4.76249999999999,4.26685108753951E-15));
#156=CARTESIAN_POINT('',(0.5619027768287,2.51830989693707,4.26685108753951E-15));
#157=CARTESIAN_POINT('',(4.7625,4.7625,-6.93889390390723E-15));
#158=CARTESIAN_POINT('',(3.41546158183963,3.41546158183963,-6.93889390390723E-15));
#159=CARTESIAN_POINT('',(4.76249999999999,4.76249999999999,4.26685108753951E-15));
#160=CARTESIAN_POINT('',(4.7625,4.7625,-3.175));
#161=CARTESIAN_POINT('',(3.41546158183963,3.41546158183963,-3.175));
#162=CARTESIAN_POINT('',(4.76249999999999,4.76249999999999,-3.175));
#163=CARTESIAN_POINT('',(1.39490395459906,1.39490395459906,-3.175));
#164=CARTESIAN_POINT('',(4.7625,4.23216991411009,-3.175));
#165=CARTESIAN_POINT('',(4.76249999999999,4.76249999999999,4.33680868994202E-15));
#166=CARTESIAN_POINT('',(4.7625,4.7625,-29.1328042564319));
#167=MECHANICAL_DESIGN_GEOMETRIC_PRESENTATION_REPRESENTATION('',(#88,#89,#90,#91),
     #168);
#168=(GEOMETRIC_REPRESENTATION_CONTEXT(3)GLOBAL_UNCERTAINTY_ASSIGNED_CONTEXT((#169))
     GLOBAL_UNIT_ASSIGNED_CONTEXT((#175,#171,#170))REPRESENTATION_CONTEXT('RNMG090300',
     'TOP_LEVEL_ASSEMBLY_PART'));
#169=UNCERTAINTY_MEASURE_WITH_UNIT(LENGTH_MEASURE(2.0E-5),#175,'DISTANCE_ACCURACY_VALUE',
     'Maximum Tolerance applied to model');
#170=(NAMED_UNIT(*)SI_UNIT($,.STERADIAN.)SOLID_ANGLE_UNIT());
#171=(CONVERSION_BASED_UNIT('DEGREE',#173)NAMED_UNIT(#172)PLANE_ANGLE_UNIT());
#172=DIMENSIONAL_EXPONENTS(0.0,0.0,0.0,0.0,0.0,0.0,0.0);
#173=PLANE_ANGLE_MEASURE_WITH_UNIT(PLANE_ANGLE_MEASURE(0.0174532925),#174);
#174=(NAMED_UNIT(*)PLANE_ANGLE_UNIT()SI_UNIT($,.RADIAN.));
#175=(LENGTH_UNIT()NAMED_UNIT(*)SI_UNIT(.MILLI.,.METRE.));
#176=CONSTRUCTIVE_GEOMETRY_REPRESENTATION('supplemental geometry',(#105,#106),#168);
#177=CONSTRUCTIVE_GEOMETRY_REPRESENTATION_RELATIONSHIP('supplemental geometry','contains PCS and MCS coordinate systems',
     #24,#176);
ENDSEC;
END-ISO-10303-21;
