ISO-10303-21;
HEADER;
FILE_DESCRIPTION(
/* description */ (''),
/* implementation_level */ '2;1');
FILE_NAME(
/* name */ 'DPMT11T304.stp',
/* time_stamp */ '2017-03-21T10:54:11',
/* author */ ('Sandvik Coromant R&D'),
/* organization */ ('Sandvik Machining Solutions'),
/* preprocessor_version */ 'ST-DEVELOPER v15',
/* originating_system */ 'SIEMENS PLM Software NX v8.5.3.3(64 bits)',
/* authorization */ '');
FILE_SCHEMA(('AUTOMOTIVE_DESIGN'));
ENDSEC;
DATA;
#10=GEOMETRICALLY_BOUNDED_WIREFRAME_SHAPE_REPRESENTATION('IsoTurningInsert-None',
     (#25),#503);
#11=SHAPE_REPRESENTATION_RELATIONSHIP('None','relationship between IsoTurningInsert-None and IsoTurningInsert-None',
     #24,#13);
#12=SHAPE_REPRESENTATION_RELATIONSHIP('None','relationship between IsoTurningInsert-None and IsoTurningInsert-None',
     #24,#10);
#13=ADVANCED_BREP_SHAPE_REPRESENTATION('IsoTurningInsert-None',(#31),#503);
#14=SHAPE_DEFINITION_REPRESENTATION(#15,#24);
#15=PRODUCT_DEFINITION_SHAPE('','',#16);
#16=PRODUCT_DEFINITION(' ','',#18,#17);
#17=PRODUCT_DEFINITION_CONTEXT('part definition',#23,'design');
#18=PRODUCT_DEFINITION_FORMATION_WITH_SPECIFIED_SOURCE(' ',' ',#20,.NOT_KNOWN.);
#19=PRODUCT_RELATED_PRODUCT_CATEGORY('part','',(#20));
#20=PRODUCT('IsoTurningInsert','IsoTurningInsert',' ',(#21));
#21=PRODUCT_CONTEXT(' ',#23,'mechanical');
#22=APPLICATION_PROTOCOL_DEFINITION('international standard','automotive_design',
     2010,#23);
#23=APPLICATION_CONTEXT('core data for automotive mechanical design processes');
#24=SHAPE_REPRESENTATION('IsoTurningInsert-None',(#285),#503);
#25=GEOMETRIC_CURVE_SET('geometric curve set',(#265));
#26=SURFACE_STYLE_USAGE(.BOTH.,#27);
#27=SURFACE_SIDE_STYLE('',(#28));
#28=SURFACE_STYLE_FILL_AREA(#29);
#29=FILL_AREA_STYLE('',(#30));
#30=FILL_AREA_STYLE_COLOUR('',#284);
#31=MANIFOLD_SOLID_BREP('CUT',#32);
#32=CLOSED_SHELL('',(#49,#50,#51,#52,#53,#54,#55,#56,#57,#58,#59,#60,#61,#62));
#33=CYLINDRICAL_SURFACE('',#309,2.2);
#34=TOROIDAL_SURFACE('',#308,6.2,4.0);
#35=TOROIDAL_SURFACE('',#310,2.70678285826048,0.3);
#36=CONICAL_SURFACE('',#300,0.396875000000001,11.0);
#37=CONICAL_SURFACE('',#301,0.396875000000001,11.0);
#38=CONICAL_SURFACE('',#302,0.396875000000001,11.0);
#39=CONICAL_SURFACE('',#303,0.396875000000001,11.0);
#40=CONICAL_SURFACE('',#305,2.99999999999613,4.0000000001963);
#41=FACE_OUTER_BOUND('',#123,.T.);
#42=FACE_OUTER_BOUND('',#124,.T.);
#43=FACE_OUTER_BOUND('',#125,.T.);
#44=FACE_OUTER_BOUND('',#126,.T.);
#45=FACE_OUTER_BOUND('',#129,.T.);
#46=FACE_OUTER_BOUND('',#130,.T.);
#47=FACE_OUTER_BOUND('',#131,.T.);
#48=FACE_OUTER_BOUND('',#132,.T.);
#49=ADVANCED_FACE('',(#109,#110),#63,.F.);
#50=ADVANCED_FACE('',(#41),#64,.F.);
#51=ADVANCED_FACE('',(#42),#65,.F.);
#52=ADVANCED_FACE('',(#43),#66,.F.);
#53=ADVANCED_FACE('',(#44),#67,.F.);
#54=ADVANCED_FACE('',(#111,#112),#68,.T.);
#55=ADVANCED_FACE('',(#45),#36,.T.);
#56=ADVANCED_FACE('',(#46),#37,.T.);
#57=ADVANCED_FACE('',(#47),#38,.T.);
#58=ADVANCED_FACE('',(#48),#39,.T.);
#59=ADVANCED_FACE('',(#113,#114),#40,.F.);
#60=ADVANCED_FACE('',(#115,#116),#34,.T.);
#61=ADVANCED_FACE('',(#117,#118),#33,.F.);
#62=ADVANCED_FACE('',(#119,#120),#35,.F.);
#63=PLANE('',#289);
#64=PLANE('',#290);
#65=PLANE('',#291);
#66=PLANE('',#292);
#67=PLANE('',#293);
#68=PLANE('',#299);
#69=LINE('',#440,#89);
#70=LINE('',#443,#90);
#71=LINE('',#445,#91);
#72=LINE('',#447,#92);
#73=LINE('',#449,#93);
#74=LINE('',#452,#94);
#75=LINE('',#454,#95);
#76=LINE('',#455,#96);
#77=LINE('',#457,#97);
#78=LINE('',#459,#98);
#79=LINE('',#461,#99);
#80=LINE('',#463,#100);
#81=LINE('',#465,#101);
#82=LINE('',#467,#102);
#83=LINE('',#469,#103);
#84=LINE('',#471,#104);
#85=LINE('',#473,#105);
#86=LINE('',#475,#106);
#87=LINE('',#477,#107);
#88=LINE('',#479,#108);
#89=VECTOR('',#319,1.0);
#90=VECTOR('',#320,1.0);
#91=VECTOR('',#321,1.0);
#92=VECTOR('',#322,1.0);
#93=VECTOR('',#325,1.0);
#94=VECTOR('',#326,1.0);
#95=VECTOR('',#327,1.0);
#96=VECTOR('',#328,1.0);
#97=VECTOR('',#329,1.0);
#98=VECTOR('',#332,1.0);
#99=VECTOR('',#333,1.0);
#100=VECTOR('',#334,1.0);
#101=VECTOR('',#335,1.0);
#102=VECTOR('',#338,1.0);
#103=VECTOR('',#339,1.0);
#104=VECTOR('',#340,1.0);
#105=VECTOR('',#341,1.0);
#106=VECTOR('',#344,1.0);
#107=VECTOR('',#345,1.0);
#108=VECTOR('',#346,1.0);
#109=FACE_BOUND('',#121,.T.);
#110=FACE_BOUND('',#122,.T.);
#111=FACE_BOUND('',#127,.T.);
#112=FACE_BOUND('',#128,.T.);
#113=FACE_BOUND('',#133,.T.);
#114=FACE_BOUND('',#134,.T.);
#115=FACE_BOUND('',#135,.T.);
#116=FACE_BOUND('',#136,.T.);
#117=FACE_BOUND('',#137,.T.);
#118=FACE_BOUND('',#138,.T.);
#119=FACE_BOUND('',#139,.T.);
#120=FACE_BOUND('',#140,.T.);
#121=EDGE_LOOP('',(#141));
#122=EDGE_LOOP('',(#142,#143,#144,#145));
#123=EDGE_LOOP('',(#146,#147,#148,#149,#150,#151));
#124=EDGE_LOOP('',(#152,#153,#154,#155,#156,#157));
#125=EDGE_LOOP('',(#158,#159,#160,#161,#162,#163));
#126=EDGE_LOOP('',(#164,#165,#166,#167,#168,#169));
#127=EDGE_LOOP('',(#170));
#128=EDGE_LOOP('',(#171,#172,#173,#174,#175,#176,#177,#178));
#129=EDGE_LOOP('',(#179,#180,#181));
#130=EDGE_LOOP('',(#182,#183,#184));
#131=EDGE_LOOP('',(#185,#186,#187));
#132=EDGE_LOOP('',(#188,#189,#190));
#133=EDGE_LOOP('',(#191));
#134=EDGE_LOOP('',(#192));
#135=EDGE_LOOP('',(#193));
#136=EDGE_LOOP('',(#194));
#137=EDGE_LOOP('',(#195));
#138=EDGE_LOOP('',(#196));
#139=EDGE_LOOP('',(#197));
#140=EDGE_LOOP('',(#198));
#141=ORIENTED_EDGE('',*,*,#220,.T.);
#142=ORIENTED_EDGE('',*,*,#221,.T.);
#143=ORIENTED_EDGE('',*,*,#222,.T.);
#144=ORIENTED_EDGE('',*,*,#223,.T.);
#145=ORIENTED_EDGE('',*,*,#224,.T.);
#146=ORIENTED_EDGE('',*,*,#225,.F.);
#147=ORIENTED_EDGE('',*,*,#226,.T.);
#148=ORIENTED_EDGE('',*,*,#227,.F.);
#149=ORIENTED_EDGE('',*,*,#221,.F.);
#150=ORIENTED_EDGE('',*,*,#228,.T.);
#151=ORIENTED_EDGE('',*,*,#229,.T.);
#152=ORIENTED_EDGE('',*,*,#224,.F.);
#153=ORIENTED_EDGE('',*,*,#230,.T.);
#154=ORIENTED_EDGE('',*,*,#231,.T.);
#155=ORIENTED_EDGE('',*,*,#232,.F.);
#156=ORIENTED_EDGE('',*,*,#233,.T.);
#157=ORIENTED_EDGE('',*,*,#228,.F.);
#158=ORIENTED_EDGE('',*,*,#223,.F.);
#159=ORIENTED_EDGE('',*,*,#234,.T.);
#160=ORIENTED_EDGE('',*,*,#235,.T.);
#161=ORIENTED_EDGE('',*,*,#236,.F.);
#162=ORIENTED_EDGE('',*,*,#237,.T.);
#163=ORIENTED_EDGE('',*,*,#230,.F.);
#164=ORIENTED_EDGE('',*,*,#222,.F.);
#165=ORIENTED_EDGE('',*,*,#227,.T.);
#166=ORIENTED_EDGE('',*,*,#238,.T.);
#167=ORIENTED_EDGE('',*,*,#239,.F.);
#168=ORIENTED_EDGE('',*,*,#240,.T.);
#169=ORIENTED_EDGE('',*,*,#234,.F.);
#170=ORIENTED_EDGE('',*,*,#241,.F.);
#171=ORIENTED_EDGE('',*,*,#239,.T.);
#172=ORIENTED_EDGE('',*,*,#242,.T.);
#173=ORIENTED_EDGE('',*,*,#225,.T.);
#174=ORIENTED_EDGE('',*,*,#243,.T.);
#175=ORIENTED_EDGE('',*,*,#232,.T.);
#176=ORIENTED_EDGE('',*,*,#244,.T.);
#177=ORIENTED_EDGE('',*,*,#236,.T.);
#178=ORIENTED_EDGE('',*,*,#245,.T.);
#179=ORIENTED_EDGE('',*,*,#238,.F.);
#180=ORIENTED_EDGE('',*,*,#226,.F.);
#181=ORIENTED_EDGE('',*,*,#242,.F.);
#182=ORIENTED_EDGE('',*,*,#235,.F.);
#183=ORIENTED_EDGE('',*,*,#240,.F.);
#184=ORIENTED_EDGE('',*,*,#245,.F.);
#185=ORIENTED_EDGE('',*,*,#231,.F.);
#186=ORIENTED_EDGE('',*,*,#237,.F.);
#187=ORIENTED_EDGE('',*,*,#244,.F.);
#188=ORIENTED_EDGE('',*,*,#229,.F.);
#189=ORIENTED_EDGE('',*,*,#233,.F.);
#190=ORIENTED_EDGE('',*,*,#243,.F.);
#191=ORIENTED_EDGE('',*,*,#246,.T.);
#192=ORIENTED_EDGE('',*,*,#241,.T.);
#193=ORIENTED_EDGE('',*,*,#247,.T.);
#194=ORIENTED_EDGE('',*,*,#248,.T.);
#195=ORIENTED_EDGE('',*,*,#248,.F.);
#196=ORIENTED_EDGE('',*,*,#220,.F.);
#197=ORIENTED_EDGE('',*,*,#247,.F.);
#198=ORIENTED_EDGE('',*,*,#246,.F.);
#199=VERTEX_POINT('',#439);
#200=VERTEX_POINT('',#441);
#201=VERTEX_POINT('',#442);
#202=VERTEX_POINT('',#444);
#203=VERTEX_POINT('',#446);
#204=VERTEX_POINT('',#450);
#205=VERTEX_POINT('',#451);
#206=VERTEX_POINT('',#453);
#207=VERTEX_POINT('',#456);
#208=VERTEX_POINT('',#460);
#209=VERTEX_POINT('',#462);
#210=VERTEX_POINT('',#464);
#211=VERTEX_POINT('',#468);
#212=VERTEX_POINT('',#470);
#213=VERTEX_POINT('',#472);
#214=VERTEX_POINT('',#476);
#215=VERTEX_POINT('',#478);
#216=VERTEX_POINT('',#482);
#217=VERTEX_POINT('',#493);
#218=VERTEX_POINT('',#496);
#219=VERTEX_POINT('',#498);
#220=EDGE_CURVE('',#199,#199,#249,.T.);
#221=EDGE_CURVE('',#200,#201,#69,.T.);
#222=EDGE_CURVE('',#201,#202,#70,.T.);
#223=EDGE_CURVE('',#202,#203,#71,.T.);
#224=EDGE_CURVE('',#203,#200,#72,.T.);
#225=EDGE_CURVE('',#204,#205,#73,.T.);
#226=EDGE_CURVE('',#204,#206,#74,.T.);
#227=EDGE_CURVE('INSERT_CORNER_EDGE3',#201,#206,#75,.T.);
#228=EDGE_CURVE('INSERT_CORNER_EDGE4',#200,#207,#76,.T.);
#229=EDGE_CURVE('',#207,#205,#77,.T.);
#230=EDGE_CURVE('INSERT_CORNER_EDGE1',#203,#208,#78,.T.);
#231=EDGE_CURVE('',#208,#209,#79,.T.);
#232=EDGE_CURVE('',#210,#209,#80,.T.);
#233=EDGE_CURVE('',#210,#207,#81,.T.);
#234=EDGE_CURVE('INSERT_CORNER_EDGE2',#202,#211,#82,.T.);
#235=EDGE_CURVE('',#211,#212,#83,.T.);
#236=EDGE_CURVE('',#213,#212,#84,.T.);
#237=EDGE_CURVE('',#213,#208,#85,.T.);
#238=EDGE_CURVE('',#206,#214,#86,.T.);
#239=EDGE_CURVE('',#215,#214,#87,.T.);
#240=EDGE_CURVE('',#215,#211,#88,.T.);
#241=EDGE_CURVE('',#216,#216,#250,.T.);
#242=EDGE_CURVE('',#214,#204,#251,.T.);
#243=EDGE_CURVE('',#205,#210,#252,.T.);
#244=EDGE_CURVE('',#209,#213,#253,.T.);
#245=EDGE_CURVE('',#212,#215,#254,.T.);
#246=EDGE_CURVE('',#217,#217,#255,.T.);
#247=EDGE_CURVE('',#218,#218,#256,.T.);
#248=EDGE_CURVE('',#219,#219,#257,.T.);
#249=CIRCLE('',#288,2.2);
#250=CIRCLE('',#294,3.07132534818238);
#251=CIRCLE('',#295,0.396875000000001);
#252=CIRCLE('',#296,0.396875000000001);
#253=CIRCLE('',#297,0.396875000000001);
#254=CIRCLE('',#298,0.396875000000001);
#255=CIRCLE('',#304,3.00605207333835);
#256=CIRCLE('',#306,2.95049568210277);
#257=CIRCLE('',#307,2.2);
#258=CURVE_STYLE('',#262,POSITIVE_LENGTH_MEASURE(0.18),#261);
#259=CURVE_STYLE('',#263,POSITIVE_LENGTH_MEASURE(0.18),#283);
#260=CURVE_STYLE('',#264,POSITIVE_LENGTH_MEASURE(0.18),#283);
#261=DRAUGHTING_PRE_DEFINED_COLOUR('blue');
#262=DRAUGHTING_PRE_DEFINED_CURVE_FONT('continuous');
#263=DRAUGHTING_PRE_DEFINED_CURVE_FONT('continuous');
#264=DRAUGHTING_PRE_DEFINED_CURVE_FONT('continuous');
#265=B_SPLINE_CURVE_WITH_KNOTS('CUTTING EDGE LINE',5,(#386,#387,#388,#389,#390,#391,
     #392,#393,#394,#395,#396,#397,#398,#399,#400,#401,#402,#403,#404,#405,#406,
     #407,#408,#409,#410,#411,#412,#413,#414,#415,#416,#417,#418,#419,#420,#421,
     #422,#423,#424,#425,#426,#427,#428,#429,#430,#431,#432,#433,#434,#435),.UNSPECIFIED.,
     .T.,.F.,(2,4,1,4,4,1,1,1,1,1,1,1,4,4,1,4,4,1,1,1,1,1,1,1,4,4,1,1),(-0.2361861078,
     0.0,0.00422091150000004,0.00844182299999996,0.2446279307,0.2470261758875,0.249424421075032,
     0.2518226662625,0.254220911450024,0.2566191566375,0.259017401825035,0.2614156470125,
     0.2638138922,0.5,0.5042209115,0.508441823,0.7446279307,0.7470261758875,0.749424421075036,
     0.7518226662625,0.754220911450036,0.7566191566375,0.759017401825043,0.7614156470125,
     0.7638138922,1.0,1.0042209115,1.008441823),.UNSPECIFIED.);
#266=PRESENTATION_LAYER_ASSIGNMENT('1','Layer 1',(#265,#286,#287,#31));
#269=STYLED_ITEM('',(#275),#265);
#270=STYLED_ITEM('',(#276),#286);
#271=STYLED_ITEM('',(#277),#287);
#272=STYLED_ITEM('',(#278),#31);
#273=PRESENTATION_STYLE_ASSIGNMENT((#279));
#274=PRESENTATION_STYLE_ASSIGNMENT((#280));
#275=PRESENTATION_STYLE_ASSIGNMENT((#258));
#276=PRESENTATION_STYLE_ASSIGNMENT((#259));
#277=PRESENTATION_STYLE_ASSIGNMENT((#260));
#278=PRESENTATION_STYLE_ASSIGNMENT((#26));
#279=POINT_STYLE('',#281,POSITIVE_LENGTH_MEASURE(3.0),#283);
#280=POINT_STYLE('',#282,POSITIVE_LENGTH_MEASURE(3.0),#283);
#281=PRE_DEFINED_POINT_MARKER_SYMBOL('plus');
#282=PRE_DEFINED_POINT_MARKER_SYMBOL('plus');
#283=COLOUR_RGB('Medium Maroon',0.6,0.4,0.4);
#284=COLOUR_RGB('IsoInsertColor',0.8,0.8,0.8);
#285=AXIS2_PLACEMENT_3D('',#383,#311,#312);
#286=AXIS2_PLACEMENT_3D('PCS',#436,#313,#314);
#287=AXIS2_PLACEMENT_3D('MCS',#437,#315,#316);
#288=AXIS2_PLACEMENT_3D('',#438,#317,#318);
#289=AXIS2_PLACEMENT_3D('',#448,#323,#324);
#290=AXIS2_PLACEMENT_3D('',#458,#330,#331);
#291=AXIS2_PLACEMENT_3D('',#466,#336,#337);
#292=AXIS2_PLACEMENT_3D('',#474,#342,#343);
#293=AXIS2_PLACEMENT_3D('',#480,#347,#348);
#294=AXIS2_PLACEMENT_3D('',#481,#349,#350);
#295=AXIS2_PLACEMENT_3D('',#483,#351,#352);
#296=AXIS2_PLACEMENT_3D('',#484,#353,#354);
#297=AXIS2_PLACEMENT_3D('',#485,#355,#356);
#298=AXIS2_PLACEMENT_3D('',#486,#357,#358);
#299=AXIS2_PLACEMENT_3D('',#487,#359,#360);
#300=AXIS2_PLACEMENT_3D('',#488,#361,#362);
#301=AXIS2_PLACEMENT_3D('',#489,#363,#364);
#302=AXIS2_PLACEMENT_3D('',#490,#365,#366);
#303=AXIS2_PLACEMENT_3D('',#491,#367,#368);
#304=AXIS2_PLACEMENT_3D('',#492,#369,#370);
#305=AXIS2_PLACEMENT_3D('',#494,#371,#372);
#306=AXIS2_PLACEMENT_3D('',#495,#373,#374);
#307=AXIS2_PLACEMENT_3D('',#497,#375,#376);
#308=AXIS2_PLACEMENT_3D('',#499,#377,#378);
#309=AXIS2_PLACEMENT_3D('',#500,#379,#380);
#310=AXIS2_PLACEMENT_3D('',#501,#381,#382);
#311=DIRECTION('',(0.0,0.0,1.0));
#312=DIRECTION('',(1.0,0.0,0.0));
#313=DIRECTION('',(0.0,0.0,1.0));
#314=DIRECTION('',(1.0,0.0,0.0));
#315=DIRECTION('',(0.0,0.0,1.0));
#316=DIRECTION('',(1.0,0.0,0.0));
#317=DIRECTION('',(0.0,0.0,1.0));
#318=DIRECTION('',(-0.887010833178222,-0.461748613235034,0.0));
#319=DIRECTION('',(1.0,3.33066907387547E-16,0.0));
#320=DIRECTION('',(-0.573576436351046,-0.819152044288992,0.0));
#321=DIRECTION('',(-1.0,5.55111512312578E-17,0.0));
#322=DIRECTION('',(0.573576436351046,0.819152044288992,0.0));
#323=DIRECTION('',(0.0,0.0,1.0));
#324=DIRECTION('',(-0.887010833178222,-0.461748613235034,0.0));
#325=DIRECTION('',(-1.0,-3.33066907387547E-16,-1.10403836147723E-16));
#326=DIRECTION('',(1.80411241501588E-16,-0.190808995376545,-0.981627183447664));
#327=DIRECTION('',(0.344150366647521,0.179153341312003,0.921664041521161));
#328=DIRECTION('',(-0.0988424716787129,0.189874621480462,0.976820246468148));
#329=DIRECTION('',(-1.80411241501588E-16,0.190808995376545,0.981627183447664));
#330=DIRECTION('',(3.33066907387547E-16,-0.981627183447664,0.190808995376545));
#331=DIRECTION('',(1.0,3.33066907387547E-16,0.0));
#332=DIRECTION('',(-0.344150366647522,-0.179153341312002,0.921664041521162));
#333=DIRECTION('',(-0.156301578631426,0.109443543591802,0.981627183447664));
#334=DIRECTION('',(-0.573576436351046,-0.819152044288992,4.09144015950746E-16));
#335=DIRECTION('',(0.156301578631426,-0.109443543591802,-0.981627183447664));
#336=DIRECTION('',(0.804101914050799,-0.563038221707226,0.190808995376545));
#337=DIRECTION('',(0.573576436351046,0.819152044288992,0.0));
#338=DIRECTION('',(0.0988424716787127,-0.189874621480461,0.976820246468149));
#339=DIRECTION('',(-1.2490009027033E-16,-0.190808995376544,0.981627183447664));
#340=DIRECTION('',(1.0,-5.55111512312578E-17,1.10403836147723E-16));
#341=DIRECTION('',(1.2490009027033E-16,0.190808995376544,-0.981627183447664));
#342=DIRECTION('',(5.55111512312578E-17,0.981627183447664,0.190808995376544));
#343=DIRECTION('',(-1.0,5.55111512312578E-17,0.0));
#344=DIRECTION('',(0.156301578631425,-0.109443543591801,0.981627183447664));
#345=DIRECTION('',(0.573576436351046,0.819152044288992,-4.09144015950746E-16));
#346=DIRECTION('',(-0.156301578631425,0.109443543591801,-0.981627183447664));
#347=DIRECTION('',(-0.804101914050799,0.563038221707226,0.190808995376544));
#348=DIRECTION('',(-0.573576436351046,-0.819152044288992,0.0));
#349=DIRECTION('',(0.0,0.0,1.0));
#350=DIRECTION('',(-0.887010833178222,-0.461748613235034,0.0));
#351=DIRECTION('',(-1.14575302077279E-16,5.71230636268422E-16,1.0));
#352=DIRECTION('',(-0.461748613235031,0.887010833178222,-5.59592749458549E-16));
#353=DIRECTION('',(-1.14575302077279E-16,5.71230636268422E-16,1.0));
#354=DIRECTION('',(-0.461748613235034,0.887010833178222,-5.59592749458549E-16));
#355=DIRECTION('',(-1.14575302077279E-16,5.71230636268422E-16,1.0));
#356=DIRECTION('',(-0.461748613235034,0.887010833178222,-5.59592749458548E-16));
#357=DIRECTION('',(-1.14575302077279E-16,5.71230636268422E-16,1.0));
#358=DIRECTION('',(-0.461748613235036,0.887010833178222,-5.59592749458548E-16));
#359=DIRECTION('',(-1.14575302077279E-16,5.71230636268422E-16,1.0));
#360=DIRECTION('',(-0.461748613235034,0.887010833178222,-5.59592749458548E-16));
#361=DIRECTION('',(-1.14575302077279E-16,5.71230636268422E-16,1.0));
#362=DIRECTION('',(-0.461748613235034,0.887010833178222,-5.47730958555911E-16));
#363=DIRECTION('',(-1.14575302077279E-16,5.71230636268422E-16,1.0));
#364=DIRECTION('',(-0.461748613235034,0.887010833178222,-5.6999644467607E-16));
#365=DIRECTION('',(-1.14575302077279E-16,5.71230636268422E-16,1.0));
#366=DIRECTION('',(-0.461748613235034,0.887010833178222,-5.65543347452038E-16));
#367=DIRECTION('',(-1.14575302077279E-16,5.71230636268422E-16,1.0));
#368=DIRECTION('',(-0.461748613235034,0.887010833178222,-5.43277861331879E-16));
#369=DIRECTION('',(0.0,0.0,-1.0));
#370=DIRECTION('',(0.887010833178222,0.461748613235034,0.0));
#371=DIRECTION('',(0.0,0.0,1.0));
#372=DIRECTION('',(-0.887010833178222,-0.461748613235034,4.75743674970663E-16));
#373=DIRECTION('',(0.0,0.0,1.0));
#374=DIRECTION('',(0.887010833178221,0.461748613235034,0.0));
#375=DIRECTION('',(0.0,0.0,-1.0));
#376=DIRECTION('',(-0.887010833178222,-0.461748613235034,0.0));
#377=DIRECTION('',(0.0,0.0,1.0));
#378=DIRECTION('',(-0.887010833178222,-0.461748613235034,0.0));
#379=DIRECTION('',(0.0,0.0,1.0));
#380=DIRECTION('',(-0.887010833178222,-0.461748613235034,0.0));
#381=DIRECTION('',(0.0,0.0,-1.0));
#382=DIRECTION('',(0.887010833178222,0.461748613235034,0.0));
#383=CARTESIAN_POINT('',(0.0,0.0,0.0));
#386=CARTESIAN_POINT('',(9.28950028414044,-7.105427357601E-15,1.97215226305253E-32));
#387=CARTESIAN_POINT('',(11.4579292059407,-7.99360577730113E-15,2.30906492099866E-16));
#388=CARTESIAN_POINT('',(11.5312317982917,0.00846184259115113,2.34471495034186E-16));
#389=CARTESIAN_POINT('',(11.6098026275196,0.034722386701409,2.29914558030293E-16));
#390=CARTESIAN_POINT('',(11.6763803821413,0.0840214127774956,1.96633928956825E-16));
#391=CARTESIAN_POINT('',(11.7253565574943,0.139213867635148,1.29948997573533E-16));
#392=CARTESIAN_POINT('',(12.969116290941,1.91548685182317,1.67282425787784E-17));
#393=CARTESIAN_POINT('',(14.1918537045397,3.66173685182317,-7.39557098644699E-33));
#394=CARTESIAN_POINT('',(15.4145911181385,5.40798685182317,2.95822839457879E-32));
#395=CARTESIAN_POINT('',(16.6373285317372,7.15423685182317,1.67282425787784E-17));
#396=CARTESIAN_POINT('',(17.871875203717,8.91735222064129,9.20884894581227E-17));
#397=CARTESIAN_POINT('',(17.8933063948964,8.95261454013947,1.00889649552589E-16));
#398=CARTESIAN_POINT('',(17.9206811364331,9.01380222536902,9.54224046862002E-17));
#399=CARTESIAN_POINT('',(17.9388102541265,9.10084242760605,5.99560922209385E-17));
#400=CARTESIAN_POINT('',(17.9300778508814,9.21557120856002,-4.28309500703539E-18));
#401=CARTESIAN_POINT('',(17.8925874756841,9.31429148895644,-6.52952500415367E-17));
#402=CARTESIAN_POINT('',(17.8332241519872,9.40162543306619,-1.22672564845997E-16));
#403=CARTESIAN_POINT('',(17.7442525372641,9.47458432436178,-1.71321809743936E-16));
#404=CARTESIAN_POINT('',(17.6625549429458,9.50965802956024,-1.84256567395219E-16));
#405=CARTESIAN_POINT('',(17.5967314188081,9.52232976851099,-1.63320361101845E-16));
#406=CARTESIAN_POINT('',(17.5555537914419,9.525,-1.33665325714248E-16));
#407=CARTESIAN_POINT('',(15.403187352134,9.525,-2.26707158769031E-17));
#408=CARTESIAN_POINT('',(13.2714097265093,9.525,-2.46519032881566E-32));
#409=CARTESIAN_POINT('',(11.1396321008846,9.525,0.0));
#410=CARTESIAN_POINT('',(9.00785447525989,9.52499999999999,-2.26707158769031E-17));
#411=CARTESIAN_POINT('',(6.83942555345967,9.52499999999999,-1.60332799170972E-16));
#412=CARTESIAN_POINT('',(6.76612296110861,9.51653815740883,-2.19149105713948E-16));
#413=CARTESIAN_POINT('',(6.68755213188075,9.49027761329857,-2.31868284923475E-16));
#414=CARTESIAN_POINT('',(6.62097437725903,9.44097858722249,-1.96633928956826E-16));
#415=CARTESIAN_POINT('',(6.57199820190601,9.38578613236484,-1.29948997573534E-16));
#416=CARTESIAN_POINT('',(5.3282384684593,7.60951314817681,-1.67282425787784E-17));
#417=CARTESIAN_POINT('',(4.10550105486059,5.86326314817681,3.20474742746036E-32));
#418=CARTESIAN_POINT('',(2.88276364126189,4.11701314817681,3.94430452610506E-32));
#419=CARTESIAN_POINT('',(1.66002622766319,2.37076314817682,-1.67282425787784E-17));
#420=CARTESIAN_POINT('',(0.425479555683348,0.607647779358699,-9.20884894581234E-17));
#421=CARTESIAN_POINT('',(0.40404836450389,0.572385459860495,-1.00889649552597E-16));
#422=CARTESIAN_POINT('',(0.376673622967228,0.51119777463094,-9.54224046861915E-17));
#423=CARTESIAN_POINT('',(0.358544505273771,0.42415757239378,-5.99560922208796E-17));
#424=CARTESIAN_POINT('',(0.367276908519015,0.309428791439823,4.28309500713183E-18));
#425=CARTESIAN_POINT('',(0.404767283716328,0.210708511043348,6.52952500416512E-17));
#426=CARTESIAN_POINT('',(0.464130607413271,0.123374566933658,1.22672564846107E-16));
#427=CARTESIAN_POINT('',(0.553102222136415,0.0504156756381215,1.71321809743961E-16));
#428=CARTESIAN_POINT('',(0.634799816454615,0.0153419704397235,1.84256567395215E-16));
#429=CARTESIAN_POINT('',(0.700623340592307,0.00267023148899614,1.63320361101792E-16));
#430=CARTESIAN_POINT('',(0.741800967958428,-7.99360577730113E-15,1.33665325714248E-16));
#431=CARTESIAN_POINT('',(2.89416740726637,-6.21724893790088E-15,2.26707158769031E-17));
#432=CARTESIAN_POINT('',(5.02594503289106,-6.21724893790088E-15,-3.94430452610506E-32));
#433=CARTESIAN_POINT('',(7.15772265851575,-7.99360577730113E-15,2.95822839457879E-32));
#434=CARTESIAN_POINT('',(9.28950028414044,-7.105427357601E-15,1.97215226305253E-32));
#435=CARTESIAN_POINT('',(11.4579292059407,-7.99360577730113E-15,2.30906492099866E-16));
#436=CARTESIAN_POINT('',(0.0,0.0,0.0));
#437=CARTESIAN_POINT('',(9.14867737970017,4.7625,0.0));
#438=CARTESIAN_POINT('',(9.14867737970017,4.7625,-3.96875));
#439=CARTESIAN_POINT('',(7.19725354670809,3.74665305088292,-3.96875));
#440=CARTESIAN_POINT('',(9.14867737970017,8.75355314810967,-3.96875));
#441=CARTESIAN_POINT('',(7.07106661379345,8.75355314810967,-3.96875));
#442=CARTESIAN_POINT('',(16.8154191450109,8.75355314810967,-3.96875));
#443=CARTESIAN_POINT('',(12.4179567248402,2.47332595801962,-3.96875));
#444=CARTESIAN_POINT('',(11.2262881456069,0.77144685189031,-3.96875));
#445=CARTESIAN_POINT('',(9.14867737970017,0.77144685189031,-3.96875));
#446=CARTESIAN_POINT('',(1.48193561438947,0.771446851890311,-3.96875));
#447=CARTESIAN_POINT('',(5.87939803456011,7.05167404198037,-3.96875));
#448=CARTESIAN_POINT('',(8.98920404722148,4.25671520759503,-3.96875));
#449=CARTESIAN_POINT('',(9.14867737970017,9.52499999999999,-5.65390330310514E-15));
#450=CARTESIAN_POINT('',(17.5349649777587,9.525,-4.69304186825065E-15));
#451=CARTESIAN_POINT('',(6.8760768496352,9.52499999999999,-5.91428719533832E-15));
#452=CARTESIAN_POINT('',(17.5349649777587,9.525,-4.16506546808399E-15));
#453=CARTESIAN_POINT('',(17.5349649777587,9.12812499999999,-2.04174487508822));
#454=CARTESIAN_POINT('',(17.2137902148519,8.96093200096199,-2.90187828973132));
#455=CARTESIAN_POINT('',(6.69369818006428,9.4784711645865,-0.239370107084902));
#456=CARTESIAN_POINT('',(6.8760768496352,9.12812499999998,-2.04174487508826));
#457=CARTESIAN_POINT('',(6.8760768496352,9.52499999999999,-5.05015643225388E-15));
#458=CARTESIAN_POINT('',(9.14867737970017,9.52499999999999,-5.65390330310514E-15));
#459=CARTESIAN_POINT('',(1.08356454454839,0.564067999037997,-2.90187828973132));
#460=CARTESIAN_POINT('',(0.762389781641672,0.396874999999993,-2.04174487508822));
#461=CARTESIAN_POINT('',(0.437288814064478,0.624513148176816,-1.21162137711546E-15));
#462=CARTESIAN_POINT('',(0.437288814064478,0.624513148176816,-1.56778251205973E-15));
#463=CARTESIAN_POINT('',(5.24746576877385,7.49415777812186,-4.94080650733019E-15));
#464=CARTESIAN_POINT('',(6.55097588205801,9.35576314817681,-5.85486246235708E-15));
#465=CARTESIAN_POINT('',(6.55097588205801,9.35576314817681,-5.47776880577433E-15));
#466=CARTESIAN_POINT('',(5.24746576877384,7.49415777812185,-4.94080650733019E-15));
#467=CARTESIAN_POINT('',(11.6036565793361,0.0465288354134829,-0.239370107084896));
#468=CARTESIAN_POINT('',(11.4212779097651,0.396874999999996,-2.04174487508824));
#469=CARTESIAN_POINT('',(11.4212779097651,-6.93889390390723E-15,-1.28239792338904E-16));
#470=CARTESIAN_POINT('',(11.4212779097651,-6.93889390390723E-15,4.74523995847622E-17));
#471=CARTESIAN_POINT('',(9.14867737970017,-6.93889390390723E-15,-2.12931492648417E-16));
#472=CARTESIAN_POINT('',(0.762389781641675,-6.93889390390723E-15,-1.17379292750291E-15));
#473=CARTESIAN_POINT('',(0.762389781641675,-6.93889390390723E-15,-7.40838693382853E-16));
#474=CARTESIAN_POINT('',(9.14867737970017,-6.93889390390723E-15,-2.12931492648418E-16));
#475=CARTESIAN_POINT('',(17.8600659453359,8.90048685182317,-4.19939819298823E-15));
#476=CARTESIAN_POINT('',(17.8600659453359,8.90048685182317,-4.29905228369384E-15));
#477=CARTESIAN_POINT('',(13.0498889906265,2.03084222187814,-9.26028288423376E-16));
#478=CARTESIAN_POINT('',(11.7463788773423,0.169236851823173,-1.19723333964855E-17));
#479=CARTESIAN_POINT('',(11.7463788773423,0.169236851823173,-8.61366746101906E-17));
#480=CARTESIAN_POINT('',(13.0498889906265,2.03084222187814,-9.26028288423374E-16));
#481=CARTESIAN_POINT('',(9.14867737970017,4.7625,0.0));
#482=CARTESIAN_POINT('',(6.42437852364753,3.34431977968318,0.0));
#483=CARTESIAN_POINT('',(17.5349649777587,9.12812499999999,-4.46633470948162E-15));
#484=CARTESIAN_POINT('',(6.8760768496352,9.12812499999999,-5.68758003656929E-15));
#485=CARTESIAN_POINT('',(0.762389781641674,0.396874999999993,-1.40050008627194E-15));
#486=CARTESIAN_POINT('',(11.4212779097651,0.396874999999994,-1.79254759184269E-16));
#487=CARTESIAN_POINT('',(9.14867737970017,4.7625,-2.93341739787678E-15));
#488=CARTESIAN_POINT('',(17.5349649777587,9.12812499999999,-4.33680868994202E-15));
#489=CARTESIAN_POINT('',(11.4212779097651,0.396874999999994,0.0));
#490=CARTESIAN_POINT('',(0.762389781641674,0.396874999999993,-8.67361737988404E-16));
#491=CARTESIAN_POINT('',(6.8760768496352,9.12812499999999,-5.20417042793042E-15));
#492=CARTESIAN_POINT('',(9.14867737970017,4.7625,-0.9334513189811));
#493=CARTESIAN_POINT('',(11.8150781338492,6.15054037617628,-0.9334513189811));
#494=CARTESIAN_POINT('',(9.14867737970017,4.7625,-1.02000000000516));
#495=CARTESIAN_POINT('',(9.14867737970017,4.7625,-1.08746453661102));
#496=CARTESIAN_POINT('',(11.7657990129709,6.12488728956691,-1.08746453661102));
#497=CARTESIAN_POINT('',(9.14867737970017,4.7625,-3.42000000000001));
#498=CARTESIAN_POINT('',(7.19725354670809,3.74665305088292,-3.42000000000001));
#499=CARTESIAN_POINT('',(9.14867737970017,4.7625,-3.42));
#500=CARTESIAN_POINT('',(9.14867737970017,4.7625,-33.3676978394524));
#501=CARTESIAN_POINT('',(9.14867737970017,4.7625,-0.912524376856845));
#502=MECHANICAL_DESIGN_GEOMETRIC_PRESENTATION_REPRESENTATION('',(#269,#270,#271,
     #272),#503);
#503=(GEOMETRIC_REPRESENTATION_CONTEXT(3)GLOBAL_UNCERTAINTY_ASSIGNED_CONTEXT((#504))
     GLOBAL_UNIT_ASSIGNED_CONTEXT((#510,#506,#505))REPRESENTATION_CONTEXT('DPMT11T304',
     'TOP_LEVEL_ASSEMBLY_PART'));
#504=UNCERTAINTY_MEASURE_WITH_UNIT(LENGTH_MEASURE(2.0E-5),#510,'DISTANCE_ACCURACY_VALUE',
     'Maximum Tolerance applied to model');
#505=(NAMED_UNIT(*)SI_UNIT($,.STERADIAN.)SOLID_ANGLE_UNIT());
#506=(CONVERSION_BASED_UNIT('DEGREE',#508)NAMED_UNIT(#507)PLANE_ANGLE_UNIT());
#507=DIMENSIONAL_EXPONENTS(0.0,0.0,0.0,0.0,0.0,0.0,0.0);
#508=PLANE_ANGLE_MEASURE_WITH_UNIT(PLANE_ANGLE_MEASURE(0.0174532925),#509);
#509=(NAMED_UNIT(*)PLANE_ANGLE_UNIT()SI_UNIT($,.RADIAN.));
#510=(LENGTH_UNIT()NAMED_UNIT(*)SI_UNIT(.MILLI.,.METRE.));
#511=CONSTRUCTIVE_GEOMETRY_REPRESENTATION('supplemental geometry',(#286,#287),#503);
#512=CONSTRUCTIVE_GEOMETRY_REPRESENTATION_RELATIONSHIP('supplemental geometry','contains PCS and MCS coordinate systems',
     #24,#511);
ENDSEC;
END-ISO-10303-21;
