ISO-10303-21;
HEADER;
FILE_DESCRIPTION(
/* description */ (''),
/* implementation_level */ '2;1');
FILE_NAME(
/* name */ 'SCMT09T312.stp',
/* time_stamp */ '2017-03-21T10:54:16',
/* author */ ('Sandvik Coromant R&D'),
/* organization */ ('Sandvik Machining Solutions'),
/* preprocessor_version */ 'ST-DEVELOPER v15',
/* originating_system */ 'SIEMENS PLM Software NX v8.5.3.3(64 bits)',
/* authorization */ '');
FILE_SCHEMA(('AUTOMOTIVE_DESIGN'));
ENDSEC;
DATA;
#10=GEOMETRICALLY_BOUNDED_WIREFRAME_SHAPE_REPRESENTATION('IsoTurningInsert-None',
     (#25),#519);
#11=SHAPE_REPRESENTATION_RELATIONSHIP('None','relationship between IsoTurningInsert-None and IsoTurningInsert-None',
     #24,#13);
#12=SHAPE_REPRESENTATION_RELATIONSHIP('None','relationship between IsoTurningInsert-None and IsoTurningInsert-None',
     #24,#10);
#13=ADVANCED_BREP_SHAPE_REPRESENTATION('IsoTurningInsert-None',(#31),#519);
#14=SHAPE_DEFINITION_REPRESENTATION(#15,#24);
#15=PRODUCT_DEFINITION_SHAPE('','',#16);
#16=PRODUCT_DEFINITION(' ','',#18,#17);
#17=PRODUCT_DEFINITION_CONTEXT('part definition',#23,'design');
#18=PRODUCT_DEFINITION_FORMATION_WITH_SPECIFIED_SOURCE(' ',' ',#20,.NOT_KNOWN.);
#19=PRODUCT_RELATED_PRODUCT_CATEGORY('part','',(#20));
#20=PRODUCT('IsoTurningInsert','IsoTurningInsert',' ',(#21));
#21=PRODUCT_CONTEXT(' ',#23,'mechanical');
#22=APPLICATION_PROTOCOL_DEFINITION('international standard','automotive_design',
     2010,#23);
#23=APPLICATION_CONTEXT('core data for automotive mechanical design processes');
#24=SHAPE_REPRESENTATION('IsoTurningInsert-None',(#281),#519);
#25=GEOMETRIC_CURVE_SET('geometric curve set',(#261));
#26=SURFACE_STYLE_USAGE(.BOTH.,#27);
#27=SURFACE_SIDE_STYLE('',(#28));
#28=SURFACE_STYLE_FILL_AREA(#29);
#29=FILL_AREA_STYLE('',(#30));
#30=FILL_AREA_STYLE_COLOUR('',#280);
#31=MANIFOLD_SOLID_BREP('CUT',#32);
#32=CLOSED_SHELL('',(#49,#50,#51,#52,#53,#54,#55,#56,#57,#58,#59,#60,#61,#62));
#33=CYLINDRICAL_SURFACE('',#309,2.2);
#34=TOROIDAL_SURFACE('',#308,6.2,4.0);
#35=TOROIDAL_SURFACE('',#310,2.51117873496443,0.5);
#36=CONICAL_SURFACE('',#300,1.190625,7.0);
#37=CONICAL_SURFACE('',#301,1.190625,7.0);
#38=CONICAL_SURFACE('',#302,1.190625,7.0);
#39=CONICAL_SURFACE('',#303,1.190625,7.0);
#40=CONICAL_SURFACE('',#305,2.99999999999613,4.00000000019621);
#41=FACE_OUTER_BOUND('',#115,.T.);
#42=FACE_OUTER_BOUND('',#116,.T.);
#43=FACE_OUTER_BOUND('',#117,.T.);
#44=FACE_OUTER_BOUND('',#118,.T.);
#45=FACE_OUTER_BOUND('',#121,.T.);
#46=FACE_OUTER_BOUND('',#122,.T.);
#47=FACE_OUTER_BOUND('',#123,.T.);
#48=FACE_OUTER_BOUND('',#124,.T.);
#49=ADVANCED_FACE('',(#101,#102),#63,.F.);
#50=ADVANCED_FACE('',(#41),#64,.F.);
#51=ADVANCED_FACE('',(#42),#65,.F.);
#52=ADVANCED_FACE('',(#43),#66,.F.);
#53=ADVANCED_FACE('',(#44),#67,.F.);
#54=ADVANCED_FACE('',(#103,#104),#68,.T.);
#55=ADVANCED_FACE('',(#45),#36,.T.);
#56=ADVANCED_FACE('',(#46),#37,.T.);
#57=ADVANCED_FACE('',(#47),#38,.T.);
#58=ADVANCED_FACE('',(#48),#39,.T.);
#59=ADVANCED_FACE('',(#105,#106),#40,.F.);
#60=ADVANCED_FACE('',(#107,#108),#34,.T.);
#61=ADVANCED_FACE('',(#109,#110),#33,.F.);
#62=ADVANCED_FACE('',(#111,#112),#35,.F.);
#63=PLANE('',#289);
#64=PLANE('',#290);
#65=PLANE('',#291);
#66=PLANE('',#292);
#67=PLANE('',#293);
#68=PLANE('',#299);
#69=LINE('',#456,#85);
#70=LINE('',#461,#86);
#71=LINE('',#465,#87);
#72=LINE('',#469,#88);
#73=LINE('',#473,#89);
#74=LINE('',#476,#90);
#75=LINE('',#477,#91);
#76=LINE('',#479,#92);
#77=LINE('',#481,#93);
#78=LINE('',#483,#94);
#79=LINE('',#485,#95);
#80=LINE('',#487,#96);
#81=LINE('',#489,#97);
#82=LINE('',#491,#98);
#83=LINE('',#493,#99);
#84=LINE('',#495,#100);
#85=VECTOR('',#319,1.0);
#86=VECTOR('',#322,1.0);
#87=VECTOR('',#325,1.0);
#88=VECTOR('',#328,1.0);
#89=VECTOR('',#333,1.0);
#90=VECTOR('',#334,1.0);
#91=VECTOR('',#335,1.0);
#92=VECTOR('',#338,1.0);
#93=VECTOR('',#339,1.0);
#94=VECTOR('',#340,1.0);
#95=VECTOR('',#343,1.0);
#96=VECTOR('',#344,1.0);
#97=VECTOR('',#345,1.0);
#98=VECTOR('',#348,1.0);
#99=VECTOR('',#349,1.0);
#100=VECTOR('',#350,1.0);
#101=FACE_BOUND('',#113,.T.);
#102=FACE_BOUND('',#114,.T.);
#103=FACE_BOUND('',#119,.T.);
#104=FACE_BOUND('',#120,.T.);
#105=FACE_BOUND('',#125,.T.);
#106=FACE_BOUND('',#126,.T.);
#107=FACE_BOUND('',#127,.T.);
#108=FACE_BOUND('',#128,.T.);
#109=FACE_BOUND('',#129,.T.);
#110=FACE_BOUND('',#130,.T.);
#111=FACE_BOUND('',#131,.T.);
#112=FACE_BOUND('',#132,.T.);
#113=EDGE_LOOP('',(#133));
#114=EDGE_LOOP('',(#134,#135,#136,#137,#138,#139,#140,#141));
#115=EDGE_LOOP('',(#142,#143,#144,#145));
#116=EDGE_LOOP('',(#146,#147,#148,#149));
#117=EDGE_LOOP('',(#150,#151,#152,#153));
#118=EDGE_LOOP('',(#154,#155,#156,#157));
#119=EDGE_LOOP('',(#158));
#120=EDGE_LOOP('',(#159,#160,#161,#162,#163,#164,#165,#166));
#121=EDGE_LOOP('',(#167,#168,#169,#170));
#122=EDGE_LOOP('',(#171,#172,#173,#174));
#123=EDGE_LOOP('',(#175,#176,#177,#178));
#124=EDGE_LOOP('',(#179,#180,#181,#182));
#125=EDGE_LOOP('',(#183));
#126=EDGE_LOOP('',(#184));
#127=EDGE_LOOP('',(#185));
#128=EDGE_LOOP('',(#186));
#129=EDGE_LOOP('',(#187));
#130=EDGE_LOOP('',(#188));
#131=EDGE_LOOP('',(#189));
#132=EDGE_LOOP('',(#190));
#133=ORIENTED_EDGE('',*,*,#212,.T.);
#134=ORIENTED_EDGE('',*,*,#213,.T.);
#135=ORIENTED_EDGE('',*,*,#214,.T.);
#136=ORIENTED_EDGE('',*,*,#215,.T.);
#137=ORIENTED_EDGE('',*,*,#216,.T.);
#138=ORIENTED_EDGE('',*,*,#217,.T.);
#139=ORIENTED_EDGE('',*,*,#218,.T.);
#140=ORIENTED_EDGE('',*,*,#219,.T.);
#141=ORIENTED_EDGE('',*,*,#220,.T.);
#142=ORIENTED_EDGE('',*,*,#221,.F.);
#143=ORIENTED_EDGE('',*,*,#222,.T.);
#144=ORIENTED_EDGE('',*,*,#213,.F.);
#145=ORIENTED_EDGE('',*,*,#223,.T.);
#146=ORIENTED_EDGE('',*,*,#219,.F.);
#147=ORIENTED_EDGE('',*,*,#224,.T.);
#148=ORIENTED_EDGE('',*,*,#225,.F.);
#149=ORIENTED_EDGE('',*,*,#226,.T.);
#150=ORIENTED_EDGE('',*,*,#217,.F.);
#151=ORIENTED_EDGE('',*,*,#227,.T.);
#152=ORIENTED_EDGE('',*,*,#228,.F.);
#153=ORIENTED_EDGE('',*,*,#229,.T.);
#154=ORIENTED_EDGE('',*,*,#215,.F.);
#155=ORIENTED_EDGE('',*,*,#230,.T.);
#156=ORIENTED_EDGE('',*,*,#231,.F.);
#157=ORIENTED_EDGE('',*,*,#232,.T.);
#158=ORIENTED_EDGE('',*,*,#233,.F.);
#159=ORIENTED_EDGE('',*,*,#231,.T.);
#160=ORIENTED_EDGE('',*,*,#234,.T.);
#161=ORIENTED_EDGE('',*,*,#221,.T.);
#162=ORIENTED_EDGE('',*,*,#235,.T.);
#163=ORIENTED_EDGE('',*,*,#225,.T.);
#164=ORIENTED_EDGE('',*,*,#236,.T.);
#165=ORIENTED_EDGE('',*,*,#228,.T.);
#166=ORIENTED_EDGE('',*,*,#237,.T.);
#167=ORIENTED_EDGE('',*,*,#214,.F.);
#168=ORIENTED_EDGE('',*,*,#222,.F.);
#169=ORIENTED_EDGE('',*,*,#234,.F.);
#170=ORIENTED_EDGE('',*,*,#230,.F.);
#171=ORIENTED_EDGE('',*,*,#216,.F.);
#172=ORIENTED_EDGE('',*,*,#232,.F.);
#173=ORIENTED_EDGE('',*,*,#237,.F.);
#174=ORIENTED_EDGE('',*,*,#227,.F.);
#175=ORIENTED_EDGE('',*,*,#218,.F.);
#176=ORIENTED_EDGE('',*,*,#229,.F.);
#177=ORIENTED_EDGE('',*,*,#236,.F.);
#178=ORIENTED_EDGE('',*,*,#224,.F.);
#179=ORIENTED_EDGE('',*,*,#220,.F.);
#180=ORIENTED_EDGE('',*,*,#226,.F.);
#181=ORIENTED_EDGE('',*,*,#235,.F.);
#182=ORIENTED_EDGE('',*,*,#223,.F.);
#183=ORIENTED_EDGE('',*,*,#238,.T.);
#184=ORIENTED_EDGE('',*,*,#233,.T.);
#185=ORIENTED_EDGE('',*,*,#239,.T.);
#186=ORIENTED_EDGE('',*,*,#240,.T.);
#187=ORIENTED_EDGE('',*,*,#240,.F.);
#188=ORIENTED_EDGE('',*,*,#212,.F.);
#189=ORIENTED_EDGE('',*,*,#239,.F.);
#190=ORIENTED_EDGE('',*,*,#238,.F.);
#191=VERTEX_POINT('',#455);
#192=VERTEX_POINT('',#457);
#193=VERTEX_POINT('',#458);
#194=VERTEX_POINT('',#460);
#195=VERTEX_POINT('',#462);
#196=VERTEX_POINT('',#464);
#197=VERTEX_POINT('',#466);
#198=VERTEX_POINT('',#468);
#199=VERTEX_POINT('',#470);
#200=VERTEX_POINT('',#474);
#201=VERTEX_POINT('',#475);
#202=VERTEX_POINT('',#480);
#203=VERTEX_POINT('',#482);
#204=VERTEX_POINT('',#486);
#205=VERTEX_POINT('',#488);
#206=VERTEX_POINT('',#492);
#207=VERTEX_POINT('',#494);
#208=VERTEX_POINT('',#498);
#209=VERTEX_POINT('',#509);
#210=VERTEX_POINT('',#512);
#211=VERTEX_POINT('',#514);
#212=EDGE_CURVE('',#191,#191,#241,.T.);
#213=EDGE_CURVE('',#192,#193,#69,.T.);
#214=EDGE_CURVE('',#193,#194,#242,.T.);
#215=EDGE_CURVE('',#194,#195,#70,.T.);
#216=EDGE_CURVE('',#195,#196,#243,.T.);
#217=EDGE_CURVE('',#196,#197,#71,.T.);
#218=EDGE_CURVE('',#197,#198,#244,.T.);
#219=EDGE_CURVE('',#198,#199,#72,.T.);
#220=EDGE_CURVE('',#199,#192,#245,.T.);
#221=EDGE_CURVE('',#200,#201,#73,.T.);
#222=EDGE_CURVE('',#200,#193,#74,.T.);
#223=EDGE_CURVE('',#192,#201,#75,.T.);
#224=EDGE_CURVE('',#198,#202,#76,.T.);
#225=EDGE_CURVE('',#203,#202,#77,.T.);
#226=EDGE_CURVE('',#203,#199,#78,.T.);
#227=EDGE_CURVE('',#196,#204,#79,.T.);
#228=EDGE_CURVE('',#205,#204,#80,.T.);
#229=EDGE_CURVE('',#205,#197,#81,.T.);
#230=EDGE_CURVE('',#194,#206,#82,.T.);
#231=EDGE_CURVE('',#207,#206,#83,.T.);
#232=EDGE_CURVE('',#207,#195,#84,.T.);
#233=EDGE_CURVE('',#208,#208,#246,.T.);
#234=EDGE_CURVE('',#206,#200,#247,.T.);
#235=EDGE_CURVE('',#201,#203,#248,.T.);
#236=EDGE_CURVE('',#202,#205,#249,.T.);
#237=EDGE_CURVE('',#204,#207,#250,.T.);
#238=EDGE_CURVE('',#209,#209,#251,.T.);
#239=EDGE_CURVE('',#210,#210,#252,.T.);
#240=EDGE_CURVE('',#211,#211,#253,.T.);
#241=CIRCLE('',#284,2.2);
#242=CIRCLE('',#285,0.703323773916596);
#243=CIRCLE('',#286,0.703323773916596);
#244=CIRCLE('',#287,0.703323773916596);
#245=CIRCLE('',#288,0.703323773916596);
#246=CIRCLE('',#294,3.07132534818238);
#247=CIRCLE('',#295,1.190625);
#248=CIRCLE('',#296,1.190625);
#249=CIRCLE('',#297,1.190625);
#250=CIRCLE('',#298,1.190625);
#251=CIRCLE('',#304,3.00996076009422);
#252=CIRCLE('',#306,2.92104776441283);
#253=CIRCLE('',#307,2.2);
#254=CURVE_STYLE('',#258,POSITIVE_LENGTH_MEASURE(0.18),#257);
#255=CURVE_STYLE('',#259,POSITIVE_LENGTH_MEASURE(0.18),#279);
#256=CURVE_STYLE('',#260,POSITIVE_LENGTH_MEASURE(0.18),#279);
#257=DRAUGHTING_PRE_DEFINED_COLOUR('blue');
#258=DRAUGHTING_PRE_DEFINED_CURVE_FONT('continuous');
#259=DRAUGHTING_PRE_DEFINED_CURVE_FONT('continuous');
#260=DRAUGHTING_PRE_DEFINED_CURVE_FONT('continuous');
#261=B_SPLINE_CURVE_WITH_KNOTS('CUTTING EDGE LINE',5,(#390,#391,#392,#393,#394,#395,
     #396,#397,#398,#399,#400,#401,#402,#403,#404,#405,#406,#407,#408,#409,#410,
     #411,#412,#413,#414,#415,#416,#417,#418,#419,#420,#421,#422,#423,#424,#425,
     #426,#427,#428,#429,#430,#431,#432,#433,#434,#435,#436,#437,#438,#439,#440,
     #441,#442,#443,#444,#445,#446,#447,#448,#449,#450,#451),.UNSPECIFIED.,.T.,.F.,
     (2,4,1,1,1,1,1,1,1,4,4,1,1,1,1,1,1,1,4,4,1,1,1,1,1,1,1,4,4,1,1,1,1,1,1,1,4,
     4,1,1),(-0.1981297522,0.0,0.00648378097500002,0.01296756195,0.0194513429250001,
     0.0259351239,0.032418904875,0.03890268585,0.045386466825,0.0518702478,0.25,
     0.256483780975,0.26296756195,0.269451342925,0.2759351239,0.282418904875,0.28890268585,
     0.295386466825,0.3018702478,0.5,0.506483780975,0.51296756195,0.519451342925,
     0.5259351239,0.532418904875,0.53890268585,0.545386466825,0.5518702478,0.75,
     0.756483780975,0.76296756195,0.769451342925,0.7759351239,0.782418904875,0.78890268585,
     0.795386466825,0.8018702478,1.0,1.006483780975,1.01296756195),.UNSPECIFIED.);
#262=PRESENTATION_LAYER_ASSIGNMENT('1','Layer 1',(#261,#282,#283,#31));
#265=STYLED_ITEM('',(#271),#261);
#266=STYLED_ITEM('',(#272),#282);
#267=STYLED_ITEM('',(#273),#283);
#268=STYLED_ITEM('',(#274),#31);
#269=PRESENTATION_STYLE_ASSIGNMENT((#275));
#270=PRESENTATION_STYLE_ASSIGNMENT((#276));
#271=PRESENTATION_STYLE_ASSIGNMENT((#254));
#272=PRESENTATION_STYLE_ASSIGNMENT((#255));
#273=PRESENTATION_STYLE_ASSIGNMENT((#256));
#274=PRESENTATION_STYLE_ASSIGNMENT((#26));
#275=POINT_STYLE('',#277,POSITIVE_LENGTH_MEASURE(3.0),#279);
#276=POINT_STYLE('',#278,POSITIVE_LENGTH_MEASURE(3.0),#279);
#277=PRE_DEFINED_POINT_MARKER_SYMBOL('plus');
#278=PRE_DEFINED_POINT_MARKER_SYMBOL('plus');
#279=COLOUR_RGB('Medium Maroon',0.6,0.4,0.4);
#280=COLOUR_RGB('IsoInsertColor',0.8,0.8,0.8);
#281=AXIS2_PLACEMENT_3D('',#387,#311,#312);
#282=AXIS2_PLACEMENT_3D('PCS',#452,#313,#314);
#283=AXIS2_PLACEMENT_3D('MCS',#453,#315,#316);
#284=AXIS2_PLACEMENT_3D('',#454,#317,#318);
#285=AXIS2_PLACEMENT_3D('',#459,#320,#321);
#286=AXIS2_PLACEMENT_3D('',#463,#323,#324);
#287=AXIS2_PLACEMENT_3D('',#467,#326,#327);
#288=AXIS2_PLACEMENT_3D('',#471,#329,#330);
#289=AXIS2_PLACEMENT_3D('',#472,#331,#332);
#290=AXIS2_PLACEMENT_3D('',#478,#336,#337);
#291=AXIS2_PLACEMENT_3D('',#484,#341,#342);
#292=AXIS2_PLACEMENT_3D('',#490,#346,#347);
#293=AXIS2_PLACEMENT_3D('',#496,#351,#352);
#294=AXIS2_PLACEMENT_3D('',#497,#353,#354);
#295=AXIS2_PLACEMENT_3D('',#499,#355,#356);
#296=AXIS2_PLACEMENT_3D('',#500,#357,#358);
#297=AXIS2_PLACEMENT_3D('',#501,#359,#360);
#298=AXIS2_PLACEMENT_3D('',#502,#361,#362);
#299=AXIS2_PLACEMENT_3D('',#503,#363,#364);
#300=AXIS2_PLACEMENT_3D('',#504,#365,#366);
#301=AXIS2_PLACEMENT_3D('',#505,#367,#368);
#302=AXIS2_PLACEMENT_3D('',#506,#369,#370);
#303=AXIS2_PLACEMENT_3D('',#507,#371,#372);
#304=AXIS2_PLACEMENT_3D('',#508,#373,#374);
#305=AXIS2_PLACEMENT_3D('',#510,#375,#376);
#306=AXIS2_PLACEMENT_3D('',#511,#377,#378);
#307=AXIS2_PLACEMENT_3D('',#513,#379,#380);
#308=AXIS2_PLACEMENT_3D('',#515,#381,#382);
#309=AXIS2_PLACEMENT_3D('',#516,#383,#384);
#310=AXIS2_PLACEMENT_3D('',#517,#385,#386);
#311=DIRECTION('',(0.0,0.0,1.0));
#312=DIRECTION('',(1.0,0.0,0.0));
#313=DIRECTION('',(0.0,0.0,1.0));
#314=DIRECTION('',(1.0,0.0,0.0));
#315=DIRECTION('',(0.0,0.0,1.0));
#316=DIRECTION('',(1.0,0.0,0.0));
#317=DIRECTION('',(0.0,0.0,1.0));
#318=DIRECTION('',(-0.707106781186548,-0.707106781186548,0.0));
#319=DIRECTION('',(1.0,-2.22044604925031E-16,0.0));
#320=DIRECTION('',(0.0,0.0,-1.0));
#321=DIRECTION('',(-0.707106781186548,-0.707106781186548,0.0));
#322=DIRECTION('',(3.88578058618805E-16,-1.0,0.0));
#323=DIRECTION('',(0.0,0.0,-1.0));
#324=DIRECTION('',(-0.707106781186546,-0.707106781186548,0.0));
#325=DIRECTION('',(-1.0,0.0,0.0));
#326=DIRECTION('',(0.0,0.0,-1.0));
#327=DIRECTION('',(-0.707106781186548,-0.707106781186548,0.0));
#328=DIRECTION('',(-2.22044604925031E-16,1.0,0.0));
#329=DIRECTION('',(0.0,0.0,-1.0));
#330=DIRECTION('',(-0.707106781186548,-0.707106781186548,0.0));
#331=DIRECTION('',(0.0,0.0,1.0));
#332=DIRECTION('',(-0.707106781186548,-0.707106781186548,0.0));
#333=DIRECTION('',(-1.0,2.22044604925031E-16,-1.3779323972486E-16));
#334=DIRECTION('',(1.31838984174237E-16,-0.121869343405148,-0.992546151641322));
#335=DIRECTION('',(-1.31838984174237E-16,0.121869343405148,0.992546151641322));
#336=DIRECTION('',(-1.66533453693773E-16,-0.992546151641322,0.121869343405148));
#337=DIRECTION('',(1.0,-2.22044604925031E-16,0.0));
#338=DIRECTION('',(-0.121869343405148,4.71844785465692E-16,0.992546151641322));
#339=DIRECTION('',(2.22044604925031E-16,-1.0,4.83711685284145E-16));
#340=DIRECTION('',(0.121869343405148,-4.71844785465692E-16,-0.992546151641322));
#341=DIRECTION('',(0.992546151641322,1.66533453693773E-16,0.121869343405148));
#342=DIRECTION('',(-2.22044604925031E-16,1.0,0.0));
#343=DIRECTION('',(-1.38777878078145E-16,-0.121869343405147,0.992546151641322));
#344=DIRECTION('',(1.0,0.0,1.3779323972486E-16));
#345=DIRECTION('',(1.38777878078145E-16,0.121869343405147,-0.992546151641322));
#346=DIRECTION('',(0.0,0.992546151641322,0.121869343405147));
#347=DIRECTION('',(-1.0,0.0,0.0));
#348=DIRECTION('',(0.121869343405147,5.34294830600857E-16,0.992546151641322));
#349=DIRECTION('',(-3.88578058618805E-16,1.0,-4.83711685284145E-16));
#350=DIRECTION('',(-0.121869343405147,-5.34294830600857E-16,-0.992546151641322));
#351=DIRECTION('',(-0.992546151641322,-3.88578058618805E-16,0.121869343405147));
#352=DIRECTION('',(3.88578058618805E-16,-1.0,0.0));
#353=DIRECTION('',(0.0,0.0,1.0));
#354=DIRECTION('',(-0.707106781186548,-0.707106781186548,0.0));
#355=DIRECTION('',(-1.3987061727561E-16,4.91004146061257E-16,1.0));
#356=DIRECTION('',(-0.707106781186547,0.707106781186547,-4.46095823234957E-16));
#357=DIRECTION('',(-1.3987061727561E-16,4.91004146061257E-16,1.0));
#358=DIRECTION('',(-0.707106781186548,0.707106781186547,-4.46095823234957E-16));
#359=DIRECTION('',(-1.3987061727561E-16,4.91004146061257E-16,1.0));
#360=DIRECTION('',(-0.707106781186548,0.707106781186548,-4.46095823234957E-16));
#361=DIRECTION('',(-1.3987061727561E-16,4.91004146061257E-16,1.0));
#362=DIRECTION('',(-0.707106781186547,0.707106781186548,-4.46095823234957E-16));
#363=DIRECTION('',(-1.3987061727561E-16,4.91004146061257E-16,1.0));
#364=DIRECTION('',(-0.707106781186548,0.707106781186548,-4.46095823234957E-16));
#365=DIRECTION('',(-1.3987061727561E-16,4.91004146061257E-16,1.0));
#366=DIRECTION('',(-0.707106781186548,0.707106781186548,2.79850110865801E-17));
#367=DIRECTION('',(-1.3987061727561E-16,4.91004146061257E-16,1.0));
#368=DIRECTION('',(-0.707106781186548,0.707106781186548,0.0));
#369=DIRECTION('',(-1.3987061727561E-16,4.91004146061257E-16,1.0));
#370=DIRECTION('',(-0.707106781186548,0.707106781186548,1.39925055432901E-17));
#371=DIRECTION('',(-1.3987061727561E-16,4.91004146061257E-16,1.0));
#372=DIRECTION('',(-0.707106781186548,0.707106781186548,4.19775166298702E-17));
#373=DIRECTION('',(0.0,0.0,-1.0));
#374=DIRECTION('',(0.707106781186548,0.707106781186548,0.0));
#375=DIRECTION('',(0.0,0.0,1.0));
#376=DIRECTION('',(-0.707106781186548,-0.707106781186548,4.75743674970673E-16));
#377=DIRECTION('',(0.0,0.0,1.0));
#378=DIRECTION('',(0.707106781186548,0.707106781186548,0.0));
#379=DIRECTION('',(0.0,0.0,-1.0));
#380=DIRECTION('',(-0.707106781186548,-0.707106781186548,0.0));
#381=DIRECTION('',(0.0,0.0,1.0));
#382=DIRECTION('',(-0.707106781186548,-0.707106781186548,0.0));
#383=DIRECTION('',(0.0,0.0,1.0));
#384=DIRECTION('',(-0.707106781186548,-0.707106781186548,0.0));
#385=DIRECTION('',(0.0,0.0,-1.0));
#386=DIRECTION('',(0.707106781186547,0.707106781186547,0.0));
#387=CARTESIAN_POINT('',(0.0,0.0,0.0));
#390=CARTESIAN_POINT('',(6.905625,-1.77635683940025E-15,0.0));
#391=CARTESIAN_POINT('',(8.37646995056751,-8.88178419700125E-16,5.90489658124247E-16));
#392=CARTESIAN_POINT('',(8.46065985170254,0.00372070312499595,6.00178262382341E-16));
#393=CARTESIAN_POINT('',(8.59612875453718,0.021271695679574,6.09281337250485E-16));
#394=CARTESIAN_POINT('',(8.77385107253931,0.071623340505127,6.05895243381445E-16));
#395=CARTESIAN_POINT('',(8.99202960904958,0.182630121073257,5.74143926999642E-16));
#396=CARTESIAN_POINT('',(9.18532222640316,0.339677773596826,5.13085660135365E-16));
#397=CARTESIAN_POINT('',(9.34236987892676,0.532970390950397,4.26626556859863E-16));
#398=CARTESIAN_POINT('',(9.45337665949485,0.751148927461014,3.19768194482393E-16));
#399=CARTESIAN_POINT('',(9.50372830432043,0.928871245461873,2.27119449977735E-16));
#400=CARTESIAN_POINT('',(9.521279296875,1.06434014829746,1.53584465654865E-16));
#401=CARTESIAN_POINT('',(9.525,1.14853004943249,1.0687944546381E-16));
#402=CARTESIAN_POINT('',(9.525,2.619375,4.99600361081319E-17));
#403=CARTESIAN_POINT('',(9.525,4.048125,3.33066907387546E-17));
#404=CARTESIAN_POINT('',(9.525,5.476875,3.33066907387546E-17));
#405=CARTESIAN_POINT('',(9.525,6.905625,4.9960036108132E-17));
#406=CARTESIAN_POINT('',(9.525,8.37646995056751,6.55418549500268E-17));
#407=CARTESIAN_POINT('',(9.52127929687499,8.46065985170253,3.04851344438332E-17));
#408=CARTESIAN_POINT('',(9.50372830432042,8.59612875453718,-2.47026620862962E-17));
#409=CARTESIAN_POINT('',(9.45337665949487,8.77385107253931,-9.42172743690724E-17));
#410=CARTESIAN_POINT('',(9.34236987892673,8.99202960904958,-1.74359649258114E-16));
#411=CARTESIAN_POINT('',(9.18532222640317,9.18532222640316,-2.39159974770746E-16));
#412=CARTESIAN_POINT('',(8.9920296090496,9.34236987892677,-2.84870066681189E-16));
#413=CARTESIAN_POINT('',(8.77385107253898,9.45337665949485,-3.08565046294996E-16));
#414=CARTESIAN_POINT('',(8.59612875453812,9.50372830432043,-3.10993487673473E-16));
#415=CARTESIAN_POINT('',(8.46065985170253,9.521279296875,-3.04073886287995E-16));
#416=CARTESIAN_POINT('',(8.37646995056751,9.525,-2.96747456610473E-16));
#417=CARTESIAN_POINT('',(6.905625,9.525,-1.75380543421255E-16));
#418=CARTESIAN_POINT('',(5.476875,9.525,-1.16920362280837E-16));
#419=CARTESIAN_POINT('',(4.048125,9.525,-1.16920362280837E-16));
#420=CARTESIAN_POINT('',(2.619375,9.525,-1.75380543421255E-16));
#421=CARTESIAN_POINT('',(1.14853004943249,9.525,-3.08523150050602E-16));
#422=CARTESIAN_POINT('',(1.06434014829747,9.521279296875,-3.38880549565587E-16));
#423=CARTESIAN_POINT('',(0.928871245462822,9.50372830432042,-3.8124152091082E-16));
#424=CARTESIAN_POINT('',(0.751148927460686,9.45337665949487,-4.21486624535114E-16));
#425=CARTESIAN_POINT('',(0.532970390950413,9.34236987892674,-4.43298591157371E-16));
#426=CARTESIAN_POINT('',(0.339677773596838,9.18532222640317,-4.29694062554912E-16));
#427=CARTESIAN_POINT('',(0.182630121073234,8.9920296090496,-3.81790483538549E-16));
#428=CARTESIAN_POINT('',(0.0716233405051483,8.77385107253898,-3.02184515911001E-16));
#429=CARTESIAN_POINT('',(0.0212716956795758,8.59612875453812,-2.21897204591522E-16));
#430=CARTESIAN_POINT('',(0.00372070312500128,8.46065985170253,-1.52671025324546E-16));
#431=CARTESIAN_POINT('',(8.88178419700125E-16,8.37646995056751,-1.0687944546381E-16));
#432=CARTESIAN_POINT('',(8.88178419700125E-16,6.905625,-4.99600361081318E-17));
#433=CARTESIAN_POINT('',(8.88178419700125E-16,5.476875,-3.33066907387546E-17));
#434=CARTESIAN_POINT('',(0.0,4.048125,-3.33066907387546E-17));
#435=CARTESIAN_POINT('',(8.88178419700125E-16,2.619375,-4.9960036108132E-17));
#436=CARTESIAN_POINT('',(1.77635683940025E-15,1.14853004943248,-6.55418549500269E-17));
#437=CARTESIAN_POINT('',(0.00372070312500306,1.06434014829746,-3.04851344438333E-17));
#438=CARTESIAN_POINT('',(0.0212716956795713,0.928871245462814,2.47026620862963E-17));
#439=CARTESIAN_POINT('',(0.0716233405051332,0.751148927460684,9.42172743690724E-17));
#440=CARTESIAN_POINT('',(0.182630121073261,0.532970390950409,1.74359649258114E-16));
#441=CARTESIAN_POINT('',(0.339677773596831,0.339677773596835,2.39159974770746E-16));
#442=CARTESIAN_POINT('',(0.5329703909504,0.182630121073228,2.84870066681189E-16));
#443=CARTESIAN_POINT('',(0.751148927461021,0.0716233405051456,3.08565046294997E-16));
#444=CARTESIAN_POINT('',(0.928871245461874,0.0212716956795669,3.10993487673473E-16));
#445=CARTESIAN_POINT('',(1.06434014829747,0.00372070312499684,3.04073886287996E-16));
#446=CARTESIAN_POINT('',(1.14853004943249,-3.5527136788005E-15,2.96747456610474E-16));
#447=CARTESIAN_POINT('',(2.619375,-3.5527136788005E-15,1.75380543421255E-16));
#448=CARTESIAN_POINT('',(4.048125,-2.66453525910038E-15,8.76902717106275E-17));
#449=CARTESIAN_POINT('',(5.476875,-1.77635683940025E-15,2.92300905702092E-17));
#450=CARTESIAN_POINT('',(6.905625,-1.77635683940025E-15,0.0));
#451=CARTESIAN_POINT('',(8.37646995056751,-8.88178419700125E-16,5.90489658124247E-16));
#452=CARTESIAN_POINT('',(0.0,0.0,0.0));
#453=CARTESIAN_POINT('',(4.7625,4.7625,0.0));
#454=CARTESIAN_POINT('',(4.7625,4.7625,-3.96875));
#455=CARTESIAN_POINT('',(3.2068650813896,3.2068650813896,-3.96875));
#456=CARTESIAN_POINT('',(4.7625,9.03769877391659,-3.96875));
#457=CARTESIAN_POINT('',(1.190625,9.03769877391659,-3.96875));
#458=CARTESIAN_POINT('',(8.334375,9.03769877391659,-3.96875));
#459=CARTESIAN_POINT('',(8.334375,8.334375,-3.96875));
#460=CARTESIAN_POINT('',(9.03769877391659,8.33437499999999,-3.96875));
#461=CARTESIAN_POINT('',(9.0376987739166,4.7625,-3.96875));
#462=CARTESIAN_POINT('',(9.0376987739166,1.190625,-3.96875));
#463=CARTESIAN_POINT('',(8.334375,1.190625,-3.96875));
#464=CARTESIAN_POINT('',(8.334375,0.487301226083399,-3.96875));
#465=CARTESIAN_POINT('',(4.7625,0.487301226083399,-3.96875));
#466=CARTESIAN_POINT('',(1.190625,0.487301226083399,-3.96875));
#467=CARTESIAN_POINT('',(1.190625,1.190625,-3.96875));
#468=CARTESIAN_POINT('',(0.487301226083404,1.19062499999999,-3.96875));
#469=CARTESIAN_POINT('',(0.487301226083403,4.7625,-3.96875));
#470=CARTESIAN_POINT('',(0.487301226083402,8.334375,-3.96875));
#471=CARTESIAN_POINT('',(1.190625,8.334375,-3.96875));
#472=CARTESIAN_POINT('',(4.7625,4.23216991411009,-3.96875));
#473=CARTESIAN_POINT('',(4.7625,9.525,-5.27182464349352E-15));
#474=CARTESIAN_POINT('',(8.334375,9.525,-4.7722242824122E-15));
#475=CARTESIAN_POINT('',(1.190625,9.525,-5.77142500457484E-15));
#476=CARTESIAN_POINT('',(8.334375,9.525,-4.44160825427968E-15));
#477=CARTESIAN_POINT('',(1.190625,9.525,-5.33633370277873E-15));
#478=CARTESIAN_POINT('',(4.7625,9.525,-5.27182464349352E-15));
#479=CARTESIAN_POINT('',(8.67361737988404E-16,1.19062499999999,-1.89297103641494E-15));
#480=CARTESIAN_POINT('',(8.67361737988404E-16,1.19062499999999,-1.84574577843932E-15));
#481=CARTESIAN_POINT('',(8.67361737988404E-16,4.7625,-3.59955121265187E-15));
#482=CARTESIAN_POINT('',(0.0,8.334375,-5.35335664686443E-15));
#483=CARTESIAN_POINT('',(0.0,8.334375,-5.26099519928715E-15));
#484=CARTESIAN_POINT('',(0.0,4.7625,-3.59955121265187E-15));
#485=CARTESIAN_POINT('',(8.334375,-8.67361737988404E-16,-1.75430935400734E-17));
#486=CARTESIAN_POINT('',(8.334375,-8.67361737988404E-16,-9.54097911787246E-17));
#487=CARTESIAN_POINT('',(4.7625,-1.73472347597681E-15,-5.95010152260045E-16));
#488=CARTESIAN_POINT('',(1.190625,-8.67361737988404E-16,-1.09461051334136E-15));
#489=CARTESIAN_POINT('',(1.190625,-8.67361737988404E-16,-8.59331808875309E-16));
#490=CARTESIAN_POINT('',(4.7625,-8.67361737988404E-16,-5.95010152260045E-16));
#491=CARTESIAN_POINT('',(9.525,8.334375,-3.35677089663878E-15));
#492=CARTESIAN_POINT('',(9.525,8.334375,-4.02108901731424E-15));
#493=CARTESIAN_POINT('',(9.525,4.7625,-2.26728358310169E-15));
#494=CARTESIAN_POINT('',(9.525,1.190625,-5.13478148889135E-16));
#495=CARTESIAN_POINT('',(9.525,1.190625,9.1093016744787E-17));
#496=CARTESIAN_POINT('',(9.525,4.7625,-2.26728358310169E-15));
#497=CARTESIAN_POINT('',(4.7625,4.7625,-6.93889390390723E-15));
#498=CARTESIAN_POINT('',(2.59074501907011,2.59074501907011,-6.93889390390723E-15));
#499=CARTESIAN_POINT('',(8.334375,8.334375,-4.18762247100801E-15));
#500=CARTESIAN_POINT('',(1.190625,8.334375,-5.18682319317065E-15));
#501=CARTESIAN_POINT('',(1.190625,1.19062499999999,-1.67921232474555E-15));
#502=CARTESIAN_POINT('',(8.334375,1.190625,-6.80011602582908E-16));
#503=CARTESIAN_POINT('',(4.7625,4.7625,-2.93341739787678E-15));
#504=CARTESIAN_POINT('',(8.334375,8.334375,-3.46944695195361E-15));
#505=CARTESIAN_POINT('',(8.334375,1.190625,0.0));
#506=CARTESIAN_POINT('',(1.190625,1.19062499999999,-1.73472347597681E-15));
#507=CARTESIAN_POINT('',(1.190625,8.334375,-5.20417042793042E-15));
#508=CARTESIAN_POINT('',(4.7625,4.7625,-0.877554494186125));
#509=CARTESIAN_POINT('',(6.89086366456804,6.89086366456804,-0.877554494186125));
#510=CARTESIAN_POINT('',(4.7625,4.7625,-1.02000000000516));
#511=CARTESIAN_POINT('',(4.7625,4.7625,-1.12904556205543));
#512=CARTESIAN_POINT('',(6.82799268238612,6.82799268238612,-1.12904556205543));
#513=CARTESIAN_POINT('',(4.7625,4.7625,-3.42000000000001));
#514=CARTESIAN_POINT('',(3.2068650813896,3.2068650813896,-3.42000000000001));
#515=CARTESIAN_POINT('',(4.7625,4.7625,-3.42));
#516=CARTESIAN_POINT('',(4.7625,4.7625,-33.3676978394524));
#517=CARTESIAN_POINT('',(4.7625,4.7625,-0.842676257312362));
#518=MECHANICAL_DESIGN_GEOMETRIC_PRESENTATION_REPRESENTATION('',(#265,#266,#267,
     #268),#519);
#519=(GEOMETRIC_REPRESENTATION_CONTEXT(3)GLOBAL_UNCERTAINTY_ASSIGNED_CONTEXT((#520))
     GLOBAL_UNIT_ASSIGNED_CONTEXT((#526,#522,#521))REPRESENTATION_CONTEXT('SCMT09T312',
     'TOP_LEVEL_ASSEMBLY_PART'));
#520=UNCERTAINTY_MEASURE_WITH_UNIT(LENGTH_MEASURE(2.0E-5),#526,'DISTANCE_ACCURACY_VALUE',
     'Maximum Tolerance applied to model');
#521=(NAMED_UNIT(*)SI_UNIT($,.STERADIAN.)SOLID_ANGLE_UNIT());
#522=(CONVERSION_BASED_UNIT('DEGREE',#524)NAMED_UNIT(#523)PLANE_ANGLE_UNIT());
#523=DIMENSIONAL_EXPONENTS(0.0,0.0,0.0,0.0,0.0,0.0,0.0);
#524=PLANE_ANGLE_MEASURE_WITH_UNIT(PLANE_ANGLE_MEASURE(0.0174532925),#525);
#525=(NAMED_UNIT(*)PLANE_ANGLE_UNIT()SI_UNIT($,.RADIAN.));
#526=(LENGTH_UNIT()NAMED_UNIT(*)SI_UNIT(.MILLI.,.METRE.));
#527=CONSTRUCTIVE_GEOMETRY_REPRESENTATION('supplemental geometry',(#282,#283),#519);
#528=CONSTRUCTIVE_GEOMETRY_REPRESENTATION_RELATIONSHIP('supplemental geometry','contains PCS and MCS coordinate systems',
     #24,#527);
ENDSEC;
END-ISO-10303-21;
