ISO-10303-21;
HEADER;
FILE_DESCRIPTION(
/* description */ (''),
/* implementation_level */ '2;1');
FILE_NAME(
/* name */ 'DNGA150604.stp',
/* time_stamp */ '2017-03-21T10:54:08',
/* author */ ('Sandvik Coromant R&D'),
/* organization */ ('Sandvik Machining Solutions'),
/* preprocessor_version */ 'ST-DEVELOPER v15',
/* originating_system */ 'SIEMENS PLM Software NX v8.5.3.3(64 bits)',
/* authorization */ '');
FILE_SCHEMA(('AUTOMOTIVE_DESIGN'));
ENDSEC;
DATA;
#10=GEOMETRICALLY_BOUNDED_WIREFRAME_SHAPE_REPRESENTATION('IsoTurningInsert-None',
     (#25),#447);
#11=SHAPE_REPRESENTATION_RELATIONSHIP('None','relationship between IsoTurningInsert-None and IsoTurningInsert-None',
     #24,#13);
#12=SHAPE_REPRESENTATION_RELATIONSHIP('None','relationship between IsoTurningInsert-None and IsoTurningInsert-None',
     #24,#10);
#13=ADVANCED_BREP_SHAPE_REPRESENTATION('IsoTurningInsert-None',(#31),#447);
#14=SHAPE_DEFINITION_REPRESENTATION(#15,#24);
#15=PRODUCT_DEFINITION_SHAPE('','',#16);
#16=PRODUCT_DEFINITION(' ','',#18,#17);
#17=PRODUCT_DEFINITION_CONTEXT('part definition',#23,'design');
#18=PRODUCT_DEFINITION_FORMATION_WITH_SPECIFIED_SOURCE(' ',' ',#20,.NOT_KNOWN.);
#19=PRODUCT_RELATED_PRODUCT_CATEGORY('part','',(#20));
#20=PRODUCT('IsoTurningInsert','IsoTurningInsert',' ',(#21));
#21=PRODUCT_CONTEXT(' ',#23,'mechanical');
#22=APPLICATION_PROTOCOL_DEFINITION('international standard','automotive_design',
     2010,#23);
#23=APPLICATION_CONTEXT('core data for automotive mechanical design processes');
#24=SHAPE_REPRESENTATION('IsoTurningInsert-None',(#248),#447);
#25=GEOMETRIC_CURVE_SET('geometric curve set',(#228));
#26=SURFACE_STYLE_USAGE(.BOTH.,#27);
#27=SURFACE_SIDE_STYLE('',(#28));
#28=SURFACE_STYLE_FILL_AREA(#29);
#29=FILL_AREA_STYLE('',(#30));
#30=FILL_AREA_STYLE_COLOUR('',#247);
#31=MANIFOLD_SOLID_BREP('CUT',#32);
#32=CLOSED_SHELL('',(#46,#47,#48,#49,#50,#51,#52,#53,#54,#55,#56));
#33=CYLINDRICAL_SURFACE('',#267,0.396875000000001);
#34=CYLINDRICAL_SURFACE('',#268,0.396875000000001);
#35=CYLINDRICAL_SURFACE('',#269,0.396875000000001);
#36=CYLINDRICAL_SURFACE('',#270,0.396875000000001);
#37=CYLINDRICAL_SURFACE('',#271,2.578);
#38=FACE_OUTER_BOUND('',#103,.T.);
#39=FACE_OUTER_BOUND('',#104,.T.);
#40=FACE_OUTER_BOUND('',#105,.T.);
#41=FACE_OUTER_BOUND('',#106,.T.);
#42=FACE_OUTER_BOUND('',#109,.T.);
#43=FACE_OUTER_BOUND('',#110,.T.);
#44=FACE_OUTER_BOUND('',#111,.T.);
#45=FACE_OUTER_BOUND('',#112,.T.);
#46=ADVANCED_FACE('',(#95,#96),#57,.F.);
#47=ADVANCED_FACE('',(#38),#58,.T.);
#48=ADVANCED_FACE('',(#39),#59,.T.);
#49=ADVANCED_FACE('',(#40),#60,.T.);
#50=ADVANCED_FACE('',(#41),#61,.T.);
#51=ADVANCED_FACE('',(#97,#98),#62,.T.);
#52=ADVANCED_FACE('',(#42),#33,.T.);
#53=ADVANCED_FACE('',(#43),#34,.T.);
#54=ADVANCED_FACE('',(#44),#35,.T.);
#55=ADVANCED_FACE('',(#45),#36,.T.);
#56=ADVANCED_FACE('',(#99,#100),#37,.F.);
#57=PLANE('',#256);
#58=PLANE('',#257);
#59=PLANE('',#258);
#60=PLANE('',#259);
#61=PLANE('',#260);
#62=PLANE('',#266);
#63=LINE('',#393,#79);
#64=LINE('',#398,#80);
#65=LINE('',#402,#81);
#66=LINE('',#406,#82);
#67=LINE('',#410,#83);
#68=LINE('',#413,#84);
#69=LINE('',#414,#85);
#70=LINE('',#416,#86);
#71=LINE('',#418,#87);
#72=LINE('',#420,#88);
#73=LINE('',#422,#89);
#74=LINE('',#424,#90);
#75=LINE('',#426,#91);
#76=LINE('',#428,#92);
#77=LINE('',#430,#93);
#78=LINE('',#432,#94);
#79=VECTOR('',#280,1.0);
#80=VECTOR('',#283,1.0);
#81=VECTOR('',#286,1.0);
#82=VECTOR('',#289,1.0);
#83=VECTOR('',#294,1.0);
#84=VECTOR('',#295,1.0);
#85=VECTOR('',#296,1.0);
#86=VECTOR('',#299,1.0);
#87=VECTOR('',#300,1.0);
#88=VECTOR('',#301,1.0);
#89=VECTOR('',#304,1.0);
#90=VECTOR('',#305,1.0);
#91=VECTOR('',#306,1.0);
#92=VECTOR('',#309,1.0);
#93=VECTOR('',#310,1.0);
#94=VECTOR('',#311,1.0);
#95=FACE_BOUND('',#101,.T.);
#96=FACE_BOUND('',#102,.T.);
#97=FACE_BOUND('',#107,.T.);
#98=FACE_BOUND('',#108,.T.);
#99=FACE_BOUND('',#113,.T.);
#100=FACE_BOUND('',#114,.T.);
#101=EDGE_LOOP('',(#115));
#102=EDGE_LOOP('',(#116,#117,#118,#119,#120,#121,#122,#123));
#103=EDGE_LOOP('',(#124,#125,#126,#127));
#104=EDGE_LOOP('',(#128,#129,#130,#131));
#105=EDGE_LOOP('',(#132,#133,#134,#135));
#106=EDGE_LOOP('',(#136,#137,#138,#139));
#107=EDGE_LOOP('',(#140));
#108=EDGE_LOOP('',(#141,#142,#143,#144,#145,#146,#147,#148));
#109=EDGE_LOOP('',(#149,#150,#151,#152));
#110=EDGE_LOOP('',(#153,#154,#155,#156));
#111=EDGE_LOOP('',(#157,#158,#159,#160));
#112=EDGE_LOOP('',(#161,#162,#163,#164));
#113=EDGE_LOOP('',(#165));
#114=EDGE_LOOP('',(#166));
#115=ORIENTED_EDGE('',*,*,#185,.T.);
#116=ORIENTED_EDGE('',*,*,#186,.T.);
#117=ORIENTED_EDGE('',*,*,#187,.T.);
#118=ORIENTED_EDGE('',*,*,#188,.T.);
#119=ORIENTED_EDGE('',*,*,#189,.T.);
#120=ORIENTED_EDGE('',*,*,#190,.T.);
#121=ORIENTED_EDGE('',*,*,#191,.T.);
#122=ORIENTED_EDGE('',*,*,#192,.T.);
#123=ORIENTED_EDGE('',*,*,#193,.T.);
#124=ORIENTED_EDGE('',*,*,#194,.F.);
#125=ORIENTED_EDGE('',*,*,#195,.T.);
#126=ORIENTED_EDGE('',*,*,#186,.F.);
#127=ORIENTED_EDGE('',*,*,#196,.T.);
#128=ORIENTED_EDGE('',*,*,#192,.F.);
#129=ORIENTED_EDGE('',*,*,#197,.T.);
#130=ORIENTED_EDGE('',*,*,#198,.F.);
#131=ORIENTED_EDGE('',*,*,#199,.T.);
#132=ORIENTED_EDGE('',*,*,#190,.F.);
#133=ORIENTED_EDGE('',*,*,#200,.T.);
#134=ORIENTED_EDGE('',*,*,#201,.F.);
#135=ORIENTED_EDGE('',*,*,#202,.T.);
#136=ORIENTED_EDGE('',*,*,#188,.F.);
#137=ORIENTED_EDGE('',*,*,#203,.T.);
#138=ORIENTED_EDGE('',*,*,#204,.F.);
#139=ORIENTED_EDGE('',*,*,#205,.T.);
#140=ORIENTED_EDGE('',*,*,#206,.F.);
#141=ORIENTED_EDGE('',*,*,#204,.T.);
#142=ORIENTED_EDGE('',*,*,#207,.T.);
#143=ORIENTED_EDGE('',*,*,#194,.T.);
#144=ORIENTED_EDGE('',*,*,#208,.T.);
#145=ORIENTED_EDGE('',*,*,#198,.T.);
#146=ORIENTED_EDGE('',*,*,#209,.T.);
#147=ORIENTED_EDGE('',*,*,#201,.T.);
#148=ORIENTED_EDGE('',*,*,#210,.T.);
#149=ORIENTED_EDGE('',*,*,#187,.F.);
#150=ORIENTED_EDGE('',*,*,#195,.F.);
#151=ORIENTED_EDGE('',*,*,#207,.F.);
#152=ORIENTED_EDGE('',*,*,#203,.F.);
#153=ORIENTED_EDGE('',*,*,#189,.F.);
#154=ORIENTED_EDGE('',*,*,#205,.F.);
#155=ORIENTED_EDGE('',*,*,#210,.F.);
#156=ORIENTED_EDGE('',*,*,#200,.F.);
#157=ORIENTED_EDGE('',*,*,#191,.F.);
#158=ORIENTED_EDGE('',*,*,#202,.F.);
#159=ORIENTED_EDGE('',*,*,#209,.F.);
#160=ORIENTED_EDGE('',*,*,#197,.F.);
#161=ORIENTED_EDGE('',*,*,#193,.F.);
#162=ORIENTED_EDGE('',*,*,#199,.F.);
#163=ORIENTED_EDGE('',*,*,#208,.F.);
#164=ORIENTED_EDGE('',*,*,#196,.F.);
#165=ORIENTED_EDGE('',*,*,#185,.F.);
#166=ORIENTED_EDGE('',*,*,#206,.T.);
#167=VERTEX_POINT('',#392);
#168=VERTEX_POINT('',#394);
#169=VERTEX_POINT('',#395);
#170=VERTEX_POINT('',#397);
#171=VERTEX_POINT('',#399);
#172=VERTEX_POINT('',#401);
#173=VERTEX_POINT('',#403);
#174=VERTEX_POINT('',#405);
#175=VERTEX_POINT('',#407);
#176=VERTEX_POINT('',#411);
#177=VERTEX_POINT('',#412);
#178=VERTEX_POINT('',#417);
#179=VERTEX_POINT('',#419);
#180=VERTEX_POINT('',#423);
#181=VERTEX_POINT('',#425);
#182=VERTEX_POINT('',#429);
#183=VERTEX_POINT('',#431);
#184=VERTEX_POINT('',#435);
#185=EDGE_CURVE('',#167,#167,#211,.T.);
#186=EDGE_CURVE('',#168,#169,#63,.T.);
#187=EDGE_CURVE('',#169,#170,#212,.T.);
#188=EDGE_CURVE('',#170,#171,#64,.T.);
#189=EDGE_CURVE('',#171,#172,#213,.T.);
#190=EDGE_CURVE('',#172,#173,#65,.T.);
#191=EDGE_CURVE('',#173,#174,#214,.T.);
#192=EDGE_CURVE('',#174,#175,#66,.T.);
#193=EDGE_CURVE('',#175,#168,#215,.T.);
#194=EDGE_CURVE('',#176,#177,#67,.T.);
#195=EDGE_CURVE('',#176,#169,#68,.T.);
#196=EDGE_CURVE('',#168,#177,#69,.T.);
#197=EDGE_CURVE('',#174,#178,#70,.T.);
#198=EDGE_CURVE('',#179,#178,#71,.T.);
#199=EDGE_CURVE('',#179,#175,#72,.T.);
#200=EDGE_CURVE('',#172,#180,#73,.T.);
#201=EDGE_CURVE('',#181,#180,#74,.T.);
#202=EDGE_CURVE('',#181,#173,#75,.T.);
#203=EDGE_CURVE('',#170,#182,#76,.T.);
#204=EDGE_CURVE('',#183,#182,#77,.T.);
#205=EDGE_CURVE('',#183,#171,#78,.T.);
#206=EDGE_CURVE('',#184,#184,#216,.T.);
#207=EDGE_CURVE('',#182,#176,#217,.T.);
#208=EDGE_CURVE('',#177,#179,#218,.T.);
#209=EDGE_CURVE('',#178,#181,#219,.T.);
#210=EDGE_CURVE('',#180,#183,#220,.T.);
#211=CIRCLE('',#251,2.578);
#212=CIRCLE('',#252,0.396875000000001);
#213=CIRCLE('',#253,0.396875000000001);
#214=CIRCLE('',#254,0.396875000000001);
#215=CIRCLE('',#255,0.396875000000001);
#216=CIRCLE('',#261,2.578);
#217=CIRCLE('',#262,0.396875000000001);
#218=CIRCLE('',#263,0.396875000000001);
#219=CIRCLE('',#264,0.396875000000001);
#220=CIRCLE('',#265,0.396875000000001);
#221=CURVE_STYLE('',#225,POSITIVE_LENGTH_MEASURE(0.18),#224);
#222=CURVE_STYLE('',#226,POSITIVE_LENGTH_MEASURE(0.18),#246);
#223=CURVE_STYLE('',#227,POSITIVE_LENGTH_MEASURE(0.18),#246);
#224=DRAUGHTING_PRE_DEFINED_COLOUR('blue');
#225=DRAUGHTING_PRE_DEFINED_CURVE_FONT('continuous');
#226=DRAUGHTING_PRE_DEFINED_CURVE_FONT('continuous');
#227=DRAUGHTING_PRE_DEFINED_CURVE_FONT('continuous');
#228=B_SPLINE_CURVE_WITH_KNOTS('CUTTING EDGE LINE',5,(#339,#340,#341,#342,#343,#344,
     #345,#346,#347,#348,#349,#350,#351,#352,#353,#354,#355,#356,#357,#358,#359,
     #360,#361,#362,#363,#364,#365,#366,#367,#368,#369,#370,#371,#372,#373,#374,
     #375,#376,#377,#378,#379,#380,#381,#382,#383,#384,#385,#386,#387,#388),.UNSPECIFIED.,
     .T.,.F.,(2,4,1,4,4,1,1,1,1,1,1,1,4,4,1,4,4,1,1,1,1,1,1,1,4,4,1,1),(-0.2397183136,
     0.0,0.00314162640000004,0.00628325279999997,0.2460015663,0.2477865813125,0.249571596325024,
     0.2513566113375,0.253141626350017,0.2549266413625,0.256711656375026,0.2584966713875,
     0.2602816864,0.5,0.5031416264,0.5062832528,0.7460015663,0.7477865813125,0.749571596325027,
     0.7513566113375,0.75314162635002,0.7549266413625,0.756711656375026,0.7584966713875,
     0.7602816864,1.0,1.0031416264,1.0062832528),.UNSPECIFIED.);
#229=PRESENTATION_LAYER_ASSIGNMENT('1','Layer 1',(#228,#249,#250,#31));
#232=STYLED_ITEM('',(#238),#228);
#233=STYLED_ITEM('',(#239),#249);
#234=STYLED_ITEM('',(#240),#250);
#235=STYLED_ITEM('',(#241),#31);
#236=PRESENTATION_STYLE_ASSIGNMENT((#242));
#237=PRESENTATION_STYLE_ASSIGNMENT((#243));
#238=PRESENTATION_STYLE_ASSIGNMENT((#221));
#239=PRESENTATION_STYLE_ASSIGNMENT((#222));
#240=PRESENTATION_STYLE_ASSIGNMENT((#223));
#241=PRESENTATION_STYLE_ASSIGNMENT((#26));
#242=POINT_STYLE('',#244,POSITIVE_LENGTH_MEASURE(3.0),#246);
#243=POINT_STYLE('',#245,POSITIVE_LENGTH_MEASURE(3.0),#246);
#244=PRE_DEFINED_POINT_MARKER_SYMBOL('plus');
#245=PRE_DEFINED_POINT_MARKER_SYMBOL('plus');
#246=COLOUR_RGB('Medium Maroon',0.6,0.4,0.4);
#247=COLOUR_RGB('IsoInsertColor',0.8,0.8,0.8);
#248=AXIS2_PLACEMENT_3D('',#336,#272,#273);
#249=AXIS2_PLACEMENT_3D('PCS',#389,#274,#275);
#250=AXIS2_PLACEMENT_3D('MCS',#390,#276,#277);
#251=AXIS2_PLACEMENT_3D('',#391,#278,#279);
#252=AXIS2_PLACEMENT_3D('',#396,#281,#282);
#253=AXIS2_PLACEMENT_3D('',#400,#284,#285);
#254=AXIS2_PLACEMENT_3D('',#404,#287,#288);
#255=AXIS2_PLACEMENT_3D('',#408,#290,#291);
#256=AXIS2_PLACEMENT_3D('',#409,#292,#293);
#257=AXIS2_PLACEMENT_3D('',#415,#297,#298);
#258=AXIS2_PLACEMENT_3D('',#421,#302,#303);
#259=AXIS2_PLACEMENT_3D('',#427,#307,#308);
#260=AXIS2_PLACEMENT_3D('',#433,#312,#313);
#261=AXIS2_PLACEMENT_3D('',#434,#314,#315);
#262=AXIS2_PLACEMENT_3D('',#436,#316,#317);
#263=AXIS2_PLACEMENT_3D('',#437,#318,#319);
#264=AXIS2_PLACEMENT_3D('',#438,#320,#321);
#265=AXIS2_PLACEMENT_3D('',#439,#322,#323);
#266=AXIS2_PLACEMENT_3D('',#440,#324,#325);
#267=AXIS2_PLACEMENT_3D('',#441,#326,#327);
#268=AXIS2_PLACEMENT_3D('',#442,#328,#329);
#269=AXIS2_PLACEMENT_3D('',#443,#330,#331);
#270=AXIS2_PLACEMENT_3D('',#444,#332,#333);
#271=AXIS2_PLACEMENT_3D('',#445,#334,#335);
#272=DIRECTION('',(0.0,0.0,1.0));
#273=DIRECTION('',(1.0,0.0,0.0));
#274=DIRECTION('',(0.0,0.0,1.0));
#275=DIRECTION('',(1.0,0.0,0.0));
#276=DIRECTION('',(0.0,0.0,1.0));
#277=DIRECTION('',(1.0,0.0,0.0));
#278=DIRECTION('',(0.0,0.0,1.0));
#279=DIRECTION('',(-0.887010833178222,-0.461748613235034,0.0));
#280=DIRECTION('',(1.0,-2.22044604925031E-16,0.0));
#281=DIRECTION('',(0.0,0.0,-1.0));
#282=DIRECTION('',(-0.887010833178222,-0.461748613235036,0.0));
#283=DIRECTION('',(-0.573576436351046,-0.819152044288992,0.0));
#284=DIRECTION('',(0.0,0.0,-1.0));
#285=DIRECTION('',(-0.887010833178222,-0.461748613235034,0.0));
#286=DIRECTION('',(-1.0,2.22044604925031E-16,0.0));
#287=DIRECTION('',(0.0,0.0,-1.0));
#288=DIRECTION('',(-0.887010833178222,-0.461748613235034,0.0));
#289=DIRECTION('',(0.573576436351046,0.819152044288992,0.0));
#290=DIRECTION('',(0.0,0.0,-1.0));
#291=DIRECTION('',(-0.887010833178222,-0.461748613235036,0.0));
#292=DIRECTION('',(0.0,0.0,1.0));
#293=DIRECTION('',(-0.887010833178222,-0.461748613235034,0.0));
#294=DIRECTION('',(-1.0,2.22044604925031E-16,-8.59314765579595E-17));
#295=DIRECTION('',(8.59314765579594E-17,-4.28422977201317E-16,-1.0));
#296=DIRECTION('',(-8.59314765579594E-17,4.28422977201317E-16,1.0));
#297=DIRECTION('',(2.22044604925031E-16,1.0,-4.28422977201317E-16));
#298=DIRECTION('',(-1.0,2.22044604925031E-16,0.0));
#299=DIRECTION('',(-8.59314765579594E-17,4.28422977201317E-16,1.0));
#300=DIRECTION('',(-0.573576436351046,-0.819152044288992,3.01655287500337E-16));
#301=DIRECTION('',(8.59314765579594E-17,-4.28422977201317E-16,-1.0));
#302=DIRECTION('',(-0.819152044288992,0.573576436351046,-3.16124269205261E-16));
#303=DIRECTION('',(-0.573576436351046,-0.819152044288992,0.0));
#304=DIRECTION('',(-8.59314765579594E-17,4.28422977201317E-16,1.0));
#305=DIRECTION('',(1.0,-2.22044604925031E-16,8.59314765579595E-17));
#306=DIRECTION('',(8.59314765579594E-17,-4.28422977201317E-16,-1.0));
#307=DIRECTION('',(-2.22044604925031E-16,-1.0,4.28422977201317E-16));
#308=DIRECTION('',(1.0,-2.22044604925031E-16,0.0));
#309=DIRECTION('',(-8.59314765579594E-17,4.28422977201317E-16,1.0));
#310=DIRECTION('',(0.573576436351046,0.819152044288992,-3.01655287500337E-16));
#311=DIRECTION('',(8.59314765579594E-17,-4.28422977201317E-16,-1.0));
#312=DIRECTION('',(0.819152044288992,-0.573576436351046,3.16124269205261E-16));
#313=DIRECTION('',(0.573576436351046,0.819152044288992,0.0));
#314=DIRECTION('',(0.0,0.0,1.0));
#315=DIRECTION('',(-0.887010833178222,-0.461748613235034,0.0));
#316=DIRECTION('',(-8.59314765579594E-17,4.28422977201317E-16,1.0));
#317=DIRECTION('',(-0.461748613235031,0.887010833178222,-4.19694562093911E-16));
#318=DIRECTION('',(-8.59314765579594E-17,4.28422977201317E-16,1.0));
#319=DIRECTION('',(-0.461748613235036,0.887010833178222,-4.19694562093911E-16));
#320=DIRECTION('',(-8.59314765579594E-17,4.28422977201317E-16,1.0));
#321=DIRECTION('',(-0.461748613235034,0.887010833178222,-4.19694562093911E-16));
#322=DIRECTION('',(-8.59314765579594E-17,4.28422977201317E-16,1.0));
#323=DIRECTION('',(-0.461748613235036,0.887010833178222,-4.19694562093911E-16));
#324=DIRECTION('',(-8.59314765579594E-17,4.28422977201317E-16,1.0));
#325=DIRECTION('',(-0.461748613235034,0.887010833178222,-4.19694562093911E-16));
#326=DIRECTION('',(-8.59314765579594E-17,4.28422977201317E-16,1.0));
#327=DIRECTION('',(-0.461748613235031,0.887010833178222,-4.19694562093911E-16));
#328=DIRECTION('',(-8.59314765579594E-17,4.28422977201317E-16,1.0));
#329=DIRECTION('',(-0.461748613235036,0.887010833178222,-4.19694562093911E-16));
#330=DIRECTION('',(-8.59314765579594E-17,4.28422977201317E-16,1.0));
#331=DIRECTION('',(-0.461748613235034,0.887010833178222,-4.19694562093911E-16));
#332=DIRECTION('',(-8.59314765579594E-17,4.28422977201317E-16,1.0));
#333=DIRECTION('',(-0.461748613235036,0.887010833178222,-4.19694562093911E-16));
#334=DIRECTION('',(0.0,0.0,1.0));
#335=DIRECTION('',(-0.887010833178222,-0.461748613235034,0.0));
#336=CARTESIAN_POINT('',(0.0,0.0,0.0));
#339=CARTESIAN_POINT('',(12.3902677395945,-1.77635683940025E-15,2.2186712959341E-32));
#340=CARTESIAN_POINT('',(15.3338885252583,-6.21724893790088E-15,1.73179869074899E-16));
#341=CARTESIAN_POINT('',(15.4071911176094,0.00846184259114935,1.75853621275639E-16));
#342=CARTESIAN_POINT('',(15.4857619468372,0.0347223867014135,1.72435918522713E-16));
#343=CARTESIAN_POINT('',(15.5523397014589,0.0840214127774921,1.47475446717619E-16));
#344=CARTESIAN_POINT('',(15.601315876812,0.139213867635147,9.74617481801498E-17));
#345=CARTESIAN_POINT('',(17.2897073970218,2.55048685182317,1.25461819340838E-17));
#346=CARTESIAN_POINT('',(18.9570765973837,4.93173685182317,-4.93038065763132E-33));
#347=CARTESIAN_POINT('',(20.6244457977456,7.31298685182317,-1.38050658413677E-31));
#348=CARTESIAN_POINT('',(22.2918149981074,9.69423685182318,1.25461819340838E-17));
#349=CARTESIAN_POINT('',(23.9709934568504,12.0923522206413,6.90663670935922E-17));
#350=CARTESIAN_POINT('',(23.9924246480299,12.1276145401395,7.56672371644415E-17));
#351=CARTESIAN_POINT('',(24.0197993895666,12.188802225369,7.15668035146506E-17));
#352=CARTESIAN_POINT('',(24.03792850726,12.275842427606,4.49670691657042E-17));
#353=CARTESIAN_POINT('',(24.0291961040148,12.39057120856,-3.21232125527618E-18));
#354=CARTESIAN_POINT('',(23.9917057288175,12.4892914889564,-4.89714375311523E-17));
#355=CARTESIAN_POINT('',(23.9323424051207,12.5766254330662,-9.20044236344975E-17));
#356=CARTESIAN_POINT('',(23.8433707903975,12.6495843243618,-1.28491357307952E-16));
#357=CARTESIAN_POINT('',(23.7616731960793,12.6846580295603,-1.38192425546414E-16));
#358=CARTESIAN_POINT('',(23.6958496719415,12.697329768511,-1.22490270826384E-16));
#359=CARTESIAN_POINT('',(23.6546720445753,12.7,-1.00248994285686E-16));
#360=CARTESIAN_POINT('',(20.7271137414039,12.7,-1.70030369076773E-17));
#361=CARTESIAN_POINT('',(17.8201442519157,12.7,2.2186712959341E-32));
#362=CARTESIAN_POINT('',(14.9131747624275,12.7,6.90253292068385E-32));
#363=CARTESIAN_POINT('',(12.0062052729392,12.7,-1.70030369076772E-17));
#364=CARTESIAN_POINT('',(9.0625844872755,12.7,-1.20249599378229E-16));
#365=CARTESIAN_POINT('',(8.98928189492444,12.6915381574088,-1.64361829285461E-16));
#366=CARTESIAN_POINT('',(8.91071106569657,12.6652776132986,-1.73901213692606E-16));
#367=CARTESIAN_POINT('',(8.84413331107486,12.6159785872225,-1.47475446717619E-16));
#368=CARTESIAN_POINT('',(8.79515713572184,12.5607861323648,-9.746174818015E-17));
#369=CARTESIAN_POINT('',(7.10676561551197,10.1495131481768,-1.25461819340838E-17));
#370=CARTESIAN_POINT('',(5.4393964151501,7.76826314817682,4.93038065763132E-33));
#371=CARTESIAN_POINT('',(3.77202721478823,5.38701314817682,1.97215226305253E-32));
#372=CARTESIAN_POINT('',(2.10465801442635,3.00576314817682,-1.25461819340838E-17));
#373=CARTESIAN_POINT('',(0.425479555683351,0.607647779358702,-6.90663670935923E-17));
#374=CARTESIAN_POINT('',(0.404048364503891,0.572385459860497,-7.56672371644473E-17));
#375=CARTESIAN_POINT('',(0.376673622967235,0.511197774630946,-7.15668035146434E-17));
#376=CARTESIAN_POINT('',(0.358544505273786,0.42415757239386,-4.49670691656825E-17));
#377=CARTESIAN_POINT('',(0.36727690851901,0.309428791439911,3.21232125531107E-18));
#378=CARTESIAN_POINT('',(0.404767283716279,0.210708511043489,4.89714375311793E-17));
#379=CARTESIAN_POINT('',(0.464130607413166,0.123374566933782,9.20044236345126E-17));
#380=CARTESIAN_POINT('',(0.553102222136269,0.0504156756381953,1.28491357307955E-16));
#381=CARTESIAN_POINT('',(0.634799816454551,0.0153419704397546,1.38192425546414E-16));
#382=CARTESIAN_POINT('',(0.700623340592236,0.00267023148900503,1.22490270826383E-16));
#383=CARTESIAN_POINT('',(0.741800967958426,-5.32907051820075E-15,1.00248994285686E-16));
#384=CARTESIAN_POINT('',(3.6693592711299,-1.77635683940025E-15,1.70030369076773E-17));
#385=CARTESIAN_POINT('',(6.57632876061811,-1.77635683940025E-15,7.39557098644699E-33));
#386=CARTESIAN_POINT('',(9.48329825010633,-3.5527136788005E-15,3.20474742746036E-32));
#387=CARTESIAN_POINT('',(12.3902677395945,-1.77635683940025E-15,2.2186712959341E-32));
#388=CARTESIAN_POINT('',(15.3338885252583,-6.21724893790088E-15,1.73179869074899E-16));
#389=CARTESIAN_POINT('',(0.0,0.0,0.0));
#390=CARTESIAN_POINT('',(12.1982365062669,6.35,0.0));
#391=CARTESIAN_POINT('',(12.1982365062669,6.35,-6.35));
#392=CARTESIAN_POINT('',(9.91152257833345,5.15961207508008,-6.35));
#393=CARTESIAN_POINT('',(12.1982365062669,12.7,-6.35));
#394=CARTESIAN_POINT('',(9.09923578345103,12.7,-6.35));
#395=CARTESIAN_POINT('',(23.6340832308921,12.7,-6.35));
#396=CARTESIAN_POINT('',(23.6340832308921,12.303125,-6.35));
#397=CARTESIAN_POINT('',(23.9591841984693,12.0754868518232,-6.35));
#398=CARTESIAN_POINT('',(17.399851987502,2.70778962917085,-6.35));
#399=CARTESIAN_POINT('',(15.62233819666,0.169236851823172,-6.35));
#400=CARTESIAN_POINT('',(15.2972372290828,0.396874999999994,-6.35));
#401=CARTESIAN_POINT('',(15.2972372290828,-8.67361737988404E-15,-6.35));
#402=CARTESIAN_POINT('',(12.1982365062669,-7.80625564189563E-15,-6.35));
#403=CARTESIAN_POINT('',(0.762389781641681,-3.46944695195361E-15,-6.35));
#404=CARTESIAN_POINT('',(0.762389781641679,0.396874999999996,-6.35));
#405=CARTESIAN_POINT('',(0.437288814064487,0.624513148176817,-6.35));
#406=CARTESIAN_POINT('',(6.9966210250318,9.99221037082914,-6.35));
#407=CARTESIAN_POINT('',(8.77413481587384,12.5307631481768,-6.35));
#408=CARTESIAN_POINT('',(9.09923578345103,12.303125,-6.35));
#409=CARTESIAN_POINT('',(12.0387631737882,5.84421520759503,-6.35));
#410=CARTESIAN_POINT('',(12.1982365062669,12.7,-5.65390330310514E-15));
#411=CARTESIAN_POINT('',(23.6340832308921,12.7,-4.67120410836759E-15));
#412=CARTESIAN_POINT('',(9.09923578345103,12.7,-5.92020501107089E-15));
#413=CARTESIAN_POINT('',(23.6340832308921,12.7,-4.33680868994202E-15));
#414=CARTESIAN_POINT('',(9.09923578345103,12.7,-5.20417042793042E-15));
#415=CARTESIAN_POINT('',(12.1982365062669,12.7,-5.65390330310514E-15));
#416=CARTESIAN_POINT('',(0.437288814064485,0.62451314817682,-8.67361737988402E-16));
#417=CARTESIAN_POINT('',(0.437288814064485,0.62451314817682,-1.49112287580358E-15));
#418=CARTESIAN_POINT('',(6.9966210250318,9.99221037082914,-4.94080650733019E-15));
#419=CARTESIAN_POINT('',(8.77413481587384,12.5307631481768,-5.87563646133496E-15));
#420=CARTESIAN_POINT('',(8.77413481587384,12.5307631481768,-5.20417042793042E-15));
#421=CARTESIAN_POINT('',(6.9966210250318,9.99221037082914,-4.94080650733019E-15));
#422=CARTESIAN_POINT('',(15.2972372290828,-6.07153216591882E-15,3.85185988877447E-31));
#423=CARTESIAN_POINT('',(15.2972372290828,-6.07153216591882E-15,5.33702153173327E-17));
#424=CARTESIAN_POINT('',(12.1982365062669,-5.20417042793042E-15,-2.12931492648418E-16));
#425=CARTESIAN_POINT('',(0.762389781641679,-1.73472347597681E-15,-1.19563068738597E-15));
#426=CARTESIAN_POINT('',(0.762389781641679,-1.73472347597681E-15,-8.67361737988403E-16));
#427=CARTESIAN_POINT('',(12.1982365062669,-4.33680868994202E-15,-2.12931492648419E-16));
#428=CARTESIAN_POINT('',(23.9591841984693,12.0754868518232,-4.33680868994202E-15));
#429=CARTESIAN_POINT('',(23.9591841984693,12.0754868518232,-4.37571191994998E-15));
#430=CARTESIAN_POINT('',(17.399851987502,2.70778962917086,-9.26028288423377E-16));
#431=CARTESIAN_POINT('',(15.62233819666,0.169236851823175,8.80166558139705E-18));
#432=CARTESIAN_POINT('',(15.62233819666,0.169236851823175,0.0));
#433=CARTESIAN_POINT('',(17.399851987502,2.70778962917086,-9.26028288423375E-16));
#434=CARTESIAN_POINT('',(12.1982365062669,6.35,0.0));
#435=CARTESIAN_POINT('',(9.91152257833345,5.15961207508008,0.0));
#436=CARTESIAN_POINT('',(23.6340832308921,12.303125,-4.50117373929082E-15));
#437=CARTESIAN_POINT('',(9.09923578345103,12.303125,-5.75017464199412E-15));
#438=CARTESIAN_POINT('',(0.762389781641679,0.396874999999999,-1.36566105646274E-15));
#439=CARTESIAN_POINT('',(15.2972372290828,0.396874999999995,-1.1666015375944E-16));
#440=CARTESIAN_POINT('',(12.1982365062669,6.35,-2.93341739787678E-15));
#441=CARTESIAN_POINT('',(23.6340832308921,12.303125,-4.33680868994202E-15));
#442=CARTESIAN_POINT('',(15.2972372290828,0.396874999999995,0.0));
#443=CARTESIAN_POINT('',(0.762389781641679,0.396874999999999,-8.67361737988404E-16));
#444=CARTESIAN_POINT('',(9.09923578345103,12.303125,-5.20417042793042E-15));
#445=CARTESIAN_POINT('',(12.1982365062669,6.35,-33.3676978394524));
#446=MECHANICAL_DESIGN_GEOMETRIC_PRESENTATION_REPRESENTATION('',(#232,#233,#234,
     #235),#447);
#447=(GEOMETRIC_REPRESENTATION_CONTEXT(3)GLOBAL_UNCERTAINTY_ASSIGNED_CONTEXT((#448))
     GLOBAL_UNIT_ASSIGNED_CONTEXT((#454,#450,#449))REPRESENTATION_CONTEXT('DNGA150604',
     'TOP_LEVEL_ASSEMBLY_PART'));
#448=UNCERTAINTY_MEASURE_WITH_UNIT(LENGTH_MEASURE(2.0E-5),#454,'DISTANCE_ACCURACY_VALUE',
     'Maximum Tolerance applied to model');
#449=(NAMED_UNIT(*)SI_UNIT($,.STERADIAN.)SOLID_ANGLE_UNIT());
#450=(CONVERSION_BASED_UNIT('DEGREE',#452)NAMED_UNIT(#451)PLANE_ANGLE_UNIT());
#451=DIMENSIONAL_EXPONENTS(0.0,0.0,0.0,0.0,0.0,0.0,0.0);
#452=PLANE_ANGLE_MEASURE_WITH_UNIT(PLANE_ANGLE_MEASURE(0.0174532925),#453);
#453=(NAMED_UNIT(*)PLANE_ANGLE_UNIT()SI_UNIT($,.RADIAN.));
#454=(LENGTH_UNIT()NAMED_UNIT(*)SI_UNIT(.MILLI.,.METRE.));
#455=CONSTRUCTIVE_GEOMETRY_REPRESENTATION('supplemental geometry',(#249,#250),#447);
#456=CONSTRUCTIVE_GEOMETRY_REPRESENTATION_RELATIONSHIP('supplemental geometry','contains PCS and MCS coordinate systems',
     #24,#455);
ENDSEC;
END-ISO-10303-21;
