ISO-10303-21;
HEADER;
FILE_DESCRIPTION(
/* description */ (''),
/* implementation_level */ '2;1');
FILE_NAME(
/* name */ 'SPUN120304.stp',
/* time_stamp */ '2017-03-21T10:54:27',
/* author */ ('Sandvik Coromant R&D'),
/* organization */ ('Sandvik Machining Solutions'),
/* preprocessor_version */ 'ST-DEVELOPER v15',
/* originating_system */ 'SIEMENS PLM Software NX v8.5.3.3(64 bits)',
/* authorization */ '');
FILE_SCHEMA(('AUTOMOTIVE_DESIGN'));
ENDSEC;
DATA;
#10=GEOMETRICALLY_BOUNDED_WIREFRAME_SHAPE_REPRESENTATION('IsoTurningInsert-None',
     (#25),#405);
#11=SHAPE_REPRESENTATION_RELATIONSHIP('None','relationship between IsoTurningInsert-None and IsoTurningInsert-None',
     #24,#13);
#12=SHAPE_REPRESENTATION_RELATIONSHIP('None','relationship between IsoTurningInsert-None and IsoTurningInsert-None',
     #24,#10);
#13=ADVANCED_BREP_SHAPE_REPRESENTATION('IsoTurningInsert-None',(#31),#405);
#14=SHAPE_DEFINITION_REPRESENTATION(#15,#24);
#15=PRODUCT_DEFINITION_SHAPE('','',#16);
#16=PRODUCT_DEFINITION(' ','',#18,#17);
#17=PRODUCT_DEFINITION_CONTEXT('part definition',#23,'design');
#18=PRODUCT_DEFINITION_FORMATION_WITH_SPECIFIED_SOURCE(' ',' ',#20,.NOT_KNOWN.);
#19=PRODUCT_RELATED_PRODUCT_CATEGORY('part','',(#20));
#20=PRODUCT('IsoTurningInsert','IsoTurningInsert',' ',(#21));
#21=PRODUCT_CONTEXT(' ',#23,'mechanical');
#22=APPLICATION_PROTOCOL_DEFINITION('international standard','automotive_design',
     2010,#23);
#23=APPLICATION_CONTEXT('core data for automotive mechanical design processes');
#24=SHAPE_REPRESENTATION('IsoTurningInsert-None',(#232),#405);
#25=GEOMETRIC_CURVE_SET('geometric curve set',(#212));
#26=SURFACE_STYLE_USAGE(.BOTH.,#27);
#27=SURFACE_SIDE_STYLE('',(#28));
#28=SURFACE_STYLE_FILL_AREA(#29);
#29=FILL_AREA_STYLE('',(#30));
#30=FILL_AREA_STYLE_COLOUR('',#231);
#31=MANIFOLD_SOLID_BREP('CUT',#32);
#32=CLOSED_SHELL('',(#41,#42,#43,#44,#45,#46,#47,#48,#49,#50));
#33=CONICAL_SURFACE('',#245,0.396875,11.0);
#34=CONICAL_SURFACE('',#246,0.396875,11.0);
#35=CONICAL_SURFACE('',#247,0.396875,11.0);
#36=CONICAL_SURFACE('',#248,0.396875,11.0);
#37=CIRCLE('',#240,0.396875);
#38=CIRCLE('',#241,0.396875);
#39=CIRCLE('',#242,0.396875);
#40=CIRCLE('',#243,0.396875);
#41=ADVANCED_FACE('',(#57),#51,.F.);
#42=ADVANCED_FACE('',(#58),#52,.F.);
#43=ADVANCED_FACE('',(#59),#53,.F.);
#44=ADVANCED_FACE('',(#60),#54,.F.);
#45=ADVANCED_FACE('',(#61),#55,.F.);
#46=ADVANCED_FACE('',(#62),#56,.T.);
#47=ADVANCED_FACE('',(#63),#33,.T.);
#48=ADVANCED_FACE('',(#64),#34,.T.);
#49=ADVANCED_FACE('',(#65),#35,.T.);
#50=ADVANCED_FACE('',(#66),#36,.T.);
#51=PLANE('',#235);
#52=PLANE('',#236);
#53=PLANE('',#237);
#54=PLANE('',#238);
#55=PLANE('',#239);
#56=PLANE('',#244);
#57=FACE_OUTER_BOUND('',#67,.T.);
#58=FACE_OUTER_BOUND('',#68,.T.);
#59=FACE_OUTER_BOUND('',#69,.T.);
#60=FACE_OUTER_BOUND('',#70,.T.);
#61=FACE_OUTER_BOUND('',#71,.T.);
#62=FACE_OUTER_BOUND('',#72,.T.);
#63=FACE_OUTER_BOUND('',#73,.T.);
#64=FACE_OUTER_BOUND('',#74,.T.);
#65=FACE_OUTER_BOUND('',#75,.T.);
#66=FACE_OUTER_BOUND('',#76,.T.);
#67=EDGE_LOOP('',(#77,#78,#79,#80));
#68=EDGE_LOOP('',(#81,#82,#83,#84,#85,#86));
#69=EDGE_LOOP('',(#87,#88,#89,#90,#91,#92));
#70=EDGE_LOOP('',(#93,#94,#95,#96,#97,#98));
#71=EDGE_LOOP('',(#99,#100,#101,#102,#103,#104));
#72=EDGE_LOOP('',(#105,#106,#107,#108,#109,#110,#111,#112));
#73=EDGE_LOOP('',(#113,#114,#115));
#74=EDGE_LOOP('',(#116,#117,#118));
#75=EDGE_LOOP('',(#119,#120,#121));
#76=EDGE_LOOP('',(#122,#123,#124));
#77=ORIENTED_EDGE('',*,*,#141,.T.);
#78=ORIENTED_EDGE('',*,*,#142,.T.);
#79=ORIENTED_EDGE('',*,*,#143,.T.);
#80=ORIENTED_EDGE('',*,*,#144,.T.);
#81=ORIENTED_EDGE('',*,*,#145,.F.);
#82=ORIENTED_EDGE('',*,*,#146,.T.);
#83=ORIENTED_EDGE('',*,*,#147,.F.);
#84=ORIENTED_EDGE('',*,*,#141,.F.);
#85=ORIENTED_EDGE('',*,*,#148,.T.);
#86=ORIENTED_EDGE('',*,*,#149,.T.);
#87=ORIENTED_EDGE('',*,*,#144,.F.);
#88=ORIENTED_EDGE('',*,*,#150,.T.);
#89=ORIENTED_EDGE('',*,*,#151,.T.);
#90=ORIENTED_EDGE('',*,*,#152,.F.);
#91=ORIENTED_EDGE('',*,*,#153,.T.);
#92=ORIENTED_EDGE('',*,*,#148,.F.);
#93=ORIENTED_EDGE('',*,*,#143,.F.);
#94=ORIENTED_EDGE('',*,*,#154,.T.);
#95=ORIENTED_EDGE('',*,*,#155,.T.);
#96=ORIENTED_EDGE('',*,*,#156,.F.);
#97=ORIENTED_EDGE('',*,*,#157,.T.);
#98=ORIENTED_EDGE('',*,*,#150,.F.);
#99=ORIENTED_EDGE('',*,*,#142,.F.);
#100=ORIENTED_EDGE('',*,*,#147,.T.);
#101=ORIENTED_EDGE('',*,*,#158,.T.);
#102=ORIENTED_EDGE('',*,*,#159,.F.);
#103=ORIENTED_EDGE('',*,*,#160,.T.);
#104=ORIENTED_EDGE('',*,*,#154,.F.);
#105=ORIENTED_EDGE('',*,*,#159,.T.);
#106=ORIENTED_EDGE('',*,*,#161,.T.);
#107=ORIENTED_EDGE('',*,*,#145,.T.);
#108=ORIENTED_EDGE('',*,*,#162,.T.);
#109=ORIENTED_EDGE('',*,*,#152,.T.);
#110=ORIENTED_EDGE('',*,*,#163,.T.);
#111=ORIENTED_EDGE('',*,*,#156,.T.);
#112=ORIENTED_EDGE('',*,*,#164,.T.);
#113=ORIENTED_EDGE('',*,*,#158,.F.);
#114=ORIENTED_EDGE('',*,*,#146,.F.);
#115=ORIENTED_EDGE('',*,*,#161,.F.);
#116=ORIENTED_EDGE('',*,*,#155,.F.);
#117=ORIENTED_EDGE('',*,*,#160,.F.);
#118=ORIENTED_EDGE('',*,*,#164,.F.);
#119=ORIENTED_EDGE('',*,*,#151,.F.);
#120=ORIENTED_EDGE('',*,*,#157,.F.);
#121=ORIENTED_EDGE('',*,*,#163,.F.);
#122=ORIENTED_EDGE('',*,*,#149,.F.);
#123=ORIENTED_EDGE('',*,*,#153,.F.);
#124=ORIENTED_EDGE('',*,*,#162,.F.);
#125=VERTEX_POINT('',#355);
#126=VERTEX_POINT('',#356);
#127=VERTEX_POINT('',#358);
#128=VERTEX_POINT('',#360);
#129=VERTEX_POINT('',#364);
#130=VERTEX_POINT('',#365);
#131=VERTEX_POINT('',#367);
#132=VERTEX_POINT('',#370);
#133=VERTEX_POINT('',#374);
#134=VERTEX_POINT('',#376);
#135=VERTEX_POINT('',#378);
#136=VERTEX_POINT('',#382);
#137=VERTEX_POINT('',#384);
#138=VERTEX_POINT('',#386);
#139=VERTEX_POINT('',#390);
#140=VERTEX_POINT('',#392);
#141=EDGE_CURVE('',#125,#126,#165,.T.);
#142=EDGE_CURVE('',#126,#127,#166,.T.);
#143=EDGE_CURVE('',#127,#128,#167,.T.);
#144=EDGE_CURVE('',#128,#125,#168,.T.);
#145=EDGE_CURVE('',#129,#130,#169,.T.);
#146=EDGE_CURVE('',#129,#131,#170,.T.);
#147=EDGE_CURVE('INSERT_CORNER_EDGE3',#126,#131,#171,.T.);
#148=EDGE_CURVE('INSERT_CORNER_EDGE4',#125,#132,#172,.T.);
#149=EDGE_CURVE('',#132,#130,#173,.T.);
#150=EDGE_CURVE('INSERT_CORNER_EDGE1',#128,#133,#174,.T.);
#151=EDGE_CURVE('',#133,#134,#175,.T.);
#152=EDGE_CURVE('',#135,#134,#176,.T.);
#153=EDGE_CURVE('',#135,#132,#177,.T.);
#154=EDGE_CURVE('INSERT_CORNER_EDGE2',#127,#136,#178,.T.);
#155=EDGE_CURVE('',#136,#137,#179,.T.);
#156=EDGE_CURVE('',#138,#137,#180,.T.);
#157=EDGE_CURVE('',#138,#133,#181,.T.);
#158=EDGE_CURVE('',#131,#139,#182,.T.);
#159=EDGE_CURVE('',#140,#139,#183,.T.);
#160=EDGE_CURVE('',#140,#136,#184,.T.);
#161=EDGE_CURVE('',#139,#129,#37,.T.);
#162=EDGE_CURVE('',#130,#135,#38,.T.);
#163=EDGE_CURVE('',#134,#138,#39,.T.);
#164=EDGE_CURVE('',#137,#140,#40,.T.);
#165=LINE('',#354,#185);
#166=LINE('',#357,#186);
#167=LINE('',#359,#187);
#168=LINE('',#361,#188);
#169=LINE('',#363,#189);
#170=LINE('',#366,#190);
#171=LINE('',#368,#191);
#172=LINE('',#369,#192);
#173=LINE('',#371,#193);
#174=LINE('',#373,#194);
#175=LINE('',#375,#195);
#176=LINE('',#377,#196);
#177=LINE('',#379,#197);
#178=LINE('',#381,#198);
#179=LINE('',#383,#199);
#180=LINE('',#385,#200);
#181=LINE('',#387,#201);
#182=LINE('',#389,#202);
#183=LINE('',#391,#203);
#184=LINE('',#393,#204);
#185=VECTOR('',#255,1.0);
#186=VECTOR('',#256,1.0);
#187=VECTOR('',#257,1.0);
#188=VECTOR('',#258,1.0);
#189=VECTOR('',#261,1.0);
#190=VECTOR('',#262,1.0);
#191=VECTOR('',#263,1.0);
#192=VECTOR('',#264,1.0);
#193=VECTOR('',#265,1.0);
#194=VECTOR('',#268,1.0);
#195=VECTOR('',#269,1.0);
#196=VECTOR('',#270,1.0);
#197=VECTOR('',#271,1.0);
#198=VECTOR('',#274,1.0);
#199=VECTOR('',#275,1.0);
#200=VECTOR('',#276,1.0);
#201=VECTOR('',#277,1.0);
#202=VECTOR('',#280,1.0);
#203=VECTOR('',#281,1.0);
#204=VECTOR('',#282,1.0);
#205=CURVE_STYLE('',#209,POSITIVE_LENGTH_MEASURE(0.18),#208);
#206=CURVE_STYLE('',#210,POSITIVE_LENGTH_MEASURE(0.18),#230);
#207=CURVE_STYLE('',#211,POSITIVE_LENGTH_MEASURE(0.18),#230);
#208=DRAUGHTING_PRE_DEFINED_COLOUR('blue');
#209=DRAUGHTING_PRE_DEFINED_CURVE_FONT('continuous');
#210=DRAUGHTING_PRE_DEFINED_CURVE_FONT('continuous');
#211=DRAUGHTING_PRE_DEFINED_CURVE_FONT('continuous');
#212=B_SPLINE_CURVE_WITH_KNOTS('CUTTING EDGE LINE',5,(#306,#307,#308,#309,#310,#311,
     #312,#313,#314,#315,#316,#317,#318,#319,#320,#321,#322,#323,#324,#325,#326,
     #327,#328,#329,#330,#331,#332,#333,#334,#335,#336,#337,#338,#339,#340,#341,
     #342,#343,#344,#345,#346,#347,#348,#349,#350,#351),.UNSPECIFIED.,.T.,.F.,(2,
     4,1,1,1,4,4,1,1,1,4,4,1,1,1,4,4,1,1,1,4,4,1,1),(-0.2375613185,0.0,0.00310967037499998,
     0.00621934074999997,0.00932901112499995,0.0124386815,0.25,0.253109670375,0.25621934075,
     0.259329011125,0.2624386815,0.5,0.503109670375,0.50621934075,0.509329011125,
     0.5124386815,0.75,0.753109670375,0.75621934075,0.759329011125,0.7624386815,
     1.0,1.003109670375,1.00621934075),.UNSPECIFIED.);
#213=PRESENTATION_LAYER_ASSIGNMENT('1','Layer 1',(#212,#233,#234,#31));
#216=STYLED_ITEM('',(#222),#212);
#217=STYLED_ITEM('',(#223),#233);
#218=STYLED_ITEM('',(#224),#234);
#219=STYLED_ITEM('',(#225),#31);
#220=PRESENTATION_STYLE_ASSIGNMENT((#226));
#221=PRESENTATION_STYLE_ASSIGNMENT((#227));
#222=PRESENTATION_STYLE_ASSIGNMENT((#205));
#223=PRESENTATION_STYLE_ASSIGNMENT((#206));
#224=PRESENTATION_STYLE_ASSIGNMENT((#207));
#225=PRESENTATION_STYLE_ASSIGNMENT((#26));
#226=POINT_STYLE('',#228,POSITIVE_LENGTH_MEASURE(3.0),#230);
#227=POINT_STYLE('',#229,POSITIVE_LENGTH_MEASURE(3.0),#230);
#228=PRE_DEFINED_POINT_MARKER_SYMBOL('plus');
#229=PRE_DEFINED_POINT_MARKER_SYMBOL('plus');
#230=COLOUR_RGB('Medium Maroon',0.6,0.4,0.4);
#231=COLOUR_RGB('IsoInsertColor',0.8,0.8,0.8);
#232=AXIS2_PLACEMENT_3D('',#303,#249,#250);
#233=AXIS2_PLACEMENT_3D('PCS',#352,#251,#252);
#234=AXIS2_PLACEMENT_3D('MCS',#353,#253,#254);
#235=AXIS2_PLACEMENT_3D('',#362,#259,#260);
#236=AXIS2_PLACEMENT_3D('',#372,#266,#267);
#237=AXIS2_PLACEMENT_3D('',#380,#272,#273);
#238=AXIS2_PLACEMENT_3D('',#388,#278,#279);
#239=AXIS2_PLACEMENT_3D('',#394,#283,#284);
#240=AXIS2_PLACEMENT_3D('',#395,#285,#286);
#241=AXIS2_PLACEMENT_3D('',#396,#287,#288);
#242=AXIS2_PLACEMENT_3D('',#397,#289,#290);
#243=AXIS2_PLACEMENT_3D('',#398,#291,#292);
#244=AXIS2_PLACEMENT_3D('',#399,#293,#294);
#245=AXIS2_PLACEMENT_3D('',#400,#295,#296);
#246=AXIS2_PLACEMENT_3D('',#401,#297,#298);
#247=AXIS2_PLACEMENT_3D('',#402,#299,#300);
#248=AXIS2_PLACEMENT_3D('',#403,#301,#302);
#249=DIRECTION('',(0.0,0.0,1.0));
#250=DIRECTION('',(1.0,0.0,0.0));
#251=DIRECTION('',(0.0,0.0,1.0));
#252=DIRECTION('',(1.0,0.0,0.0));
#253=DIRECTION('',(0.0,0.0,1.0));
#254=DIRECTION('',(1.0,0.0,0.0));
#255=DIRECTION('',(1.0,-5.55111512312578E-16,0.0));
#256=DIRECTION('',(-2.22044604925031E-16,-1.0,0.0));
#257=DIRECTION('',(-1.0,0.0,0.0));
#258=DIRECTION('',(0.0,1.0,0.0));
#259=DIRECTION('',(0.0,0.0,1.0));
#260=DIRECTION('',(-0.707106781186548,-0.707106781186547,0.0));
#261=DIRECTION('',(-1.0,4.44089209850063E-16,-1.11873922990115E-16));
#262=DIRECTION('',(-1.38777878078145E-17,-0.190808995376545,-0.981627183447664));
#263=DIRECTION('',(0.187427559991896,0.187427559991896,0.964231206459824));
#264=DIRECTION('',(-0.187427559991896,0.187427559991896,0.964231206459824));
#265=DIRECTION('',(1.38777878078145E-17,0.190808995376545,0.981627183447664));
#266=DIRECTION('',(-5.55111512312578E-16,-0.981627183447664,0.190808995376545));
#267=DIRECTION('',(1.0,-5.55111512312578E-16,0.0));
#268=DIRECTION('',(-0.187427559991896,-0.187427559991896,0.964231206459825));
#269=DIRECTION('',(-0.190808995376545,3.88578058618805E-16,0.981627183447664));
#270=DIRECTION('',(-1.11022302462516E-16,-1.0,3.656359982924E-16));
#271=DIRECTION('',(0.190808995376545,-3.88578058618805E-16,-0.981627183447664));
#272=DIRECTION('',(0.981627183447664,0.0,0.190808995376545));
#273=DIRECTION('',(0.0,1.0,0.0));
#274=DIRECTION('',(0.187427559991896,-0.187427559991896,0.964231206459824));
#275=DIRECTION('',(-1.11022302462516E-16,-0.190808995376545,0.981627183447664));
#276=DIRECTION('',(1.0,1.11022302462516E-16,1.22664197727037E-16));
#277=DIRECTION('',(1.11022302462516E-16,0.190808995376545,-0.981627183447664));
#278=DIRECTION('',(0.0,0.981627183447664,0.190808995376545));
#279=DIRECTION('',(-1.0,0.0,0.0));
#280=DIRECTION('',(0.190808995376545,3.7470027081099E-16,0.981627183447664));
#281=DIRECTION('',(1.11022302462516E-16,1.0,-3.76426273029323E-16));
#282=DIRECTION('',(-0.190808995376545,-3.7470027081099E-16,-0.981627183447664));
#283=DIRECTION('',(-0.981627183447664,1.66533453693773E-16,0.190808995376545));
#284=DIRECTION('',(-2.22044604925031E-16,-1.0,0.0));
#285=DIRECTION('',(-1.04902962956707E-16,3.68253109545943E-16,1.0));
#286=DIRECTION('',(-0.707106781186549,0.707106781186549,-3.34571867426218E-16));
#287=DIRECTION('',(-1.04902962956707E-16,3.68253109545943E-16,1.0));
#288=DIRECTION('',(-0.707106781186547,0.707106781186549,-3.34571867426218E-16));
#289=DIRECTION('',(-1.04902962956707E-16,3.68253109545943E-16,1.0));
#290=DIRECTION('',(-0.707106781186547,0.707106781186547,-3.34571867426218E-16));
#291=DIRECTION('',(-1.04902962956707E-16,3.68253109545943E-16,1.0));
#292=DIRECTION('',(-0.707106781186549,0.707106781186547,-3.34571867426218E-16));
#293=DIRECTION('',(-1.04902962956707E-16,3.68253109545943E-16,1.0));
#294=DIRECTION('',(-0.707106781186547,0.707106781186548,-3.34571867426218E-16));
#295=DIRECTION('',(-1.04902962956707E-16,3.68253109545943E-16,1.0));
#296=DIRECTION('',(-0.707106781186547,0.707106781186548,-5.45504409943894E-16));
#297=DIRECTION('',(-1.04902962956707E-16,3.68253109545943E-16,1.0));
#298=DIRECTION('',(-0.707106781186547,0.707106781186548,-5.67769896064053E-16));
#299=DIRECTION('',(-1.04902962956707E-16,3.68253109545943E-16,1.0));
#300=DIRECTION('',(-0.707106781186547,0.707106781186548,-5.63316798840022E-16));
#301=DIRECTION('',(-1.04902962956707E-16,3.68253109545943E-16,1.0));
#302=DIRECTION('',(-0.707106781186547,0.707106781186548,-5.41051312719863E-16));
#303=CARTESIAN_POINT('',(0.0,0.0,0.0));
#306=CARTESIAN_POINT('',(9.921875,-6.21724893790088E-15,-4.93038065763132E-33));
#307=CARTESIAN_POINT('',(12.3311883003783,-5.32907051820075E-15,1.49094376211078E-16));
#308=CARTESIAN_POINT('',(12.387314901135,0.00496093749999105,1.52895133749108E-16));
#309=CARTESIAN_POINT('',(12.4829112630947,0.0290837384929965,1.52774902240437E-16));
#310=CARTESIAN_POINT('',(12.5952913706769,0.10470862932293,1.32748169735334E-16));
#311=CARTESIAN_POINT('',(12.6709162615071,0.217088736905591,9.34026176568765E-17));
#312=CARTESIAN_POINT('',(12.6950390625,0.312685098864971,5.57153425943146E-17));
#313=CARTESIAN_POINT('',(12.7,0.368811699621653,3.26230410201837E-17));
#314=CARTESIAN_POINT('',(12.7,2.77812499999999,1.2490009027033E-17));
#315=CARTESIAN_POINT('',(12.7,5.15937499999999,8.32667268468868E-18));
#316=CARTESIAN_POINT('',(12.7,7.540625,8.32667268468866E-18));
#317=CARTESIAN_POINT('',(12.7,9.92187499999999,1.2490009027033E-17));
#318=CARTESIAN_POINT('',(12.7,12.3311883003783,1.19542457632917E-17));
#319=CARTESIAN_POINT('',(12.6950390625,12.387314901135,-5.37760284604216E-18));
#320=CARTESIAN_POINT('',(12.670916261507,12.4829112630947,-3.36559946509023E-17));
#321=CARTESIAN_POINT('',(12.5952913706771,12.5952913706769,-6.31545401055079E-17));
#322=CARTESIAN_POINT('',(12.4829112630944,12.6709162615071,-7.81338479807323E-17));
#323=CARTESIAN_POINT('',(12.387314901135,12.6950390625,-7.81783806488543E-17));
#324=CARTESIAN_POINT('',(12.3311883003783,12.7,-7.52985018797141E-17));
#325=CARTESIAN_POINT('',(9.921875,12.7,-4.38451358553139E-17));
#326=CARTESIAN_POINT('',(7.540625,12.7,-2.92300905702092E-17));
#327=CARTESIAN_POINT('',(5.159375,12.7,-2.92300905702092E-17));
#328=CARTESIAN_POINT('',(2.778125,12.7,-4.38451358553138E-17));
#329=CARTESIAN_POINT('',(0.368811699621658,12.7,-8.11863485997781E-17));
#330=CARTESIAN_POINT('',(0.312685098864974,12.6950390625,-9.53215037662537E-17));
#331=CARTESIAN_POINT('',(0.217088736905331,12.670916261507,-1.12803101034042E-16));
#332=CARTESIAN_POINT('',(0.104708629323141,12.5952913706771,-1.13468530563064E-16));
#333=CARTESIAN_POINT('',(0.029083738492905,12.4829112630944,-8.80475290882591E-17));
#334=CARTESIAN_POINT('',(0.00496093749999638,12.387314901135,-5.48019022639958E-17));
#335=CARTESIAN_POINT('',(-3.5527136788005E-15,12.3311883003783,-3.26230410201839E-17));
#336=CARTESIAN_POINT('',(-3.5527136788005E-15,9.921875,-1.24900090270331E-17));
#337=CARTESIAN_POINT('',(-3.5527136788005E-15,7.540625,-8.32667268468875E-18));
#338=CARTESIAN_POINT('',(-3.5527136788005E-15,5.159375,-8.32667268468873E-18));
#339=CARTESIAN_POINT('',(-3.5527136788005E-15,2.77812499999999,-1.24900090270331E-17));
#340=CARTESIAN_POINT('',(-2.66453525910038E-15,0.368811699621652,-1.19542457632919E-17));
#341=CARTESIAN_POINT('',(0.00496093749999815,0.312685098864971,5.37760284604206E-18));
#342=CARTESIAN_POINT('',(0.0290837384929912,0.21708873690532,3.36559946509022E-17));
#343=CARTESIAN_POINT('',(0.104708629322936,0.104708629323135,6.31545401055079E-17));
#344=CARTESIAN_POINT('',(0.217088736905594,0.0290837384929077,7.81338479807324E-17));
#345=CARTESIAN_POINT('',(0.312685098864976,0.00496093749999282,7.81783806488544E-17));
#346=CARTESIAN_POINT('',(0.368811699621658,-7.105427357601E-15,7.52985018797141E-17));
#347=CARTESIAN_POINT('',(2.778125,-7.105427357601E-15,4.38451358553139E-17));
#348=CARTESIAN_POINT('',(5.159375,-7.105427357601E-15,2.19225679276569E-17));
#349=CARTESIAN_POINT('',(7.540625,-7.105427357601E-15,7.30752264255231E-18));
#350=CARTESIAN_POINT('',(9.921875,-6.21724893790088E-15,-4.93038065763132E-33));
#351=CARTESIAN_POINT('',(12.3311883003783,-5.32907051820075E-15,1.49094376211078E-16));
#352=CARTESIAN_POINT('',(0.0,0.0,0.0));
#353=CARTESIAN_POINT('',(6.35,6.35,0.0));
#354=CARTESIAN_POINT('',(6.35,12.0828425184877,-3.175));
#355=CARTESIAN_POINT('',(0.617157481512253,12.0828425184877,-3.175));
#356=CARTESIAN_POINT('',(12.0828425184877,12.0828425184877,-3.175));
#357=CARTESIAN_POINT('',(12.0828425184877,6.35,-3.175));
#358=CARTESIAN_POINT('',(12.0828425184877,0.61715748151225,-3.175));
#359=CARTESIAN_POINT('',(6.35,0.61715748151225,-3.175));
#360=CARTESIAN_POINT('',(0.617157481512253,0.61715748151225,-3.175));
#361=CARTESIAN_POINT('',(0.617157481512253,6.35,-3.175));
#362=CARTESIAN_POINT('',(6.35,5.81966991411009,-3.175));
#363=CARTESIAN_POINT('',(6.35,12.7,-5.27182464349352E-15));
#364=CARTESIAN_POINT('',(12.303125,12.7,-4.64732419214187E-15));
#365=CARTESIAN_POINT('',(0.396874999999998,12.7,-5.89632509484517E-15));
#366=CARTESIAN_POINT('',(12.303125,12.7,-4.8063303037663E-15));
#367=CARTESIAN_POINT('',(12.303125,12.303125,-2.04174487508822));
#368=CARTESIAN_POINT('',(12.4769302769473,12.4769302769473,-1.14759423957203));
#369=CARTESIAN_POINT('',(0.223069723052674,12.4769302769473,-1.14759423957203));
#370=CARTESIAN_POINT('',(0.396874999999997,12.303125,-2.04174487508823));
#371=CARTESIAN_POINT('',(0.396874999999998,12.7,-6.4664293678392E-15));
#372=CARTESIAN_POINT('',(6.35,12.7,-5.27182464349352E-15));
#373=CARTESIAN_POINT('',(0.223069723052672,0.223069723052671,-1.14759423957203));
#374=CARTESIAN_POINT('',(0.396874999999996,0.396874999999994,-2.04174487508822));
#375=CARTESIAN_POINT('',(-3.46944695195361E-15,0.396874999999995,-1.43867356370496E-15));
#376=CARTESIAN_POINT('',(-3.46944695195361E-15,0.396874999999995,-1.40729441988618E-15));
#377=CARTESIAN_POINT('',(-3.46944695195361E-15,6.35,-3.59955121265187E-15));
#378=CARTESIAN_POINT('',(-3.46944695195361E-15,12.303125,-5.79180800541756E-15));
#379=CARTESIAN_POINT('',(-3.46944695195361E-15,12.303125,-6.26714010556345E-15));
#380=CARTESIAN_POINT('',(-3.46944695195361E-15,6.35,-3.59955121265187E-15));
#381=CARTESIAN_POINT('',(12.4769302769473,0.223069723052669,-1.14759423957202));
#382=CARTESIAN_POINT('',(12.303125,0.396874999999994,-2.04174487508822));
#383=CARTESIAN_POINT('',(12.303125,-5.20417042793042E-15,3.03102906769365E-16));
#384=CARTESIAN_POINT('',(12.303125,-5.20417042793042E-15,2.94902990916044E-17));
#385=CARTESIAN_POINT('',(6.35,-6.93889390390723E-15,-5.95010152260045E-16));
#386=CARTESIAN_POINT('',(0.396874999999999,-5.20417042793042E-15,-1.2195106036117E-15));
#387=CARTESIAN_POINT('',(0.396874999999999,-5.20417042793042E-15,-1.33030536004713E-15));
#388=CARTESIAN_POINT('',(6.35,-5.20417042793042E-15,-5.95010152260046E-16));
#389=CARTESIAN_POINT('',(12.7,12.303125,-4.9638652030551E-15));
#390=CARTESIAN_POINT('',(12.7,12.303125,-4.45954037586738E-15));
#391=CARTESIAN_POINT('',(12.7,6.35,-2.26728358310169E-15));
#392=CARTESIAN_POINT('',(12.7,0.396874999999995,-7.50267903359989E-17));
#393=CARTESIAN_POINT('',(12.7,0.396874999999995,-1.6208945845301E-16));
#394=CARTESIAN_POINT('',(12.7,6.35,-2.26728358310169E-15));
#395=CARTESIAN_POINT('',(12.303125,12.303125,-4.50117373929082E-15));
#396=CARTESIAN_POINT('',(0.396874999999996,12.303125,-5.75017464199412E-15));
#397=CARTESIAN_POINT('',(0.396874999999997,0.396874999999994,-1.36566105646274E-15));
#398=CARTESIAN_POINT('',(12.303125,0.396874999999994,-1.16660153759442E-16));
#399=CARTESIAN_POINT('',(6.35,6.35,-2.93341739787678E-15));
#400=CARTESIAN_POINT('',(12.303125,12.303125,-4.77048955893622E-15));
#401=CARTESIAN_POINT('',(12.303125,0.396874999999994,-4.33680868994202E-16));
#402=CARTESIAN_POINT('',(0.396874999999997,0.396874999999994,-1.30104260698261E-15));
#403=CARTESIAN_POINT('',(0.396874999999996,12.303125,-5.63785129692462E-15));
#404=MECHANICAL_DESIGN_GEOMETRIC_PRESENTATION_REPRESENTATION('',(#216,#217,#218,
     #219),#405);
#405=(GEOMETRIC_REPRESENTATION_CONTEXT(3)GLOBAL_UNCERTAINTY_ASSIGNED_CONTEXT((#406))
     GLOBAL_UNIT_ASSIGNED_CONTEXT((#412,#408,#407))REPRESENTATION_CONTEXT('SPUN120304',
     'TOP_LEVEL_ASSEMBLY_PART'));
#406=UNCERTAINTY_MEASURE_WITH_UNIT(LENGTH_MEASURE(2.0E-5),#412,'DISTANCE_ACCURACY_VALUE',
     'Maximum Tolerance applied to model');
#407=(NAMED_UNIT(*)SI_UNIT($,.STERADIAN.)SOLID_ANGLE_UNIT());
#408=(CONVERSION_BASED_UNIT('DEGREE',#410)NAMED_UNIT(#409)PLANE_ANGLE_UNIT());
#409=DIMENSIONAL_EXPONENTS(0.0,0.0,0.0,0.0,0.0,0.0,0.0);
#410=PLANE_ANGLE_MEASURE_WITH_UNIT(PLANE_ANGLE_MEASURE(0.0174532925),#411);
#411=(NAMED_UNIT(*)PLANE_ANGLE_UNIT()SI_UNIT($,.RADIAN.));
#412=(LENGTH_UNIT()NAMED_UNIT(*)SI_UNIT(.MILLI.,.METRE.));
#413=CONSTRUCTIVE_GEOMETRY_REPRESENTATION('supplemental geometry',(#233,#234),#405);
#414=CONSTRUCTIVE_GEOMETRY_REPRESENTATION_RELATIONSHIP('supplemental geometry','contains PCS and MCS coordinate systems',
     #24,#413);
ENDSEC;
END-ISO-10303-21;
