ISO-10303-21;
HEADER;
FILE_DESCRIPTION(
/* description */ (''),
/* implementation_level */ '2;1');
FILE_NAME(
/* name */ 'VCMT110304.stp',
/* time_stamp */ '2017-03-21T10:54:46',
/* author */ ('Sandvik Coromant R&D'),
/* organization */ ('Sandvik Machining Solutions'),
/* preprocessor_version */ 'ST-DEVELOPER v15',
/* originating_system */ 'SIEMENS PLM Software NX v8.5.3.3(64 bits)',
/* authorization */ '');
FILE_SCHEMA(('AUTOMOTIVE_DESIGN'));
ENDSEC;
DATA;
#10=GEOMETRICALLY_BOUNDED_WIREFRAME_SHAPE_REPRESENTATION('IsoTurningInsert-None',
     (#25),#507);
#11=SHAPE_REPRESENTATION_RELATIONSHIP('None','relationship between IsoTurningInsert-None and IsoTurningInsert-None',
     #24,#13);
#12=SHAPE_REPRESENTATION_RELATIONSHIP('None','relationship between IsoTurningInsert-None and IsoTurningInsert-None',
     #24,#10);
#13=ADVANCED_BREP_SHAPE_REPRESENTATION('IsoTurningInsert-None',(#31),#507);
#14=SHAPE_DEFINITION_REPRESENTATION(#15,#24);
#15=PRODUCT_DEFINITION_SHAPE('','',#16);
#16=PRODUCT_DEFINITION(' ','',#18,#17);
#17=PRODUCT_DEFINITION_CONTEXT('part definition',#23,'design');
#18=PRODUCT_DEFINITION_FORMATION_WITH_SPECIFIED_SOURCE(' ',' ',#20,.NOT_KNOWN.);
#19=PRODUCT_RELATED_PRODUCT_CATEGORY('part','',(#20));
#20=PRODUCT('IsoTurningInsert','IsoTurningInsert',' ',(#21));
#21=PRODUCT_CONTEXT(' ',#23,'mechanical');
#22=APPLICATION_PROTOCOL_DEFINITION('international standard','automotive_design',
     2010,#23);
#23=APPLICATION_CONTEXT('core data for automotive mechanical design processes');
#24=SHAPE_REPRESENTATION('IsoTurningInsert-None',(#281),#507);
#25=GEOMETRIC_CURVE_SET('geometric curve set',(#261));
#26=SURFACE_STYLE_USAGE(.BOTH.,#27);
#27=SURFACE_SIDE_STYLE('',(#28));
#28=SURFACE_STYLE_FILL_AREA(#29);
#29=FILL_AREA_STYLE('',(#30));
#30=FILL_AREA_STYLE_COLOUR('',#280);
#31=MANIFOLD_SOLID_BREP('CUT',#32);
#32=CLOSED_SHELL('',(#49,#50,#51,#52,#53,#54,#55,#56,#57,#58,#59,#60,#61,#62));
#33=CYLINDRICAL_SURFACE('',#309,1.4);
#34=TOROIDAL_SURFACE('',#308,3.9,2.5);
#35=TOROIDAL_SURFACE('',#310,1.38569981785225,0.5);
#36=CONICAL_SURFACE('',#300,0.396875000000001,7.0);
#37=CONICAL_SURFACE('',#301,0.396875000000001,7.0);
#38=CONICAL_SURFACE('',#302,0.396875000000001,7.0);
#39=CONICAL_SURFACE('',#303,0.396875000000001,7.0);
#40=CONICAL_SURFACE('',#305,1.87499999997636,4.00000000179035);
#41=FACE_OUTER_BOUND('',#115,.T.);
#42=FACE_OUTER_BOUND('',#116,.T.);
#43=FACE_OUTER_BOUND('',#117,.T.);
#44=FACE_OUTER_BOUND('',#118,.T.);
#45=FACE_OUTER_BOUND('',#121,.T.);
#46=FACE_OUTER_BOUND('',#122,.T.);
#47=FACE_OUTER_BOUND('',#123,.T.);
#48=FACE_OUTER_BOUND('',#124,.T.);
#49=ADVANCED_FACE('',(#101,#102),#63,.F.);
#50=ADVANCED_FACE('',(#41),#64,.F.);
#51=ADVANCED_FACE('',(#42),#65,.F.);
#52=ADVANCED_FACE('',(#43),#66,.F.);
#53=ADVANCED_FACE('',(#44),#67,.F.);
#54=ADVANCED_FACE('',(#103,#104),#68,.T.);
#55=ADVANCED_FACE('',(#45),#36,.T.);
#56=ADVANCED_FACE('',(#46),#37,.T.);
#57=ADVANCED_FACE('',(#47),#38,.T.);
#58=ADVANCED_FACE('',(#48),#39,.T.);
#59=ADVANCED_FACE('',(#105,#106),#40,.F.);
#60=ADVANCED_FACE('',(#107,#108),#34,.T.);
#61=ADVANCED_FACE('',(#109,#110),#33,.F.);
#62=ADVANCED_FACE('',(#111,#112),#35,.F.);
#63=PLANE('',#289);
#64=PLANE('',#290);
#65=PLANE('',#291);
#66=PLANE('',#292);
#67=PLANE('',#293);
#68=PLANE('',#299);
#69=LINE('',#444,#85);
#70=LINE('',#449,#86);
#71=LINE('',#453,#87);
#72=LINE('',#457,#88);
#73=LINE('',#461,#89);
#74=LINE('',#464,#90);
#75=LINE('',#465,#91);
#76=LINE('',#467,#92);
#77=LINE('',#469,#93);
#78=LINE('',#471,#94);
#79=LINE('',#473,#95);
#80=LINE('',#475,#96);
#81=LINE('',#477,#97);
#82=LINE('',#479,#98);
#83=LINE('',#481,#99);
#84=LINE('',#483,#100);
#85=VECTOR('',#319,1.0);
#86=VECTOR('',#322,1.0);
#87=VECTOR('',#325,1.0);
#88=VECTOR('',#328,1.0);
#89=VECTOR('',#333,1.0);
#90=VECTOR('',#334,1.0);
#91=VECTOR('',#335,1.0);
#92=VECTOR('',#338,1.0);
#93=VECTOR('',#339,1.0);
#94=VECTOR('',#340,1.0);
#95=VECTOR('',#343,1.0);
#96=VECTOR('',#344,1.0);
#97=VECTOR('',#345,1.0);
#98=VECTOR('',#348,1.0);
#99=VECTOR('',#349,1.0);
#100=VECTOR('',#350,1.0);
#101=FACE_BOUND('',#113,.T.);
#102=FACE_BOUND('',#114,.T.);
#103=FACE_BOUND('',#119,.T.);
#104=FACE_BOUND('',#120,.T.);
#105=FACE_BOUND('',#125,.T.);
#106=FACE_BOUND('',#126,.T.);
#107=FACE_BOUND('',#127,.T.);
#108=FACE_BOUND('',#128,.T.);
#109=FACE_BOUND('',#129,.T.);
#110=FACE_BOUND('',#130,.T.);
#111=FACE_BOUND('',#131,.T.);
#112=FACE_BOUND('',#132,.T.);
#113=EDGE_LOOP('',(#133));
#114=EDGE_LOOP('',(#134,#135,#136,#137,#138,#139,#140,#141));
#115=EDGE_LOOP('',(#142,#143,#144,#145));
#116=EDGE_LOOP('',(#146,#147,#148,#149));
#117=EDGE_LOOP('',(#150,#151,#152,#153));
#118=EDGE_LOOP('',(#154,#155,#156,#157));
#119=EDGE_LOOP('',(#158));
#120=EDGE_LOOP('',(#159,#160,#161,#162,#163,#164,#165,#166));
#121=EDGE_LOOP('',(#167,#168,#169,#170));
#122=EDGE_LOOP('',(#171,#172,#173,#174));
#123=EDGE_LOOP('',(#175,#176,#177,#178));
#124=EDGE_LOOP('',(#179,#180,#181,#182));
#125=EDGE_LOOP('',(#183));
#126=EDGE_LOOP('',(#184));
#127=EDGE_LOOP('',(#185));
#128=EDGE_LOOP('',(#186));
#129=EDGE_LOOP('',(#187));
#130=EDGE_LOOP('',(#188));
#131=EDGE_LOOP('',(#189));
#132=EDGE_LOOP('',(#190));
#133=ORIENTED_EDGE('',*,*,#212,.T.);
#134=ORIENTED_EDGE('',*,*,#213,.T.);
#135=ORIENTED_EDGE('',*,*,#214,.T.);
#136=ORIENTED_EDGE('',*,*,#215,.T.);
#137=ORIENTED_EDGE('',*,*,#216,.T.);
#138=ORIENTED_EDGE('',*,*,#217,.T.);
#139=ORIENTED_EDGE('',*,*,#218,.T.);
#140=ORIENTED_EDGE('',*,*,#219,.T.);
#141=ORIENTED_EDGE('',*,*,#220,.T.);
#142=ORIENTED_EDGE('',*,*,#221,.F.);
#143=ORIENTED_EDGE('',*,*,#222,.T.);
#144=ORIENTED_EDGE('',*,*,#213,.F.);
#145=ORIENTED_EDGE('',*,*,#223,.T.);
#146=ORIENTED_EDGE('',*,*,#219,.F.);
#147=ORIENTED_EDGE('',*,*,#224,.T.);
#148=ORIENTED_EDGE('',*,*,#225,.F.);
#149=ORIENTED_EDGE('',*,*,#226,.T.);
#150=ORIENTED_EDGE('',*,*,#217,.F.);
#151=ORIENTED_EDGE('',*,*,#227,.T.);
#152=ORIENTED_EDGE('',*,*,#228,.F.);
#153=ORIENTED_EDGE('',*,*,#229,.T.);
#154=ORIENTED_EDGE('',*,*,#215,.F.);
#155=ORIENTED_EDGE('',*,*,#230,.T.);
#156=ORIENTED_EDGE('',*,*,#231,.F.);
#157=ORIENTED_EDGE('',*,*,#232,.T.);
#158=ORIENTED_EDGE('',*,*,#233,.F.);
#159=ORIENTED_EDGE('',*,*,#231,.T.);
#160=ORIENTED_EDGE('',*,*,#234,.T.);
#161=ORIENTED_EDGE('',*,*,#221,.T.);
#162=ORIENTED_EDGE('',*,*,#235,.T.);
#163=ORIENTED_EDGE('',*,*,#225,.T.);
#164=ORIENTED_EDGE('',*,*,#236,.T.);
#165=ORIENTED_EDGE('',*,*,#228,.T.);
#166=ORIENTED_EDGE('',*,*,#237,.T.);
#167=ORIENTED_EDGE('',*,*,#214,.F.);
#168=ORIENTED_EDGE('',*,*,#222,.F.);
#169=ORIENTED_EDGE('',*,*,#234,.F.);
#170=ORIENTED_EDGE('',*,*,#230,.F.);
#171=ORIENTED_EDGE('',*,*,#216,.F.);
#172=ORIENTED_EDGE('',*,*,#232,.F.);
#173=ORIENTED_EDGE('',*,*,#237,.F.);
#174=ORIENTED_EDGE('',*,*,#227,.F.);
#175=ORIENTED_EDGE('',*,*,#218,.F.);
#176=ORIENTED_EDGE('',*,*,#229,.F.);
#177=ORIENTED_EDGE('',*,*,#236,.F.);
#178=ORIENTED_EDGE('',*,*,#224,.F.);
#179=ORIENTED_EDGE('',*,*,#220,.F.);
#180=ORIENTED_EDGE('',*,*,#226,.F.);
#181=ORIENTED_EDGE('',*,*,#235,.F.);
#182=ORIENTED_EDGE('',*,*,#223,.F.);
#183=ORIENTED_EDGE('',*,*,#238,.T.);
#184=ORIENTED_EDGE('',*,*,#233,.T.);
#185=ORIENTED_EDGE('',*,*,#239,.T.);
#186=ORIENTED_EDGE('',*,*,#240,.T.);
#187=ORIENTED_EDGE('',*,*,#240,.F.);
#188=ORIENTED_EDGE('',*,*,#212,.F.);
#189=ORIENTED_EDGE('',*,*,#239,.F.);
#190=ORIENTED_EDGE('',*,*,#238,.F.);
#191=VERTEX_POINT('',#443);
#192=VERTEX_POINT('',#445);
#193=VERTEX_POINT('',#446);
#194=VERTEX_POINT('',#448);
#195=VERTEX_POINT('',#450);
#196=VERTEX_POINT('',#452);
#197=VERTEX_POINT('',#454);
#198=VERTEX_POINT('',#456);
#199=VERTEX_POINT('',#458);
#200=VERTEX_POINT('',#462);
#201=VERTEX_POINT('',#463);
#202=VERTEX_POINT('',#468);
#203=VERTEX_POINT('',#470);
#204=VERTEX_POINT('',#474);
#205=VERTEX_POINT('',#476);
#206=VERTEX_POINT('',#480);
#207=VERTEX_POINT('',#482);
#208=VERTEX_POINT('',#486);
#209=VERTEX_POINT('',#497);
#210=VERTEX_POINT('',#500);
#211=VERTEX_POINT('',#502);
#212=EDGE_CURVE('',#191,#191,#241,.T.);
#213=EDGE_CURVE('',#192,#193,#69,.T.);
#214=EDGE_CURVE('',#193,#194,#242,.T.);
#215=EDGE_CURVE('',#194,#195,#70,.T.);
#216=EDGE_CURVE('',#195,#196,#243,.T.);
#217=EDGE_CURVE('',#196,#197,#71,.T.);
#218=EDGE_CURVE('',#197,#198,#244,.T.);
#219=EDGE_CURVE('',#198,#199,#72,.T.);
#220=EDGE_CURVE('',#199,#192,#245,.T.);
#221=EDGE_CURVE('',#200,#201,#73,.T.);
#222=EDGE_CURVE('',#200,#193,#74,.T.);
#223=EDGE_CURVE('',#192,#201,#75,.T.);
#224=EDGE_CURVE('',#198,#202,#76,.T.);
#225=EDGE_CURVE('',#203,#202,#77,.T.);
#226=EDGE_CURVE('',#203,#199,#78,.T.);
#227=EDGE_CURVE('',#196,#204,#79,.T.);
#228=EDGE_CURVE('',#205,#204,#80,.T.);
#229=EDGE_CURVE('',#205,#197,#81,.T.);
#230=EDGE_CURVE('',#194,#206,#82,.T.);
#231=EDGE_CURVE('',#207,#206,#83,.T.);
#232=EDGE_CURVE('',#207,#195,#84,.T.);
#233=EDGE_CURVE('',#208,#208,#246,.T.);
#234=EDGE_CURVE('',#206,#200,#247,.T.);
#235=EDGE_CURVE('',#201,#203,#248,.T.);
#236=EDGE_CURVE('',#202,#205,#249,.T.);
#237=EDGE_CURVE('',#204,#207,#250,.T.);
#238=EDGE_CURVE('',#209,#209,#251,.T.);
#239=EDGE_CURVE('',#210,#210,#252,.T.);
#240=EDGE_CURVE('',#211,#211,#253,.T.);
#241=CIRCLE('',#284,1.4);
#242=CIRCLE('',#285,0.00703401913327959);
#243=CIRCLE('',#286,0.00703401913327916);
#244=CIRCLE('',#287,0.00703401913327927);
#245=CIRCLE('',#288,0.00703401913327976);
#246=CIRCLE('',#294,1.92255023212159);
#247=CIRCLE('',#295,0.396875000000001);
#248=CIRCLE('',#296,0.396875000000001);
#249=CIRCLE('',#297,0.396875000000001);
#250=CIRCLE('',#298,0.396875000000001);
#251=CIRCLE('',#304,1.88448184298103);
#252=CIRCLE('',#306,1.80474984821024);
#253=CIRCLE('',#307,1.4);
#254=CURVE_STYLE('',#258,POSITIVE_LENGTH_MEASURE(0.18),#257);
#255=CURVE_STYLE('',#259,POSITIVE_LENGTH_MEASURE(0.18),#279);
#256=CURVE_STYLE('',#260,POSITIVE_LENGTH_MEASURE(0.18),#279);
#257=DRAUGHTING_PRE_DEFINED_COLOUR('blue');
#258=DRAUGHTING_PRE_DEFINED_CURVE_FONT('continuous');
#259=DRAUGHTING_PRE_DEFINED_CURVE_FONT('continuous');
#260=DRAUGHTING_PRE_DEFINED_CURVE_FONT('continuous');
#261=B_SPLINE_CURVE_WITH_KNOTS('CUTTING EDGE LINE',5,(#390,#391,#392,#393,#394,#395,
     #396,#397,#398,#399,#400,#401,#402,#403,#404,#405,#406,#407,#408,#409,#410,
     #411,#412,#413,#414,#415,#416,#417,#418,#419,#420,#421,#422,#423,#424,#425,
     #426,#427,#428,#429,#430,#431,#432,#433,#434,#435,#436,#437,#438,#439),.UNSPECIFIED.,
     .T.,.F.,(2,4,1,4,4,1,1,1,1,1,1,1,4,4,1,4,4,1,1,1,1,1,1,1,4,4,1,1),(-0.2348840101,
     0.0,0.00293922025000004,0.00587844049999997,0.2407624505,0.243806642925,0.246850835350076,
     0.249895027775,0.252939220200057,0.255983412625,0.259027605050071,0.262071797475,
     0.2651159899,0.5,0.50293922025,0.5058784405,0.7407624505,0.743806642925,0.746850835350083,
     0.749895027775,0.752939220200084,0.755983412625,0.75902760505009,0.762071797475,
     0.7651159899,1.0,1.00293922025,1.0058784405),.UNSPECIFIED.);
#262=PRESENTATION_LAYER_ASSIGNMENT('1','Layer 1',(#261,#282,#283,#31));
#265=STYLED_ITEM('',(#271),#261);
#266=STYLED_ITEM('',(#272),#282);
#267=STYLED_ITEM('',(#273),#283);
#268=STYLED_ITEM('',(#274),#31);
#269=PRESENTATION_STYLE_ASSIGNMENT((#275));
#270=PRESENTATION_STYLE_ASSIGNMENT((#276));
#271=PRESENTATION_STYLE_ASSIGNMENT((#254));
#272=PRESENTATION_STYLE_ASSIGNMENT((#255));
#273=PRESENTATION_STYLE_ASSIGNMENT((#256));
#274=PRESENTATION_STYLE_ASSIGNMENT((#26));
#275=POINT_STYLE('',#277,POSITIVE_LENGTH_MEASURE(3.0),#279);
#276=POINT_STYLE('',#278,POSITIVE_LENGTH_MEASURE(3.0),#279);
#277=PRE_DEFINED_POINT_MARKER_SYMBOL('plus');
#278=PRE_DEFINED_POINT_MARKER_SYMBOL('plus');
#279=COLOUR_RGB('Medium Maroon',0.6,0.4,0.4);
#280=COLOUR_RGB('IsoInsertColor',0.8,0.8,0.8);
#281=AXIS2_PLACEMENT_3D('',#387,#311,#312);
#282=AXIS2_PLACEMENT_3D('PCS',#440,#313,#314);
#283=AXIS2_PLACEMENT_3D('MCS',#441,#315,#316);
#284=AXIS2_PLACEMENT_3D('',#442,#317,#318);
#285=AXIS2_PLACEMENT_3D('',#447,#320,#321);
#286=AXIS2_PLACEMENT_3D('',#451,#323,#324);
#287=AXIS2_PLACEMENT_3D('',#455,#326,#327);
#288=AXIS2_PLACEMENT_3D('',#459,#329,#330);
#289=AXIS2_PLACEMENT_3D('',#460,#331,#332);
#290=AXIS2_PLACEMENT_3D('',#466,#336,#337);
#291=AXIS2_PLACEMENT_3D('',#472,#341,#342);
#292=AXIS2_PLACEMENT_3D('',#478,#346,#347);
#293=AXIS2_PLACEMENT_3D('',#484,#351,#352);
#294=AXIS2_PLACEMENT_3D('',#485,#353,#354);
#295=AXIS2_PLACEMENT_3D('',#487,#355,#356);
#296=AXIS2_PLACEMENT_3D('',#488,#357,#358);
#297=AXIS2_PLACEMENT_3D('',#489,#359,#360);
#298=AXIS2_PLACEMENT_3D('',#490,#361,#362);
#299=AXIS2_PLACEMENT_3D('',#491,#363,#364);
#300=AXIS2_PLACEMENT_3D('',#492,#365,#366);
#301=AXIS2_PLACEMENT_3D('',#493,#367,#368);
#302=AXIS2_PLACEMENT_3D('',#494,#369,#370);
#303=AXIS2_PLACEMENT_3D('',#495,#371,#372);
#304=AXIS2_PLACEMENT_3D('',#496,#373,#374);
#305=AXIS2_PLACEMENT_3D('',#498,#375,#376);
#306=AXIS2_PLACEMENT_3D('',#499,#377,#378);
#307=AXIS2_PLACEMENT_3D('',#501,#379,#380);
#308=AXIS2_PLACEMENT_3D('',#503,#381,#382);
#309=AXIS2_PLACEMENT_3D('',#504,#383,#384);
#310=AXIS2_PLACEMENT_3D('',#505,#385,#386);
#311=DIRECTION('',(0.0,0.0,1.0));
#312=DIRECTION('',(1.0,0.0,0.0));
#313=DIRECTION('',(0.0,0.0,1.0));
#314=DIRECTION('',(1.0,0.0,0.0));
#315=DIRECTION('',(0.0,0.0,1.0));
#316=DIRECTION('',(1.0,0.0,0.0));
#317=DIRECTION('',(0.0,0.0,1.0));
#318=DIRECTION('',(-0.953716950748227,-0.300705799504273,0.0));
#319=DIRECTION('',(1.0,7.21644966006352E-16,0.0));
#320=DIRECTION('',(0.0,0.0,-1.0));
#321=DIRECTION('',(-0.953716950748,-0.300705799504275,0.0));
#322=DIRECTION('',(-0.819152044288991,-0.573576436351047,0.0));
#323=DIRECTION('',(0.0,0.0,-1.0));
#324=DIRECTION('',(-0.953716950748306,-0.30070579950427,0.0));
#325=DIRECTION('',(-1.0,0.0,0.0));
#326=DIRECTION('',(0.0,0.0,-1.0));
#327=DIRECTION('',(-0.953716950748229,-0.300705799504273,0.0));
#328=DIRECTION('',(0.819152044288992,0.573576436351047,0.0));
#329=DIRECTION('',(0.0,0.0,-1.0));
#330=DIRECTION('',(-0.953716950748224,-0.300705799504268,0.0));
#331=DIRECTION('',(0.0,0.0,1.0));
#332=DIRECTION('',(-0.953716950748227,-0.300705799504274,0.0));
#333=DIRECTION('',(-1.0,-7.21644966006352E-16,-1.18552433091976E-16));
#334=DIRECTION('',(2.15105711021124E-16,-0.121869343405148,-0.992546151641322));
#335=DIRECTION('',(-2.15105711021124E-16,0.121869343405148,0.992546151641322));
#336=DIRECTION('',(7.21644966006352E-16,-0.992546151641322,0.121869343405148));
#337=DIRECTION('',(1.0,7.21644966006352E-16,0.0));
#338=DIRECTION('',(-0.0699013836907665,0.0998295217864846,0.992546151641322));
#339=DIRECTION('',(-0.819152044288992,-0.573576436351047,4.16168436999958E-16));
#340=DIRECTION('',(0.0699013836907665,-0.0998295217864846,-0.992546151641322));
#341=DIRECTION('',(0.569301084572375,-0.81304620916816,0.121869343405148));
#342=DIRECTION('',(0.819152044288992,0.573576436351047,0.0));
#343=DIRECTION('',(-1.11022302462516E-16,-0.121869343405147,0.992546151641322));
#344=DIRECTION('',(1.0,5.55111512312578E-17,1.25368345421122E-16));
#345=DIRECTION('',(1.11022302462516E-16,0.121869343405147,-0.992546151641322));
#346=DIRECTION('',(-5.55111512312578E-17,0.992546151641323,0.121869343405147));
#347=DIRECTION('',(-1.0,0.0,0.0));
#348=DIRECTION('',(0.0699013836907664,-0.0998295217864827,0.992546151641322));
#349=DIRECTION('',(0.819152044288991,0.573576436351047,-4.16168436999959E-16));
#350=DIRECTION('',(-0.0699013836907664,0.0998295217864827,-0.992546151641322));
#351=DIRECTION('',(-0.569301084572376,0.81304620916816,0.121869343405147));
#352=DIRECTION('',(-0.819152044288991,-0.573576436351047,0.0));
#353=DIRECTION('',(0.0,0.0,1.0));
#354=DIRECTION('',(-0.953716950748227,-0.300705799504273,0.0));
#355=DIRECTION('',(-1.20339735310749E-16,9.08369172207806E-16,1.0));
#356=DIRECTION('',(-0.300705799504272,0.953716950748227,-9.02513933390471E-16));
#357=DIRECTION('',(-1.20339735310749E-16,9.08369172207806E-16,1.0));
#358=DIRECTION('',(-0.300705799504272,0.953716950748227,-9.02513933390471E-16));
#359=DIRECTION('',(-1.20339735310749E-16,9.08369172207806E-16,1.0));
#360=DIRECTION('',(-0.300705799504274,0.953716950748227,-9.02513933390471E-16));
#361=DIRECTION('',(-1.20339735310749E-16,9.08369172207806E-16,1.0));
#362=DIRECTION('',(-0.300705799504272,0.953716950748227,-9.02513933390471E-16));
#363=DIRECTION('',(-1.20339735310749E-16,9.08369172207806E-16,1.0));
#364=DIRECTION('',(-0.300705799504274,0.953716950748227,-9.02513933390471E-16));
#365=DIRECTION('',(-1.20339735310749E-16,9.08369172207806E-16,1.0));
#366=DIRECTION('',(-0.300705799504274,0.953716950748227,-8.66084187041515E-16));
#367=DIRECTION('',(-1.20339735310749E-16,9.08369172207806E-16,1.0));
#368=DIRECTION('',(-0.300705799504274,0.953716950748227,-8.97770193884498E-16));
#369=DIRECTION('',(-1.20339735310749E-16,9.08369172207806E-16,1.0));
#370=DIRECTION('',(-0.300705799504274,0.953716950748227,-8.87208191603503E-16));
#371=DIRECTION('',(-1.20339735310749E-16,9.08369172207806E-16,1.0));
#372=DIRECTION('',(-0.300705799504274,0.953716950748227,-8.55522184760521E-16));
#373=DIRECTION('',(0.0,0.0,-1.0));
#374=DIRECTION('',(0.953716950748227,0.300705799504274,0.0));
#375=DIRECTION('',(0.0,0.0,1.0));
#376=DIRECTION('',(-0.953716950748227,-0.300705799504274,0.0));
#377=DIRECTION('',(0.0,0.0,1.0));
#378=DIRECTION('',(0.953716950748227,0.300705799504273,0.0));
#379=DIRECTION('',(0.0,0.0,-1.0));
#380=DIRECTION('',(-0.953716950748227,-0.300705799504274,0.0));
#381=DIRECTION('',(0.0,0.0,1.0));
#382=DIRECTION('',(-0.953716950748227,-0.300705799504274,0.0));
#383=DIRECTION('',(0.0,0.0,1.0));
#384=DIRECTION('',(-0.953716950748227,-0.300705799504273,0.0));
#385=DIRECTION('',(0.0,0.0,-1.0));
#386=DIRECTION('',(0.953716950748227,0.300705799504273,0.0));
#387=CARTESIAN_POINT('',(0.0,0.0,0.0));
#390=CARTESIAN_POINT('',(9.00834769372367,-2.66453525910038E-15,8.87468518373638E-32));
#391=CARTESIAN_POINT('',(10.9696214681933,-3.10862446895044E-15,3.63381346940275E-16));
#392=CARTESIAN_POINT('',(11.0173585138646,0.00358870162113689,3.65866144459981E-16));
#393=CARTESIAN_POINT('',(11.0663211467622,0.0144815190950696,3.62992079889251E-16));
#394=CARTESIAN_POINT('',(11.1126768510225,0.0336424578849939,3.31626607986773E-16));
#395=CARTESIAN_POINT('',(11.1538391442595,0.058083610153767,2.34483429083173E-16));
#396=CARTESIAN_POINT('',(12.7604205660266,1.1830240324228,3.22705611300281E-17));
#397=CARTESIAN_POINT('',(14.3474500385188,2.2942740324228,7.39557098644699E-32));
#398=CARTESIAN_POINT('',(15.934479511011,3.40552403242281,2.95822839457879E-31));
#399=CARTESIAN_POINT('',(17.5215089835031,4.51677403242281,3.22705611300279E-17));
#400=CARTESIAN_POINT('',(19.1277619898774,5.64148449575807,1.83709651821893E-16));
#401=CARTESIAN_POINT('',(19.1642192321816,5.67124718769398,2.1163727781946E-16));
#402=CARTESIAN_POINT('',(19.2173812619767,5.72891630451428,2.17262514222467E-16));
#403=CARTESIAN_POINT('',(19.2666764581341,5.82091670993017,1.62597239880799E-16));
#404=CARTESIAN_POINT('',(19.2884207458132,5.95542881280309,4.78505203136863E-17));
#405=CARTESIAN_POINT('',(19.2670454070767,6.07487608212826,-6.40735281918887E-17));
#406=CARTESIAN_POINT('',(19.2160429204275,6.18498194760071,-1.71335579199264E-16));
#407=CARTESIAN_POINT('',(19.1210780701113,6.28269580061082,-2.660676334583E-16));
#408=CARTESIAN_POINT('',(19.0279285447247,6.32978355784106,-2.94412524090098E-16));
#409=CARTESIAN_POINT('',(18.9513031128262,6.34653084517727,-2.61182484301888E-16));
#410=CARTESIAN_POINT('',(18.9043679094879,6.35000000000001,-2.13481324158708E-16));
#411=CARTESIAN_POINT('',(16.9434950561845,6.35,-3.60509015219974E-17));
#412=CARTESIAN_POINT('',(15.0060898045506,6.35,-1.67632942359465E-31));
#413=CARTESIAN_POINT('',(13.0686845529166,6.35,-3.94430452610506E-32));
#414=CARTESIAN_POINT('',(11.1312793012827,6.35,-3.60509015219975E-17));
#415=CARTESIAN_POINT('',(9.17000552681311,6.35,-2.53560096723569E-16));
#416=CARTESIAN_POINT('',(9.12226848114181,6.34641129837886,-3.45299262532648E-16));
#417=CARTESIAN_POINT('',(9.07330584824422,6.33551848090492,-3.64252761164584E-16));
#418=CARTESIAN_POINT('',(9.02695014398387,6.316357542115,-3.31626607986774E-16));
#419=CARTESIAN_POINT('',(8.98578785074692,6.29191638984623,-2.34483429083173E-16));
#420=CARTESIAN_POINT('',(7.37920642897977,5.16697596757719,-3.22705611300281E-17));
#421=CARTESIAN_POINT('',(5.7921769564876,4.05572596757719,-9.36772324949951E-32));
#422=CARTESIAN_POINT('',(4.20514748399542,2.94447596757719,-1.97215226305253E-32));
#423=CARTESIAN_POINT('',(2.61811801150325,1.83322596757719,-3.22705611300281E-17));
#424=CARTESIAN_POINT('',(1.011865005129,0.708515504241935,-1.83709651821893E-16));
#425=CARTESIAN_POINT('',(0.975407762824755,0.678752812305984,-2.11637277819495E-16));
#426=CARTESIAN_POINT('',(0.922245733029575,0.62108369548567,-2.17262514222449E-16));
#427=CARTESIAN_POINT('',(0.872950536872073,0.529083290069559,-1.62597239880654E-16));
#428=CARTESIAN_POINT('',(0.851206249193176,0.394571187196601,-4.78505203133885E-17));
#429=CARTESIAN_POINT('',(0.872581587929796,0.275123917871352,6.40735281922386E-17));
#430=CARTESIAN_POINT('',(0.923584074579097,0.165018052398957,1.7133557919963E-16));
#431=CARTESIAN_POINT('',(1.0185489248954,0.067304199389,2.66067633458381E-16));
#432=CARTESIAN_POINT('',(1.11169845028182,0.0202164421588873,2.94412524090094E-16));
#433=CARTESIAN_POINT('',(1.1883238821803,0.00346915482271726,2.61182484301737E-16));
#434=CARTESIAN_POINT('',(1.23525908551847,-2.66453525910038E-15,2.13481324158707E-16));
#435=CARTESIAN_POINT('',(3.19613193882184,-3.5527136788005E-15,3.60509015219973E-17));
#436=CARTESIAN_POINT('',(5.13353719045579,-3.10862446895044E-15,-1.4791141972894E-31));
#437=CARTESIAN_POINT('',(7.07094244208973,-3.5527136788005E-15,1.08468374467889E-31));
#438=CARTESIAN_POINT('',(9.00834769372367,-2.66453525910038E-15,8.87468518373638E-32));
#439=CARTESIAN_POINT('',(10.9696214681933,-3.10862446895044E-15,3.63381346940275E-16));
#440=CARTESIAN_POINT('',(0.0,0.0,0.0));
#441=CARTESIAN_POINT('',(10.0698134975032,3.175,0.0));
#442=CARTESIAN_POINT('',(10.0698134975032,3.175,-3.175));
#443=CARTESIAN_POINT('',(8.73460976645568,2.75401188069402,-3.175));
#444=CARTESIAN_POINT('',(10.0698134975032,5.96015901913327,-3.175));
#445=CARTESIAN_POINT('',(9.19387404964876,5.96015901913327,-3.175));
#446=CARTESIAN_POINT('',(18.8809003078185,5.96015901913328,-3.175));
#447=CARTESIAN_POINT('',(18.8809003078185,5.953125,-3.175));
#448=CARTESIAN_POINT('',(18.8849348554462,5.94736306884741,-3.175));
#449=CARTESIAN_POINT('',(11.6673150823686,0.893531295807048,-3.175));
#450=CARTESIAN_POINT('',(10.9497874929853,0.391113068847401,-3.175));
#451=CARTESIAN_POINT('',(10.9457529453576,0.396874999999999,-3.175));
#452=CARTESIAN_POINT('',(10.9457529453576,0.389840980866716,-3.175));
#453=CARTESIAN_POINT('',(10.0698134975032,0.389840980866716,-3.175));
#454=CARTESIAN_POINT('',(1.2587266871879,0.389840980866716,-3.175));
#455=CARTESIAN_POINT('',(1.2587266871879,0.396874999999999,-3.175));
#456=CARTESIAN_POINT('',(1.25469213956021,0.402636931152589,-3.175));
#457=CARTESIAN_POINT('',(8.47231191263774,5.45646870419294,-3.175));
#458=CARTESIAN_POINT('',(9.18983950202107,5.95888693115259,-3.175));
#459=CARTESIAN_POINT('',(9.19387404964877,5.953125,-3.175));
#460=CARTESIAN_POINT('',(9.82493431578671,2.70459146865531,-3.175));
#461=CARTESIAN_POINT('',(10.0698134975032,6.35,-5.81748951963656E-15));
#462=CARTESIAN_POINT('',(18.8809003078185,6.35,-4.75716566508319E-15));
#463=CARTESIAN_POINT('',(9.19387404964876,6.35,-5.92289984093961E-15));
#464=CARTESIAN_POINT('',(18.8809003078185,6.35,-4.695485512529E-15));
#465=CARTESIAN_POINT('',(9.19387404964876,6.35,-6.11697878502329E-15));
#466=CARTESIAN_POINT('',(10.0698134975032,6.35,-5.81748951963656E-15));
#467=CARTESIAN_POINT('',(1.03108853901108,0.721975967577193,-1.84618180512546E-15));
#468=CARTESIAN_POINT('',(1.03108853901108,0.721975967577193,-1.79288375719063E-15));
#469=CARTESIAN_POINT('',(8.24870831208862,5.77580774061755,-5.51506228827902E-15));
#470=CARTESIAN_POINT('',(8.96623590147194,6.27822596757719,-5.88509643701991E-15));
#471=CARTESIAN_POINT('',(8.96623590147194,6.27822596757719,-6.10719281343418E-15));
#472=CARTESIAN_POINT('',(8.24870831208861,5.77580774061754,-5.51506228827901E-15));
#473=CARTESIAN_POINT('',(10.9457529453576,-3.03576608295941E-15,-1.46890640041529E-17));
#474=CARTESIAN_POINT('',(10.9457529453576,-3.03576608295941E-15,5.60650451860499E-17));
#475=CARTESIAN_POINT('',(10.0698134975032,-3.03576608295941E-15,-4.93452761169949E-17));
#476=CARTESIAN_POINT('',(1.2587266871879,-3.03576608295941E-15,-1.10966913067037E-15));
#477=CARTESIAN_POINT('',(1.2587266871879,-3.03576608295941E-15,-1.3162053853486E-15));
#478=CARTESIAN_POINT('',(10.0698134975032,-3.03576608295941E-15,-4.9345276116996E-17));
#479=CARTESIAN_POINT('',(19.1085384559953,5.62802403242281,-4.37725602540739E-15));
#480=CARTESIAN_POINT('',(19.1085384559953,5.62802403242281,-4.07395103856294E-15));
#481=CARTESIAN_POINT('',(11.8909186829178,0.574192259382455,-3.51772507474546E-16));
#482=CARTESIAN_POINT('',(11.1733910935344,0.0717740324228037,1.82616412663566E-17));
#483=CARTESIAN_POINT('',(11.1733910935344,0.0717740324228037,-3.66225919701334E-17));
#484=CARTESIAN_POINT('',(11.8909186829178,0.574192259382449,-3.51772507474541E-16));
#485=CARTESIAN_POINT('',(10.0698134975032,3.175,-6.93889390390723E-15));
#486=CARTESIAN_POINT('',(8.2362447524639,2.59687799536275,-6.93889390390723E-15));
#487=CARTESIAN_POINT('',(18.8809003078185,5.953125,-4.39665664986322E-15));
#488=CARTESIAN_POINT('',(9.19387404964876,5.95312499999999,-5.56239082571963E-15));
#489=CARTESIAN_POINT('',(1.2587266871879,0.396874999999998,-1.47017814589034E-15));
#490=CARTESIAN_POINT('',(10.9457529453576,0.396874999999998,-3.04443970033924E-16));
#491=CARTESIAN_POINT('',(10.0698134975032,3.175,-2.93341739787678E-15));
#492=CARTESIAN_POINT('',(18.8809003078185,5.953125,-4.33680868994202E-15));
#493=CARTESIAN_POINT('',(10.9457529453576,0.396874999999998,-4.33680868994202E-16));
#494=CARTESIAN_POINT('',(1.2587266871879,0.396874999999998,-1.73472347597681E-15));
#495=CARTESIAN_POINT('',(9.19387404964876,5.95312499999999,-5.63785129692462E-15));
#496=CARTESIAN_POINT('',(10.0698134975032,3.175,-0.544403327785287));
#497=CARTESIAN_POINT('',(11.8670757745315,3.7416746192449,-0.544403327785287));
#498=CARTESIAN_POINT('',(10.0698134975032,3.175,-0.680000000032654));
#499=CARTESIAN_POINT('',(10.0698134975032,3.175,-0.782283357604651));
#500=CARTESIAN_POINT('',(11.7910340196016,3.71769874601128,-0.782283357604651));
#501=CARTESIAN_POINT('',(10.0698134975032,3.175,-2.14607469113958));
#502=CARTESIAN_POINT('',(8.73460976645568,2.75401188069402,-2.14607469113958));
#503=CARTESIAN_POINT('',(10.0698134975032,3.175,-2.14607469113958));
#504=CARTESIAN_POINT('',(10.0698134975032,3.175,-33.3676978394524));
#505=CARTESIAN_POINT('',(10.0698134975032,3.175,-0.509525090897639));
#506=MECHANICAL_DESIGN_GEOMETRIC_PRESENTATION_REPRESENTATION('',(#265,#266,#267,
     #268),#507);
#507=(GEOMETRIC_REPRESENTATION_CONTEXT(3)GLOBAL_UNCERTAINTY_ASSIGNED_CONTEXT((#508))
     GLOBAL_UNIT_ASSIGNED_CONTEXT((#514,#510,#509))REPRESENTATION_CONTEXT('VCMT110304',
     'TOP_LEVEL_ASSEMBLY_PART'));
#508=UNCERTAINTY_MEASURE_WITH_UNIT(LENGTH_MEASURE(2.0E-5),#514,'DISTANCE_ACCURACY_VALUE',
     'Maximum Tolerance applied to model');
#509=(NAMED_UNIT(*)SI_UNIT($,.STERADIAN.)SOLID_ANGLE_UNIT());
#510=(CONVERSION_BASED_UNIT('DEGREE',#512)NAMED_UNIT(#511)PLANE_ANGLE_UNIT());
#511=DIMENSIONAL_EXPONENTS(0.0,0.0,0.0,0.0,0.0,0.0,0.0);
#512=PLANE_ANGLE_MEASURE_WITH_UNIT(PLANE_ANGLE_MEASURE(0.0174532925),#513);
#513=(NAMED_UNIT(*)PLANE_ANGLE_UNIT()SI_UNIT($,.RADIAN.));
#514=(LENGTH_UNIT()NAMED_UNIT(*)SI_UNIT(.MILLI.,.METRE.));
#515=CONSTRUCTIVE_GEOMETRY_REPRESENTATION('supplemental geometry',(#282,#283),#507);
#516=CONSTRUCTIVE_GEOMETRY_REPRESENTATION_RELATIONSHIP('supplemental geometry','contains PCS and MCS coordinate systems',
     #24,#515);
ENDSEC;
END-ISO-10303-21;
