ISO-10303-21;
HEADER;
FILE_DESCRIPTION(
/* description */ (''),
/* implementation_level */ '2;1');
FILE_NAME(
/* name */ 'VBGT160401.stp',
/* time_stamp */ '2017-03-21T10:54:44',
/* author */ ('Sandvik Coromant R&D'),
/* organization */ ('Sandvik Machining Solutions'),
/* preprocessor_version */ 'ST-DEVELOPER v15',
/* originating_system */ 'SIEMENS PLM Software NX v8.5.3.3(64 bits)',
/* authorization */ '');
FILE_SCHEMA(('AUTOMOTIVE_DESIGN'));
ENDSEC;
DATA;
#10=GEOMETRICALLY_BOUNDED_WIREFRAME_SHAPE_REPRESENTATION('IsoTurningInsert-None',
     (#25),#501);
#11=SHAPE_REPRESENTATION_RELATIONSHIP('None','relationship between IsoTurningInsert-None and IsoTurningInsert-None',
     #24,#13);
#12=SHAPE_REPRESENTATION_RELATIONSHIP('None','relationship between IsoTurningInsert-None and IsoTurningInsert-None',
     #24,#10);
#13=ADVANCED_BREP_SHAPE_REPRESENTATION('IsoTurningInsert-None',(#31),#501);
#14=SHAPE_DEFINITION_REPRESENTATION(#15,#24);
#15=PRODUCT_DEFINITION_SHAPE('','',#16);
#16=PRODUCT_DEFINITION(' ','',#18,#17);
#17=PRODUCT_DEFINITION_CONTEXT('part definition',#23,'design');
#18=PRODUCT_DEFINITION_FORMATION_WITH_SPECIFIED_SOURCE(' ',' ',#20,.NOT_KNOWN.);
#19=PRODUCT_RELATED_PRODUCT_CATEGORY('part','',(#20));
#20=PRODUCT('IsoTurningInsert','IsoTurningInsert',' ',(#21));
#21=PRODUCT_CONTEXT(' ',#23,'mechanical');
#22=APPLICATION_PROTOCOL_DEFINITION('international standard','automotive_design',
     2010,#23);
#23=APPLICATION_CONTEXT('core data for automotive mechanical design processes');
#24=SHAPE_REPRESENTATION('IsoTurningInsert-None',(#285),#501);
#25=GEOMETRIC_CURVE_SET('geometric curve set',(#265));
#26=SURFACE_STYLE_USAGE(.BOTH.,#27);
#27=SURFACE_SIDE_STYLE('',(#28));
#28=SURFACE_STYLE_FILL_AREA(#29);
#29=FILL_AREA_STYLE('',(#30));
#30=FILL_AREA_STYLE_COLOUR('',#284);
#31=MANIFOLD_SOLID_BREP('CUT',#32);
#32=CLOSED_SHELL('',(#49,#50,#51,#52,#53,#54,#55,#56,#57,#58,#59,#60,#61,#62));
#33=CYLINDRICAL_SURFACE('',#309,2.2);
#34=TOROIDAL_SURFACE('',#308,6.19999999999999,4.0);
#35=TOROIDAL_SURFACE('',#310,2.51117873496443,0.5);
#36=CONICAL_SURFACE('',#300,0.0992187500000023,5.0);
#37=CONICAL_SURFACE('',#301,0.0992187500000023,5.0);
#38=CONICAL_SURFACE('',#302,0.0992187500000023,5.0);
#39=CONICAL_SURFACE('',#303,0.0992187500000023,5.0);
#40=CONICAL_SURFACE('',#305,2.99999999999613,4.00000000019606);
#41=FACE_OUTER_BOUND('',#123,.T.);
#42=FACE_OUTER_BOUND('',#124,.T.);
#43=FACE_OUTER_BOUND('',#125,.T.);
#44=FACE_OUTER_BOUND('',#126,.T.);
#45=FACE_OUTER_BOUND('',#129,.T.);
#46=FACE_OUTER_BOUND('',#130,.T.);
#47=FACE_OUTER_BOUND('',#131,.T.);
#48=FACE_OUTER_BOUND('',#132,.T.);
#49=ADVANCED_FACE('',(#109,#110),#63,.F.);
#50=ADVANCED_FACE('',(#41),#64,.F.);
#51=ADVANCED_FACE('',(#42),#65,.F.);
#52=ADVANCED_FACE('',(#43),#66,.F.);
#53=ADVANCED_FACE('',(#44),#67,.F.);
#54=ADVANCED_FACE('',(#111,#112),#68,.T.);
#55=ADVANCED_FACE('',(#45),#36,.T.);
#56=ADVANCED_FACE('',(#46),#37,.T.);
#57=ADVANCED_FACE('',(#47),#38,.T.);
#58=ADVANCED_FACE('',(#48),#39,.T.);
#59=ADVANCED_FACE('',(#113,#114),#40,.F.);
#60=ADVANCED_FACE('',(#115,#116),#34,.T.);
#61=ADVANCED_FACE('',(#117,#118),#33,.F.);
#62=ADVANCED_FACE('',(#119,#120),#35,.F.);
#63=PLANE('',#289);
#64=PLANE('',#290);
#65=PLANE('',#291);
#66=PLANE('',#292);
#67=PLANE('',#293);
#68=PLANE('',#299);
#69=LINE('',#438,#89);
#70=LINE('',#441,#90);
#71=LINE('',#443,#91);
#72=LINE('',#445,#92);
#73=LINE('',#447,#93);
#74=LINE('',#450,#94);
#75=LINE('',#452,#95);
#76=LINE('',#453,#96);
#77=LINE('',#455,#97);
#78=LINE('',#457,#98);
#79=LINE('',#459,#99);
#80=LINE('',#461,#100);
#81=LINE('',#463,#101);
#82=LINE('',#465,#102);
#83=LINE('',#467,#103);
#84=LINE('',#469,#104);
#85=LINE('',#471,#105);
#86=LINE('',#473,#106);
#87=LINE('',#475,#107);
#88=LINE('',#477,#108);
#89=VECTOR('',#319,1.0);
#90=VECTOR('',#320,1.0);
#91=VECTOR('',#321,1.0);
#92=VECTOR('',#322,1.0);
#93=VECTOR('',#325,1.0);
#94=VECTOR('',#326,1.0);
#95=VECTOR('',#327,1.0);
#96=VECTOR('',#328,1.0);
#97=VECTOR('',#329,1.0);
#98=VECTOR('',#332,1.0);
#99=VECTOR('',#333,1.0);
#100=VECTOR('',#334,1.0);
#101=VECTOR('',#335,1.0);
#102=VECTOR('',#338,1.0);
#103=VECTOR('',#339,1.0);
#104=VECTOR('',#340,1.0);
#105=VECTOR('',#341,1.0);
#106=VECTOR('',#344,1.0);
#107=VECTOR('',#345,1.0);
#108=VECTOR('',#346,1.0);
#109=FACE_BOUND('',#121,.T.);
#110=FACE_BOUND('',#122,.T.);
#111=FACE_BOUND('',#127,.T.);
#112=FACE_BOUND('',#128,.T.);
#113=FACE_BOUND('',#133,.T.);
#114=FACE_BOUND('',#134,.T.);
#115=FACE_BOUND('',#135,.T.);
#116=FACE_BOUND('',#136,.T.);
#117=FACE_BOUND('',#137,.T.);
#118=FACE_BOUND('',#138,.T.);
#119=FACE_BOUND('',#139,.T.);
#120=FACE_BOUND('',#140,.T.);
#121=EDGE_LOOP('',(#141));
#122=EDGE_LOOP('',(#142,#143,#144,#145));
#123=EDGE_LOOP('',(#146,#147,#148,#149,#150,#151));
#124=EDGE_LOOP('',(#152,#153,#154,#155,#156,#157));
#125=EDGE_LOOP('',(#158,#159,#160,#161,#162,#163));
#126=EDGE_LOOP('',(#164,#165,#166,#167,#168,#169));
#127=EDGE_LOOP('',(#170));
#128=EDGE_LOOP('',(#171,#172,#173,#174,#175,#176,#177,#178));
#129=EDGE_LOOP('',(#179,#180,#181));
#130=EDGE_LOOP('',(#182,#183,#184));
#131=EDGE_LOOP('',(#185,#186,#187));
#132=EDGE_LOOP('',(#188,#189,#190));
#133=EDGE_LOOP('',(#191));
#134=EDGE_LOOP('',(#192));
#135=EDGE_LOOP('',(#193));
#136=EDGE_LOOP('',(#194));
#137=EDGE_LOOP('',(#195));
#138=EDGE_LOOP('',(#196));
#139=EDGE_LOOP('',(#197));
#140=EDGE_LOOP('',(#198));
#141=ORIENTED_EDGE('',*,*,#220,.T.);
#142=ORIENTED_EDGE('',*,*,#221,.T.);
#143=ORIENTED_EDGE('',*,*,#222,.T.);
#144=ORIENTED_EDGE('',*,*,#223,.T.);
#145=ORIENTED_EDGE('',*,*,#224,.T.);
#146=ORIENTED_EDGE('',*,*,#225,.F.);
#147=ORIENTED_EDGE('',*,*,#226,.T.);
#148=ORIENTED_EDGE('',*,*,#227,.F.);
#149=ORIENTED_EDGE('',*,*,#221,.F.);
#150=ORIENTED_EDGE('',*,*,#228,.T.);
#151=ORIENTED_EDGE('',*,*,#229,.T.);
#152=ORIENTED_EDGE('',*,*,#224,.F.);
#153=ORIENTED_EDGE('',*,*,#230,.T.);
#154=ORIENTED_EDGE('',*,*,#231,.T.);
#155=ORIENTED_EDGE('',*,*,#232,.F.);
#156=ORIENTED_EDGE('',*,*,#233,.T.);
#157=ORIENTED_EDGE('',*,*,#228,.F.);
#158=ORIENTED_EDGE('',*,*,#223,.F.);
#159=ORIENTED_EDGE('',*,*,#234,.T.);
#160=ORIENTED_EDGE('',*,*,#235,.T.);
#161=ORIENTED_EDGE('',*,*,#236,.F.);
#162=ORIENTED_EDGE('',*,*,#237,.T.);
#163=ORIENTED_EDGE('',*,*,#230,.F.);
#164=ORIENTED_EDGE('',*,*,#222,.F.);
#165=ORIENTED_EDGE('',*,*,#227,.T.);
#166=ORIENTED_EDGE('',*,*,#238,.T.);
#167=ORIENTED_EDGE('',*,*,#239,.F.);
#168=ORIENTED_EDGE('',*,*,#240,.T.);
#169=ORIENTED_EDGE('',*,*,#234,.F.);
#170=ORIENTED_EDGE('',*,*,#241,.F.);
#171=ORIENTED_EDGE('',*,*,#239,.T.);
#172=ORIENTED_EDGE('',*,*,#242,.T.);
#173=ORIENTED_EDGE('',*,*,#225,.T.);
#174=ORIENTED_EDGE('',*,*,#243,.T.);
#175=ORIENTED_EDGE('',*,*,#232,.T.);
#176=ORIENTED_EDGE('',*,*,#244,.T.);
#177=ORIENTED_EDGE('',*,*,#236,.T.);
#178=ORIENTED_EDGE('',*,*,#245,.T.);
#179=ORIENTED_EDGE('',*,*,#238,.F.);
#180=ORIENTED_EDGE('',*,*,#226,.F.);
#181=ORIENTED_EDGE('',*,*,#242,.F.);
#182=ORIENTED_EDGE('',*,*,#235,.F.);
#183=ORIENTED_EDGE('',*,*,#240,.F.);
#184=ORIENTED_EDGE('',*,*,#245,.F.);
#185=ORIENTED_EDGE('',*,*,#231,.F.);
#186=ORIENTED_EDGE('',*,*,#237,.F.);
#187=ORIENTED_EDGE('',*,*,#244,.F.);
#188=ORIENTED_EDGE('',*,*,#229,.F.);
#189=ORIENTED_EDGE('',*,*,#233,.F.);
#190=ORIENTED_EDGE('',*,*,#243,.F.);
#191=ORIENTED_EDGE('',*,*,#246,.T.);
#192=ORIENTED_EDGE('',*,*,#241,.T.);
#193=ORIENTED_EDGE('',*,*,#247,.T.);
#194=ORIENTED_EDGE('',*,*,#248,.T.);
#195=ORIENTED_EDGE('',*,*,#248,.F.);
#196=ORIENTED_EDGE('',*,*,#220,.F.);
#197=ORIENTED_EDGE('',*,*,#247,.F.);
#198=ORIENTED_EDGE('',*,*,#246,.F.);
#199=VERTEX_POINT('',#437);
#200=VERTEX_POINT('',#439);
#201=VERTEX_POINT('',#440);
#202=VERTEX_POINT('',#442);
#203=VERTEX_POINT('',#444);
#204=VERTEX_POINT('',#448);
#205=VERTEX_POINT('',#449);
#206=VERTEX_POINT('',#451);
#207=VERTEX_POINT('',#454);
#208=VERTEX_POINT('',#458);
#209=VERTEX_POINT('',#460);
#210=VERTEX_POINT('',#462);
#211=VERTEX_POINT('',#466);
#212=VERTEX_POINT('',#468);
#213=VERTEX_POINT('',#470);
#214=VERTEX_POINT('',#474);
#215=VERTEX_POINT('',#476);
#216=VERTEX_POINT('',#480);
#217=VERTEX_POINT('',#491);
#218=VERTEX_POINT('',#494);
#219=VERTEX_POINT('',#496);
#220=EDGE_CURVE('',#199,#199,#249,.T.);
#221=EDGE_CURVE('',#200,#201,#69,.T.);
#222=EDGE_CURVE('',#201,#202,#70,.T.);
#223=EDGE_CURVE('',#202,#203,#71,.T.);
#224=EDGE_CURVE('',#203,#200,#72,.T.);
#225=EDGE_CURVE('',#204,#205,#73,.T.);
#226=EDGE_CURVE('',#204,#206,#74,.T.);
#227=EDGE_CURVE('INSERT_CORNER_EDGE3',#201,#206,#75,.T.);
#228=EDGE_CURVE('INSERT_CORNER_EDGE4',#200,#207,#76,.T.);
#229=EDGE_CURVE('',#207,#205,#77,.T.);
#230=EDGE_CURVE('INSERT_CORNER_EDGE1',#203,#208,#78,.T.);
#231=EDGE_CURVE('',#208,#209,#79,.T.);
#232=EDGE_CURVE('',#210,#209,#80,.T.);
#233=EDGE_CURVE('',#210,#207,#81,.T.);
#234=EDGE_CURVE('INSERT_CORNER_EDGE2',#202,#211,#82,.T.);
#235=EDGE_CURVE('',#211,#212,#83,.T.);
#236=EDGE_CURVE('',#213,#212,#84,.T.);
#237=EDGE_CURVE('',#213,#208,#85,.T.);
#238=EDGE_CURVE('',#206,#214,#86,.T.);
#239=EDGE_CURVE('',#215,#214,#87,.T.);
#240=EDGE_CURVE('',#215,#211,#88,.T.);
#241=EDGE_CURVE('',#216,#216,#250,.T.);
#242=EDGE_CURVE('',#214,#204,#251,.T.);
#243=EDGE_CURVE('',#205,#210,#252,.T.);
#244=EDGE_CURVE('',#209,#213,#253,.T.);
#245=EDGE_CURVE('',#212,#215,#254,.T.);
#246=EDGE_CURVE('',#217,#217,#255,.T.);
#247=EDGE_CURVE('',#218,#218,#256,.T.);
#248=EDGE_CURVE('',#219,#219,#257,.T.);
#249=CIRCLE('',#288,2.2);
#250=CIRCLE('',#294,3.07132534818238);
#251=CIRCLE('',#295,0.0992187500000023);
#252=CIRCLE('',#296,0.0992187500000022);
#253=CIRCLE('',#297,0.0992187500000023);
#254=CIRCLE('',#298,0.0992187500000023);
#255=CIRCLE('',#304,3.00996076009423);
#256=CIRCLE('',#306,2.92104776441283);
#257=CIRCLE('',#307,2.19999999999999);
#258=CURVE_STYLE('',#262,POSITIVE_LENGTH_MEASURE(0.18),#261);
#259=CURVE_STYLE('',#263,POSITIVE_LENGTH_MEASURE(0.18),#283);
#260=CURVE_STYLE('',#264,POSITIVE_LENGTH_MEASURE(0.18),#283);
#261=DRAUGHTING_PRE_DEFINED_COLOUR('blue');
#262=DRAUGHTING_PRE_DEFINED_CURVE_FONT('continuous');
#263=DRAUGHTING_PRE_DEFINED_CURVE_FONT('continuous');
#264=DRAUGHTING_PRE_DEFINED_CURVE_FONT('continuous');
#265=B_SPLINE_CURVE_WITH_KNOTS('CUTTING EDGE LINE',5,(#386,#387,#388,#389,#390,#391,
     #392,#393,#394,#395,#396,#397,#398,#399,#400,#401,#402,#403,#404,#405,#406,
     #407,#408,#409,#410,#411,#412,#413,#414,#415,#416,#417,#418,#419,#420,#421,
     #422,#423,#424,#425,#426,#427,#428,#429,#430,#431,#432,#433),.UNSPECIFIED.,
     .T.,.F.,(2,4,4,4,1,1,1,1,1,1,1,4,4,4,4,1,1,1,1,1,1,1,4,4,2),(-0.2476265476,
     0.0,9.23009199999991E-4,0.2485495568,0.24902754375,0.249505530700012,0.24998351765,
     0.250461504600009,0.25093949155,0.251417478500011,0.25189546545,0.2523734524,
     0.5,0.5009230092,0.7485495568,0.74902754375,0.749505530700012,0.74998351765,
     0.750461504600012,0.75093949155,0.751417478500014,0.75189546545,0.7523734524,
     1.0,1.0009230092),.UNSPECIFIED.);
#266=PRESENTATION_LAYER_ASSIGNMENT('1','Layer 1',(#265,#286,#287,#31));
#269=STYLED_ITEM('',(#275),#265);
#270=STYLED_ITEM('',(#276),#286);
#271=STYLED_ITEM('',(#277),#287);
#272=STYLED_ITEM('',(#278),#31);
#273=PRESENTATION_STYLE_ASSIGNMENT((#279));
#274=PRESENTATION_STYLE_ASSIGNMENT((#280));
#275=PRESENTATION_STYLE_ASSIGNMENT((#258));
#276=PRESENTATION_STYLE_ASSIGNMENT((#259));
#277=PRESENTATION_STYLE_ASSIGNMENT((#260));
#278=PRESENTATION_STYLE_ASSIGNMENT((#26));
#279=POINT_STYLE('',#281,POSITIVE_LENGTH_MEASURE(3.0),#283);
#280=POINT_STYLE('',#282,POSITIVE_LENGTH_MEASURE(3.0),#283);
#281=PRE_DEFINED_POINT_MARKER_SYMBOL('plus');
#282=PRE_DEFINED_POINT_MARKER_SYMBOL('plus');
#283=COLOUR_RGB('Medium Maroon',0.6,0.4,0.4);
#284=COLOUR_RGB('IsoInsertColor',0.8,0.8,0.8);
#285=AXIS2_PLACEMENT_3D('',#383,#311,#312);
#286=AXIS2_PLACEMENT_3D('PCS',#434,#313,#314);
#287=AXIS2_PLACEMENT_3D('MCS',#435,#315,#316);
#288=AXIS2_PLACEMENT_3D('',#436,#317,#318);
#289=AXIS2_PLACEMENT_3D('',#446,#323,#324);
#290=AXIS2_PLACEMENT_3D('',#456,#330,#331);
#291=AXIS2_PLACEMENT_3D('',#464,#336,#337);
#292=AXIS2_PLACEMENT_3D('',#472,#342,#343);
#293=AXIS2_PLACEMENT_3D('',#478,#347,#348);
#294=AXIS2_PLACEMENT_3D('',#479,#349,#350);
#295=AXIS2_PLACEMENT_3D('',#481,#351,#352);
#296=AXIS2_PLACEMENT_3D('',#482,#353,#354);
#297=AXIS2_PLACEMENT_3D('',#483,#355,#356);
#298=AXIS2_PLACEMENT_3D('',#484,#357,#358);
#299=AXIS2_PLACEMENT_3D('',#485,#359,#360);
#300=AXIS2_PLACEMENT_3D('',#486,#361,#362);
#301=AXIS2_PLACEMENT_3D('',#487,#363,#364);
#302=AXIS2_PLACEMENT_3D('',#488,#365,#366);
#303=AXIS2_PLACEMENT_3D('',#489,#367,#368);
#304=AXIS2_PLACEMENT_3D('',#490,#369,#370);
#305=AXIS2_PLACEMENT_3D('',#492,#371,#372);
#306=AXIS2_PLACEMENT_3D('',#493,#373,#374);
#307=AXIS2_PLACEMENT_3D('',#495,#375,#376);
#308=AXIS2_PLACEMENT_3D('',#497,#377,#378);
#309=AXIS2_PLACEMENT_3D('',#498,#379,#380);
#310=AXIS2_PLACEMENT_3D('',#499,#381,#382);
#311=DIRECTION('',(0.0,0.0,1.0));
#312=DIRECTION('',(1.0,0.0,0.0));
#313=DIRECTION('',(0.0,0.0,1.0));
#314=DIRECTION('',(1.0,0.0,0.0));
#315=DIRECTION('',(0.0,0.0,1.0));
#316=DIRECTION('',(1.0,0.0,0.0));
#317=DIRECTION('',(0.0,0.0,1.0));
#318=DIRECTION('',(-0.953716950748227,-0.300705799504273,0.0));
#319=DIRECTION('',(1.0,1.33226762955019E-15,0.0));
#320=DIRECTION('',(-0.819152044288991,-0.573576436351048,0.0));
#321=DIRECTION('',(-1.0,-1.66533453693773E-16,0.0));
#322=DIRECTION('',(0.819152044288992,0.573576436351046,0.0));
#323=DIRECTION('',(0.0,0.0,1.0));
#324=DIRECTION('',(-0.953716950748227,-0.300705799504273,0.0));
#325=DIRECTION('',(-1.0,-1.33226762955019E-15,-7.96170798800703E-17));
#326=DIRECTION('',(1.94289029309402E-16,-0.0871557427476587,-0.996194698091745));
#327=DIRECTION('',(0.266431115352839,0.0840054079904278,0.960186207045386));
#328=DIRECTION('',(-0.0274697301251259,0.0871228532871695,0.995818769838144));
#329=DIRECTION('',(-1.94289029309402E-16,0.0871557427476587,0.996194698091745));
#330=DIRECTION('',(1.27675647831893E-15,-0.996194698091746,0.0871557427476587));
#331=DIRECTION('',(1.0,1.33226762955019E-15,0.0));
#332=DIRECTION('',(-0.266431115352839,-0.0840054079904263,0.960186207045386));
#333=DIRECTION('',(-0.0499904803327304,0.0713938048432702,0.996194698091745));
#334=DIRECTION('',(-0.819152044288992,-0.573576436351046,2.7948912416233E-16));
#335=DIRECTION('',(0.0499904803327304,-0.0713938048432702,-0.996194698091745));
#336=DIRECTION('',(0.57139380484327,-0.816034923451708,0.0871557427476586));
#337=DIRECTION('',(0.819152044288992,0.573576436351046,0.0));
#338=DIRECTION('',(0.0274697301251258,-0.0871228532871683,0.995818769838144));
#339=DIRECTION('',(-7.28583859910259E-17,-0.0871557427476575,0.996194698091746));
#340=DIRECTION('',(1.0,1.66533453693773E-16,7.9617079880071E-17));
#341=DIRECTION('',(7.28583859910259E-17,0.0871557427476575,-0.996194698091746));
#342=DIRECTION('',(-1.11022302462516E-16,0.996194698091746,0.0871557427476575));
#343=DIRECTION('',(-1.0,-1.66533453693773E-16,0.0));
#344=DIRECTION('',(0.0499904803327303,-0.0713938048432689,0.996194698091746));
#345=DIRECTION('',(0.819152044288991,0.573576436351048,-2.79489124162331E-16));
#346=DIRECTION('',(-0.0499904803327303,0.0713938048432689,-0.996194698091746));
#347=DIRECTION('',(-0.571393804843271,0.816034923451707,0.0871557427476576));
#348=DIRECTION('',(-0.819152044288991,-0.573576436351048,0.0));
#349=DIRECTION('',(0.0,0.0,1.0));
#350=DIRECTION('',(-0.953716950748227,-0.300705799504273,0.0));
#351=DIRECTION('',(-8.02264902071665E-17,6.05579448138538E-16,1.0));
#352=DIRECTION('',(-0.300705799504266,0.953716950748234,-6.0167595559365E-16));
#353=DIRECTION('',(-8.02264902071665E-17,6.05579448138538E-16,1.0));
#354=DIRECTION('',(-0.300705799504266,0.953716950748234,-6.0167595559365E-16));
#355=DIRECTION('',(-8.02264902071665E-17,6.05579448138538E-16,1.0));
#356=DIRECTION('',(-0.300705799504274,0.953716950748227,-6.01675955593648E-16));
#357=DIRECTION('',(-8.02264902071665E-17,6.05579448138538E-16,1.0));
#358=DIRECTION('',(-0.300705799504266,0.953716950748227,-6.01675955593648E-16));
#359=DIRECTION('',(-8.02264902071665E-17,6.05579448138538E-16,1.0));
#360=DIRECTION('',(-0.300705799504273,0.953716950748227,-6.01675955593648E-16));
#361=DIRECTION('',(-8.02264902071665E-17,6.05579448138538E-16,1.0));
#362=DIRECTION('',(-0.300705799504273,0.953716950748227,4.95137977680517E-17));
#363=DIRECTION('',(-8.02264902071665E-17,6.05579448138538E-16,1.0));
#364=DIRECTION('',(-0.300705799504273,0.953716950748227,0.0));
#365=DIRECTION('',(-8.02264902071665E-17,6.05579448138538E-16,1.0));
#366=DIRECTION('',(-0.300705799504273,0.953716950748227,9.90275955361034E-18));
#367=DIRECTION('',(-8.02264902071665E-17,6.05579448138538E-16,1.0));
#368=DIRECTION('',(-0.300705799504273,0.953716950748227,5.9416557321662E-17));
#369=DIRECTION('',(0.0,0.0,-1.0));
#370=DIRECTION('',(0.953716950748226,0.300705799504273,0.0));
#371=DIRECTION('',(0.0,0.0,1.0));
#372=DIRECTION('',(-0.953716950748227,-0.300705799504274,4.7574367497069E-16));
#373=DIRECTION('',(0.0,0.0,1.0));
#374=DIRECTION('',(0.953716950748226,0.300705799504273,0.0));
#375=DIRECTION('',(0.0,0.0,-1.0));
#376=DIRECTION('',(-0.953716950748227,-0.300705799504273,0.0));
#377=DIRECTION('',(0.0,0.0,1.0));
#378=DIRECTION('',(-0.953716950748227,-0.300705799504273,0.0));
#379=DIRECTION('',(0.0,0.0,1.0));
#380=DIRECTION('',(-0.953716950748227,-0.300705799504273,0.0));
#381=DIRECTION('',(0.0,0.0,-1.0));
#382=DIRECTION('',(0.953716950748227,0.300705799504273,0.0));
#383=CARTESIAN_POINT('',(0.0,0.0,0.0));
#386=CARTESIAN_POINT('',(13.3229740756249,-2.66453525910038E-15,4.93038065763132E-33));
#387=CARTESIAN_POINT('',(16.5869814379997,-1.77635683940025E-15,6.1042279776764E-17));
#388=CARTESIAN_POINT('',(16.5989156994175,0.00179435081056756,6.09131017098988E-17));
#389=CARTESIAN_POINT('',(16.6113755670076,0.00572293197131568,5.92731939095583E-17));
#390=CARTESIAN_POINT('',(16.6221807389886,0.0110982969711833,5.1269008752702E-17));
#391=CARTESIAN_POINT('',(19.2958990424522,1.8832560081057,5.3784268550048E-18));
#392=CARTESIAN_POINT('',(21.9598413712784,3.7485685081057,-4.93038065763132E-33));
#393=CARTESIAN_POINT('',(24.6237837001045,5.6138810081057,-1.4791141972894E-32));
#394=CARTESIAN_POINT('',(27.2877260289306,7.47919350810571,5.37842685500474E-18));
#395=CARTESIAN_POINT('',(29.9564742412273,9.34787112393952,3.06182753036489E-17));
#396=CARTESIAN_POINT('',(29.9655885518034,9.3553117969235,3.52728796365768E-17));
#397=CARTESIAN_POINT('',(29.9788790592521,9.36972907612858,3.62104190370778E-17));
#398=CARTESIAN_POINT('',(29.9912028582915,9.39272917748255,2.7099539980134E-17));
#399=CARTESIAN_POINT('',(29.9966389302112,9.42635720320077,7.97508671894947E-18));
#400=CARTESIAN_POINT('',(29.9912950955271,9.45621902053207,-1.06789213653131E-17));
#401=CARTESIAN_POINT('',(29.9785444738648,9.48374548690018,-2.8555929866542E-17));
#402=CARTESIAN_POINT('',(29.9548032612858,9.50817395015271,-4.43446055763825E-17));
#403=CARTESIAN_POINT('',(29.9315158799391,9.51994588946027,-4.90687540150166E-17));
#404=CARTESIAN_POINT('',(29.9123595219645,9.52413271129433,-4.35304140503153E-17));
#405=CARTESIAN_POINT('',(29.9006257211299,9.52500000000001,-3.55802206931184E-17));
#406=CARTESIAN_POINT('',(26.6426857197556,9.52500000000001,-6.00848358699967E-18));
#407=CARTESIAN_POINT('',(23.3906126187986,9.525,9.86076131526265E-33));
#408=CARTESIAN_POINT('',(20.1385395178417,9.525,9.86076131526265E-33));
#409=CARTESIAN_POINT('',(16.8864664168847,9.525,-6.00848358699973E-18));
#410=CARTESIAN_POINT('',(13.6224590545099,9.52499999999999,-5.44776143061932E-17));
#411=CARTESIAN_POINT('',(13.6105247930921,9.52320564918942,-6.06221398713577E-17));
#412=CARTESIAN_POINT('',(13.598064925502,9.51927706802867,-5.92731939095584E-17));
#413=CARTESIAN_POINT('',(13.587259753521,9.51390170302881,-5.12690087527018E-17));
#414=CARTESIAN_POINT('',(10.9135414500574,7.64174399189429,-5.37842685500479E-18));
#415=CARTESIAN_POINT('',(8.24959912123121,5.77643149189429,1.04770588974666E-32));
#416=CARTESIAN_POINT('',(5.58565679240506,3.91111899189429,-3.94430452610506E-32));
#417=CARTESIAN_POINT('',(2.92171446357892,2.04580649189429,-5.37842685500496E-18));
#418=CARTESIAN_POINT('',(0.25296625128226,0.177128876060486,-3.06182753036503E-17));
#419=CARTESIAN_POINT('',(0.243851940706216,0.169688203076509,-3.52728796365785E-17));
#420=CARTESIAN_POINT('',(0.2305614332574,0.15527092387143,-3.62104190370806E-17));
#421=CARTESIAN_POINT('',(0.218237634218038,0.132270822517422,-2.70995399801226E-17));
#422=CARTESIAN_POINT('',(0.21280156229831,0.0986427967991901,-7.97508671892352E-18));
#423=CARTESIAN_POINT('',(0.218145396982433,0.0687809794678618,1.06789213653547E-17));
#424=CARTESIAN_POINT('',(0.230896018644769,0.0412545130997524,2.85559298665949E-17));
#425=CARTESIAN_POINT('',(0.254637231223828,0.016826049847249,4.43446055763952E-17));
#426=CARTESIAN_POINT('',(0.277924612570466,0.00505411053971816,4.90687540150179E-17));
#427=CARTESIAN_POINT('',(0.297080970545093,8.6728870567665E-4,4.3530414050291E-17));
#428=CARTESIAN_POINT('',(0.308814771379632,-4.44089209850063E-15,3.55802206931191E-17));
#429=CARTESIAN_POINT('',(3.56675477275396,-5.32907051820075E-15,6.00848358699972E-18));
#430=CARTESIAN_POINT('',(6.81882787371094,-5.32907051820075E-15,-1.72563323017096E-32));
#431=CARTESIAN_POINT('',(10.0709009746679,-3.5527136788005E-15,1.23259516440783E-32));
#432=CARTESIAN_POINT('',(13.3229740756249,-2.66453525910038E-15,4.93038065763132E-33));
#433=CARTESIAN_POINT('',(16.5869814379997,-1.77635683940025E-15,6.1042279776764E-17));
#434=CARTESIAN_POINT('',(0.0,0.0,0.0));
#435=CARTESIAN_POINT('',(15.1047202462548,4.7625,0.0));
#436=CARTESIAN_POINT('',(15.1047202462548,4.7625,-4.7625));
#437=CARTESIAN_POINT('',(13.0065429546087,4.1009472410906,-4.7625));
#438=CARTESIAN_POINT('',(15.1047202462548,9.10833523995778,-4.7625));
#439=CARTESIAN_POINT('',(13.7344836584285,9.10833523995777,-4.7625));
#440=CARTESIAN_POINT('',(28.8879487052318,9.1083352399578,-4.7625));
#441=CARTESIAN_POINT('',(17.5973889361586,1.20260017904543,-4.7625));
#442=CARTESIAN_POINT('',(16.4749568340811,0.416664760042206,-4.7625));
#443=CARTESIAN_POINT('',(15.1047202462548,0.416664760042206,-4.7625));
#444=CARTESIAN_POINT('',(1.32149178727779,0.416664760042203,-4.7625));
#445=CARTESIAN_POINT('',(12.612051556351,8.32239982095455,-4.7625));
#446=CARTESIAN_POINT('',(14.8598410645383,4.29209146865531,-4.7625));
#447=CARTESIAN_POINT('',(15.1047202462548,9.52499999999999,-5.81748951963656E-15));
#448=CARTESIAN_POINT('',(29.8947588207126,9.52500000000001,-4.63093663477922E-15));
#449=CARTESIAN_POINT('',(13.6343933159277,9.52499999999999,-5.93544868871378E-15));
#450=CARTESIAN_POINT('',(29.8947588207126,9.52500000000001,-4.38023562244384E-15));
#451=CARTESIAN_POINT('',(29.8947588207126,9.42578125000001,-1.13407550191463));
#452=CARTESIAN_POINT('',(29.1372237809387,9.18693136942591,-3.86414212938488));
#453=CARTESIAN_POINT('',(13.6042428585757,9.52140628382663,-0.0410763638228326));
#454=CARTESIAN_POINT('',(13.6343933159277,9.42578125,-1.13407550191452));
#455=CARTESIAN_POINT('',(13.6343933159277,9.52499999999999,-5.30460220045963E-15));
#456=CARTESIAN_POINT('',(15.1047202462548,9.52499999999999,-5.81748951963656E-15));
#457=CARTESIAN_POINT('',(1.07221671157086,0.338068630574092,-3.86414212938488));
#458=CARTESIAN_POINT('',(0.314681671796983,0.0992187499999977,-1.13407550191464));
#459=CARTESIAN_POINT('',(0.257772134752776,0.180493991894299,-9.37702575276048E-16));
#460=CARTESIAN_POINT('',(0.257772134752776,0.180493991894299,-1.34976726539439E-15));
#461=CARTESIAN_POINT('',(12.3730624681329,8.66371161092632,-5.51506228827902E-15));
#462=CARTESIAN_POINT('',(13.5774837788835,9.50705649189429,-5.92914812139383E-15));
#463=CARTESIAN_POINT('',(13.5774837788835,9.50705649189429,-5.17286107611553E-15));
#464=CARTESIAN_POINT('',(12.3730624681329,8.66371161092631,-5.51506228827901E-15));
#465=CARTESIAN_POINT('',(16.6051976339339,0.00359371617335985,-0.041076363822827));
#466=CARTESIAN_POINT('',(16.5750471765819,0.0992187500000047,-1.13407550191471));
#467=CARTESIAN_POINT('',(16.5750471765819,-3.46944695195361E-15,-5.28895205546715E-17));
#468=CARTESIAN_POINT('',(16.5750471765819,-3.46944695195361E-15,6.86138929602278E-17));
#469=CARTESIAN_POINT('',(15.1047202462548,-4.33680868994202E-15,-4.93452761169898E-17));
#470=CARTESIAN_POINT('',(0.314681671796982,-5.20417042793042E-15,-1.23589816097434E-15));
#471=CARTESIAN_POINT('',(0.314681671796982,-5.20417042793042E-15,-9.08985253097288E-16));
#472=CARTESIAN_POINT('',(15.1047202462548,-3.46944695195361E-15,-4.93452761169902E-17));
#473=CARTESIAN_POINT('',(29.9516683577568,9.34450600810571,-4.25547947641461E-15));
#474=CARTESIAN_POINT('',(29.9516683577568,9.34450600810571,-4.51706753035917E-15));
#475=CARTESIAN_POINT('',(17.8363780243767,0.861288389073682,-3.51772507474539E-16));
#476=CARTESIAN_POINT('',(16.6319567136261,0.0179435081057002,6.23133256402777E-17));
#477=CARTESIAN_POINT('',(16.6319567136261,0.0179435081057002,4.21299523416866E-17));
#478=CARTESIAN_POINT('',(17.8363780243766,0.861288389073676,-3.51772507474536E-16));
#479=CARTESIAN_POINT('',(15.1047202462548,4.7625,0.0));
#480=CARTESIAN_POINT('',(12.1755452004306,3.83893465563708,0.0));
#481=CARTESIAN_POINT('',(29.8947588207126,9.42578125000001,-4.57085179890922E-15));
#482=CARTESIAN_POINT('',(13.6343933159277,9.42578124999999,-5.87536385284378E-15));
#483=CARTESIAN_POINT('',(0.314681671796982,0.099218749999996,-1.29598299684434E-15));
#484=CARTESIAN_POINT('',(16.5750471765819,0.0992187499999995,8.52905709023088E-18));
#485=CARTESIAN_POINT('',(15.1047202462548,4.7625,-2.93341739787678E-15));
#486=CARTESIAN_POINT('',(29.8947588207126,9.42578125000001,-4.33680868994202E-15));
#487=CARTESIAN_POINT('',(16.5750471765819,0.0992187499999995,0.0));
#488=CARTESIAN_POINT('',(0.314681671796982,0.099218749999996,-8.67361737988404E-16));
#489=CARTESIAN_POINT('',(13.6343933159277,9.42578124999999,-5.20417042793042E-15));
#490=CARTESIAN_POINT('',(15.1047202462548,4.7625,-0.877554494186125));
#491=CARTESIAN_POINT('',(17.9753708442437,5.66761265684063,-0.877554494186125));
#492=CARTESIAN_POINT('',(15.1047202462548,4.7625,-1.02000000000516));
#493=CARTESIAN_POINT('',(15.1047202462548,4.7625,-1.12904556205544));
#494=CARTESIAN_POINT('',(17.8905730131205,5.64087600338793,-1.12904556205544));
#495=CARTESIAN_POINT('',(15.1047202462548,4.7625,-3.42000000000001));
#496=CARTESIAN_POINT('',(13.0065429546087,4.1009472410906,-3.42000000000001));
#497=CARTESIAN_POINT('',(15.1047202462548,4.7625,-3.42000000000001));
#498=CARTESIAN_POINT('',(15.1047202462548,4.7625,-33.3676978394524));
#499=CARTESIAN_POINT('',(15.1047202462548,4.7625,-0.842676257312364));
#500=MECHANICAL_DESIGN_GEOMETRIC_PRESENTATION_REPRESENTATION('',(#269,#270,#271,
     #272),#501);
#501=(GEOMETRIC_REPRESENTATION_CONTEXT(3)GLOBAL_UNCERTAINTY_ASSIGNED_CONTEXT((#502))
     GLOBAL_UNIT_ASSIGNED_CONTEXT((#508,#504,#503))REPRESENTATION_CONTEXT('VBGT160401',
     'TOP_LEVEL_ASSEMBLY_PART'));
#502=UNCERTAINTY_MEASURE_WITH_UNIT(LENGTH_MEASURE(2.0E-5),#508,'DISTANCE_ACCURACY_VALUE',
     'Maximum Tolerance applied to model');
#503=(NAMED_UNIT(*)SI_UNIT($,.STERADIAN.)SOLID_ANGLE_UNIT());
#504=(CONVERSION_BASED_UNIT('DEGREE',#506)NAMED_UNIT(#505)PLANE_ANGLE_UNIT());
#505=DIMENSIONAL_EXPONENTS(0.0,0.0,0.0,0.0,0.0,0.0,0.0);
#506=PLANE_ANGLE_MEASURE_WITH_UNIT(PLANE_ANGLE_MEASURE(0.0174532925),#507);
#507=(NAMED_UNIT(*)PLANE_ANGLE_UNIT()SI_UNIT($,.RADIAN.));
#508=(LENGTH_UNIT()NAMED_UNIT(*)SI_UNIT(.MILLI.,.METRE.));
#509=CONSTRUCTIVE_GEOMETRY_REPRESENTATION('supplemental geometry',(#286,#287),#501);
#510=CONSTRUCTIVE_GEOMETRY_REPRESENTATION_RELATIONSHIP('supplemental geometry','contains PCS and MCS coordinate systems',
     #24,#509);
ENDSEC;
END-ISO-10303-21;
