ISO-10303-21;
HEADER;
FILE_DESCRIPTION(
/* description */ (''),
/* implementation_level */ '2;1');
FILE_NAME(
/* name */ 'SNMM190632.stp',
/* time_stamp */ '2017-03-21T10:54:24',
/* author */ ('Sandvik Coromant R&D'),
/* organization */ ('Sandvik Machining Solutions'),
/* preprocessor_version */ 'ST-DEVELOPER v15',
/* originating_system */ 'SIEMENS PLM Software NX v8.5.3.3(64 bits)',
/* authorization */ '');
FILE_SCHEMA(('AUTOMOTIVE_DESIGN'));
ENDSEC;
DATA;
#10=GEOMETRICALLY_BOUNDED_WIREFRAME_SHAPE_REPRESENTATION('IsoTurningInsert-None',
     (#25),#491);
#11=SHAPE_REPRESENTATION_RELATIONSHIP('None','relationship between IsoTurningInsert-None and IsoTurningInsert-None',
     #24,#13);
#12=SHAPE_REPRESENTATION_RELATIONSHIP('None','relationship between IsoTurningInsert-None and IsoTurningInsert-None',
     #24,#10);
#13=ADVANCED_BREP_SHAPE_REPRESENTATION('IsoTurningInsert-None',(#31),#491);
#14=SHAPE_DEFINITION_REPRESENTATION(#15,#24);
#15=PRODUCT_DEFINITION_SHAPE('','',#16);
#16=PRODUCT_DEFINITION(' ','',#18,#17);
#17=PRODUCT_DEFINITION_CONTEXT('part definition',#23,'design');
#18=PRODUCT_DEFINITION_FORMATION_WITH_SPECIFIED_SOURCE(' ',' ',#20,.NOT_KNOWN.);
#19=PRODUCT_RELATED_PRODUCT_CATEGORY('part','',(#20));
#20=PRODUCT('IsoTurningInsert','IsoTurningInsert',' ',(#21));
#21=PRODUCT_CONTEXT(' ',#23,'mechanical');
#22=APPLICATION_PROTOCOL_DEFINITION('international standard','automotive_design',
     2010,#23);
#23=APPLICATION_CONTEXT('core data for automotive mechanical design processes');
#24=SHAPE_REPRESENTATION('IsoTurningInsert-None',(#248),#491);
#25=GEOMETRIC_CURVE_SET('geometric curve set',(#228));
#26=SURFACE_STYLE_USAGE(.BOTH.,#27);
#27=SURFACE_SIDE_STYLE('',(#28));
#28=SURFACE_STYLE_FILL_AREA(#29);
#29=FILL_AREA_STYLE('',(#30));
#30=FILL_AREA_STYLE_COLOUR('',#247);
#31=MANIFOLD_SOLID_BREP('CUT',#32);
#32=CLOSED_SHELL('',(#46,#47,#48,#49,#50,#51,#52,#53,#54,#55,#56));
#33=CYLINDRICAL_SURFACE('',#267,3.175);
#34=CYLINDRICAL_SURFACE('',#268,3.175);
#35=CYLINDRICAL_SURFACE('',#269,3.175);
#36=CYLINDRICAL_SURFACE('',#270,3.175);
#37=CYLINDRICAL_SURFACE('',#271,3.9625);
#38=FACE_OUTER_BOUND('',#103,.T.);
#39=FACE_OUTER_BOUND('',#104,.T.);
#40=FACE_OUTER_BOUND('',#105,.T.);
#41=FACE_OUTER_BOUND('',#106,.T.);
#42=FACE_OUTER_BOUND('',#109,.T.);
#43=FACE_OUTER_BOUND('',#110,.T.);
#44=FACE_OUTER_BOUND('',#111,.T.);
#45=FACE_OUTER_BOUND('',#112,.T.);
#46=ADVANCED_FACE('',(#95,#96),#57,.F.);
#47=ADVANCED_FACE('',(#38),#58,.T.);
#48=ADVANCED_FACE('',(#39),#59,.T.);
#49=ADVANCED_FACE('',(#40),#60,.T.);
#50=ADVANCED_FACE('',(#41),#61,.T.);
#51=ADVANCED_FACE('',(#97,#98),#62,.T.);
#52=ADVANCED_FACE('',(#42),#33,.T.);
#53=ADVANCED_FACE('',(#43),#34,.T.);
#54=ADVANCED_FACE('',(#44),#35,.T.);
#55=ADVANCED_FACE('',(#45),#36,.T.);
#56=ADVANCED_FACE('',(#99,#100),#37,.F.);
#57=PLANE('',#256);
#58=PLANE('',#257);
#59=PLANE('',#258);
#60=PLANE('',#259);
#61=PLANE('',#260);
#62=PLANE('',#266);
#63=LINE('',#437,#79);
#64=LINE('',#442,#80);
#65=LINE('',#446,#81);
#66=LINE('',#450,#82);
#67=LINE('',#454,#83);
#68=LINE('',#457,#84);
#69=LINE('',#458,#85);
#70=LINE('',#460,#86);
#71=LINE('',#462,#87);
#72=LINE('',#464,#88);
#73=LINE('',#466,#89);
#74=LINE('',#468,#90);
#75=LINE('',#470,#91);
#76=LINE('',#472,#92);
#77=LINE('',#474,#93);
#78=LINE('',#476,#94);
#79=VECTOR('',#280,1.0);
#80=VECTOR('',#283,1.0);
#81=VECTOR('',#286,1.0);
#82=VECTOR('',#289,1.0);
#83=VECTOR('',#294,1.0);
#84=VECTOR('',#295,1.0);
#85=VECTOR('',#296,1.0);
#86=VECTOR('',#299,1.0);
#87=VECTOR('',#300,1.0);
#88=VECTOR('',#301,1.0);
#89=VECTOR('',#304,1.0);
#90=VECTOR('',#305,1.0);
#91=VECTOR('',#306,1.0);
#92=VECTOR('',#309,1.0);
#93=VECTOR('',#310,1.0);
#94=VECTOR('',#311,1.0);
#95=FACE_BOUND('',#101,.T.);
#96=FACE_BOUND('',#102,.T.);
#97=FACE_BOUND('',#107,.T.);
#98=FACE_BOUND('',#108,.T.);
#99=FACE_BOUND('',#113,.T.);
#100=FACE_BOUND('',#114,.T.);
#101=EDGE_LOOP('',(#115));
#102=EDGE_LOOP('',(#116,#117,#118,#119,#120,#121,#122,#123));
#103=EDGE_LOOP('',(#124,#125,#126,#127));
#104=EDGE_LOOP('',(#128,#129,#130,#131));
#105=EDGE_LOOP('',(#132,#133,#134,#135));
#106=EDGE_LOOP('',(#136,#137,#138,#139));
#107=EDGE_LOOP('',(#140));
#108=EDGE_LOOP('',(#141,#142,#143,#144,#145,#146,#147,#148));
#109=EDGE_LOOP('',(#149,#150,#151,#152));
#110=EDGE_LOOP('',(#153,#154,#155,#156));
#111=EDGE_LOOP('',(#157,#158,#159,#160));
#112=EDGE_LOOP('',(#161,#162,#163,#164));
#113=EDGE_LOOP('',(#165));
#114=EDGE_LOOP('',(#166));
#115=ORIENTED_EDGE('',*,*,#185,.T.);
#116=ORIENTED_EDGE('',*,*,#186,.T.);
#117=ORIENTED_EDGE('',*,*,#187,.T.);
#118=ORIENTED_EDGE('',*,*,#188,.T.);
#119=ORIENTED_EDGE('',*,*,#189,.T.);
#120=ORIENTED_EDGE('',*,*,#190,.T.);
#121=ORIENTED_EDGE('',*,*,#191,.T.);
#122=ORIENTED_EDGE('',*,*,#192,.T.);
#123=ORIENTED_EDGE('',*,*,#193,.T.);
#124=ORIENTED_EDGE('',*,*,#194,.F.);
#125=ORIENTED_EDGE('',*,*,#195,.T.);
#126=ORIENTED_EDGE('',*,*,#186,.F.);
#127=ORIENTED_EDGE('',*,*,#196,.T.);
#128=ORIENTED_EDGE('',*,*,#192,.F.);
#129=ORIENTED_EDGE('',*,*,#197,.T.);
#130=ORIENTED_EDGE('',*,*,#198,.F.);
#131=ORIENTED_EDGE('',*,*,#199,.T.);
#132=ORIENTED_EDGE('',*,*,#190,.F.);
#133=ORIENTED_EDGE('',*,*,#200,.T.);
#134=ORIENTED_EDGE('',*,*,#201,.F.);
#135=ORIENTED_EDGE('',*,*,#202,.T.);
#136=ORIENTED_EDGE('',*,*,#188,.F.);
#137=ORIENTED_EDGE('',*,*,#203,.T.);
#138=ORIENTED_EDGE('',*,*,#204,.F.);
#139=ORIENTED_EDGE('',*,*,#205,.T.);
#140=ORIENTED_EDGE('',*,*,#206,.F.);
#141=ORIENTED_EDGE('',*,*,#204,.T.);
#142=ORIENTED_EDGE('',*,*,#207,.T.);
#143=ORIENTED_EDGE('',*,*,#194,.T.);
#144=ORIENTED_EDGE('',*,*,#208,.T.);
#145=ORIENTED_EDGE('',*,*,#198,.T.);
#146=ORIENTED_EDGE('',*,*,#209,.T.);
#147=ORIENTED_EDGE('',*,*,#201,.T.);
#148=ORIENTED_EDGE('',*,*,#210,.T.);
#149=ORIENTED_EDGE('',*,*,#187,.F.);
#150=ORIENTED_EDGE('',*,*,#195,.F.);
#151=ORIENTED_EDGE('',*,*,#207,.F.);
#152=ORIENTED_EDGE('',*,*,#203,.F.);
#153=ORIENTED_EDGE('',*,*,#189,.F.);
#154=ORIENTED_EDGE('',*,*,#205,.F.);
#155=ORIENTED_EDGE('',*,*,#210,.F.);
#156=ORIENTED_EDGE('',*,*,#200,.F.);
#157=ORIENTED_EDGE('',*,*,#191,.F.);
#158=ORIENTED_EDGE('',*,*,#202,.F.);
#159=ORIENTED_EDGE('',*,*,#209,.F.);
#160=ORIENTED_EDGE('',*,*,#197,.F.);
#161=ORIENTED_EDGE('',*,*,#193,.F.);
#162=ORIENTED_EDGE('',*,*,#199,.F.);
#163=ORIENTED_EDGE('',*,*,#208,.F.);
#164=ORIENTED_EDGE('',*,*,#196,.F.);
#165=ORIENTED_EDGE('',*,*,#185,.F.);
#166=ORIENTED_EDGE('',*,*,#206,.T.);
#167=VERTEX_POINT('',#436);
#168=VERTEX_POINT('',#438);
#169=VERTEX_POINT('',#439);
#170=VERTEX_POINT('',#441);
#171=VERTEX_POINT('',#443);
#172=VERTEX_POINT('',#445);
#173=VERTEX_POINT('',#447);
#174=VERTEX_POINT('',#449);
#175=VERTEX_POINT('',#451);
#176=VERTEX_POINT('',#455);
#177=VERTEX_POINT('',#456);
#178=VERTEX_POINT('',#461);
#179=VERTEX_POINT('',#463);
#180=VERTEX_POINT('',#467);
#181=VERTEX_POINT('',#469);
#182=VERTEX_POINT('',#473);
#183=VERTEX_POINT('',#475);
#184=VERTEX_POINT('',#479);
#185=EDGE_CURVE('',#167,#167,#211,.T.);
#186=EDGE_CURVE('',#168,#169,#63,.T.);
#187=EDGE_CURVE('',#169,#170,#212,.T.);
#188=EDGE_CURVE('',#170,#171,#64,.T.);
#189=EDGE_CURVE('',#171,#172,#213,.T.);
#190=EDGE_CURVE('',#172,#173,#65,.T.);
#191=EDGE_CURVE('',#173,#174,#214,.T.);
#192=EDGE_CURVE('',#174,#175,#66,.T.);
#193=EDGE_CURVE('',#175,#168,#215,.T.);
#194=EDGE_CURVE('',#176,#177,#67,.T.);
#195=EDGE_CURVE('',#176,#169,#68,.T.);
#196=EDGE_CURVE('',#168,#177,#69,.T.);
#197=EDGE_CURVE('',#174,#178,#70,.T.);
#198=EDGE_CURVE('',#179,#178,#71,.T.);
#199=EDGE_CURVE('',#179,#175,#72,.T.);
#200=EDGE_CURVE('',#172,#180,#73,.T.);
#201=EDGE_CURVE('',#181,#180,#74,.T.);
#202=EDGE_CURVE('',#181,#173,#75,.T.);
#203=EDGE_CURVE('',#170,#182,#76,.T.);
#204=EDGE_CURVE('',#183,#182,#77,.T.);
#205=EDGE_CURVE('',#183,#171,#78,.T.);
#206=EDGE_CURVE('',#184,#184,#216,.T.);
#207=EDGE_CURVE('',#182,#176,#217,.T.);
#208=EDGE_CURVE('',#177,#179,#218,.T.);
#209=EDGE_CURVE('',#178,#181,#219,.T.);
#210=EDGE_CURVE('',#180,#183,#220,.T.);
#211=CIRCLE('',#251,3.9625);
#212=CIRCLE('',#252,3.175);
#213=CIRCLE('',#253,3.175);
#214=CIRCLE('',#254,3.175);
#215=CIRCLE('',#255,3.175);
#216=CIRCLE('',#261,3.9625);
#217=CIRCLE('',#262,3.175);
#218=CIRCLE('',#263,3.175);
#219=CIRCLE('',#264,3.175);
#220=CIRCLE('',#265,3.175);
#221=CURVE_STYLE('',#225,POSITIVE_LENGTH_MEASURE(0.18),#224);
#222=CURVE_STYLE('',#226,POSITIVE_LENGTH_MEASURE(0.18),#246);
#223=CURVE_STYLE('',#227,POSITIVE_LENGTH_MEASURE(0.18),#246);
#224=DRAUGHTING_PRE_DEFINED_COLOUR('blue');
#225=DRAUGHTING_PRE_DEFINED_CURVE_FONT('continuous');
#226=DRAUGHTING_PRE_DEFINED_CURVE_FONT('continuous');
#227=DRAUGHTING_PRE_DEFINED_CURVE_FONT('continuous');
#228=B_SPLINE_CURVE_WITH_KNOTS('CUTTING EDGE LINE',5,(#339,#340,#341,#342,#343,#344,
     #345,#346,#347,#348,#349,#350,#351,#352,#353,#354,#355,#356,#357,#358,#359,
     #360,#361,#362,#363,#364,#365,#366,#367,#368,#369,#370,#371,#372,#373,#374,
     #375,#376,#377,#378,#379,#380,#381,#382,#383,#384,#385,#386,#387,#388,#389,
     #390,#391,#392,#393,#394,#395,#396,#397,#398,#399,#400,#401,#402,#403,#404,
     #405,#406,#407,#408,#409,#410,#411,#412,#413,#414,#415,#416,#417,#418,#419,
     #420,#421,#422,#423,#424,#425,#426,#427,#428,#429,#430,#431,#432),.UNSPECIFIED.,
     .T.,.F.,(1,1,4,4,1,1,1,1,1,1,1,1,1,1,1,1,1,1,1,4,4,1,1,1,1,1,1,1,1,1,1,1,1,
     1,1,1,4,4,1,1,1,1,1,1,1,1,1,1,1,1,1,1,1,4,4,1,1,1,1,1,1,1,1,1,1,1,1,1,1,1,4,
     2),(-0.00881155624999996,-0.00440577812499998,0.0,0.17950755,0.183913328125,
     0.18831910625,0.192724884375,0.1971306625,0.201536440625,0.20594221875,0.210347996875,
     0.214753775,0.219159553125,0.22356533125,0.227971109375,0.2323768875,0.236782665625,
     0.24118844375,0.245594221875,0.25,0.42950755,0.433913328125,0.43831910625,0.442724884375,
     0.4471306625,0.451536440625,0.45594221875,0.460347996875,0.464753775,0.469159553125,
     0.47356533125,0.477971109375,0.4823768875,0.486782665625,0.49118844375,0.495594221875,
     0.5,0.67950755,0.683913328125,0.68831910625,0.692724884375,0.6971306625,0.701536440625,
     0.70594221875,0.710347996875,0.714753775,0.719159553125,0.72356533125,0.727971109375,
     0.7323768875,0.736782665625,0.74118844375,0.745594221875,0.75,0.92950755,0.933913328125,
     0.93831910625,0.942724884375,0.9471306625,0.951536440625,0.95594221875,0.960347996875,
     0.964753775,0.969159553125,0.97356533125,0.977971109375,0.9823768875,0.986782665625,
     0.99118844375,0.995594221875,1.0,1.17950755),.UNSPECIFIED.);
#229=PRESENTATION_LAYER_ASSIGNMENT('1','Layer 1',(#228,#249,#250,#31));
#232=STYLED_ITEM('',(#238),#228);
#233=STYLED_ITEM('',(#239),#249);
#234=STYLED_ITEM('',(#240),#250);
#235=STYLED_ITEM('',(#241),#31);
#236=PRESENTATION_STYLE_ASSIGNMENT((#242));
#237=PRESENTATION_STYLE_ASSIGNMENT((#243));
#238=PRESENTATION_STYLE_ASSIGNMENT((#221));
#239=PRESENTATION_STYLE_ASSIGNMENT((#222));
#240=PRESENTATION_STYLE_ASSIGNMENT((#223));
#241=PRESENTATION_STYLE_ASSIGNMENT((#26));
#242=POINT_STYLE('',#244,POSITIVE_LENGTH_MEASURE(3.0),#246);
#243=POINT_STYLE('',#245,POSITIVE_LENGTH_MEASURE(3.0),#246);
#244=PRE_DEFINED_POINT_MARKER_SYMBOL('plus');
#245=PRE_DEFINED_POINT_MARKER_SYMBOL('plus');
#246=COLOUR_RGB('Medium Maroon',0.6,0.4,0.4);
#247=COLOUR_RGB('IsoInsertColor',0.8,0.8,0.8);
#248=AXIS2_PLACEMENT_3D('',#336,#272,#273);
#249=AXIS2_PLACEMENT_3D('PCS',#433,#274,#275);
#250=AXIS2_PLACEMENT_3D('MCS',#434,#276,#277);
#251=AXIS2_PLACEMENT_3D('',#435,#278,#279);
#252=AXIS2_PLACEMENT_3D('',#440,#281,#282);
#253=AXIS2_PLACEMENT_3D('',#444,#284,#285);
#254=AXIS2_PLACEMENT_3D('',#448,#287,#288);
#255=AXIS2_PLACEMENT_3D('',#452,#290,#291);
#256=AXIS2_PLACEMENT_3D('',#453,#292,#293);
#257=AXIS2_PLACEMENT_3D('',#459,#297,#298);
#258=AXIS2_PLACEMENT_3D('',#465,#302,#303);
#259=AXIS2_PLACEMENT_3D('',#471,#307,#308);
#260=AXIS2_PLACEMENT_3D('',#477,#312,#313);
#261=AXIS2_PLACEMENT_3D('',#478,#314,#315);
#262=AXIS2_PLACEMENT_3D('',#480,#316,#317);
#263=AXIS2_PLACEMENT_3D('',#481,#318,#319);
#264=AXIS2_PLACEMENT_3D('',#482,#320,#321);
#265=AXIS2_PLACEMENT_3D('',#483,#322,#323);
#266=AXIS2_PLACEMENT_3D('',#484,#324,#325);
#267=AXIS2_PLACEMENT_3D('',#485,#326,#327);
#268=AXIS2_PLACEMENT_3D('',#486,#328,#329);
#269=AXIS2_PLACEMENT_3D('',#487,#330,#331);
#270=AXIS2_PLACEMENT_3D('',#488,#332,#333);
#271=AXIS2_PLACEMENT_3D('',#489,#334,#335);
#272=DIRECTION('',(0.0,0.0,1.0));
#273=DIRECTION('',(1.0,0.0,0.0));
#274=DIRECTION('',(0.0,0.0,1.0));
#275=DIRECTION('',(1.0,0.0,0.0));
#276=DIRECTION('',(0.0,0.0,1.0));
#277=DIRECTION('',(1.0,0.0,0.0));
#278=DIRECTION('',(0.0,0.0,1.0));
#279=DIRECTION('',(-0.707106781186547,-0.707106781186548,0.0));
#280=DIRECTION('',(1.0,0.0,0.0));
#281=DIRECTION('',(0.0,0.0,-1.0));
#282=DIRECTION('',(-0.707106781186547,-0.707106781186547,0.0));
#283=DIRECTION('',(6.66133814775094E-16,-1.0,0.0));
#284=DIRECTION('',(0.0,0.0,-1.0));
#285=DIRECTION('',(-0.707106781186547,-0.707106781186548,0.0));
#286=DIRECTION('',(-1.0,0.0,0.0));
#287=DIRECTION('',(0.0,0.0,-1.0));
#288=DIRECTION('',(-0.707106781186547,-0.707106781186548,0.0));
#289=DIRECTION('',(-6.66133814775094E-16,1.0,0.0));
#290=DIRECTION('',(0.0,0.0,-1.0));
#291=DIRECTION('',(-0.707106781186547,-0.707106781186547,0.0));
#292=DIRECTION('',(0.0,0.0,1.0));
#293=DIRECTION('',(-0.707106781186547,-0.707106781186548,0.0));
#294=DIRECTION('',(-1.0,0.0,-6.99353086378051E-17));
#295=DIRECTION('',(6.99353086378051E-17,-2.45502073030628E-16,-1.0));
#296=DIRECTION('',(-6.99353086378051E-17,2.45502073030628E-16,1.0));
#297=DIRECTION('',(0.0,1.0,-2.45502073030628E-16));
#298=DIRECTION('',(-1.0,0.0,0.0));
#299=DIRECTION('',(-6.99353086378051E-17,2.45502073030628E-16,1.0));
#300=DIRECTION('',(6.66133814775094E-16,-1.0,2.45502073030628E-16));
#301=DIRECTION('',(6.99353086378051E-17,-2.45502073030628E-16,-1.0));
#302=DIRECTION('',(-1.0,-6.66133814775094E-16,-6.9935308637805E-17));
#303=DIRECTION('',(6.66133814775094E-16,-1.0,0.0));
#304=DIRECTION('',(-6.99353086378051E-17,2.45502073030628E-16,1.0));
#305=DIRECTION('',(1.0,0.0,6.99353086378051E-17));
#306=DIRECTION('',(6.99353086378051E-17,-2.45502073030628E-16,-1.0));
#307=DIRECTION('',(0.0,-1.0,2.45502073030628E-16));
#308=DIRECTION('',(1.0,0.0,0.0));
#309=DIRECTION('',(-6.99353086378051E-17,2.45502073030628E-16,1.0));
#310=DIRECTION('',(-6.66133814775094E-16,1.0,-2.45502073030628E-16));
#311=DIRECTION('',(6.99353086378051E-17,-2.45502073030628E-16,-1.0));
#312=DIRECTION('',(1.0,6.66133814775094E-16,6.9935308637805E-17));
#313=DIRECTION('',(-6.66133814775094E-16,1.0,0.0));
#314=DIRECTION('',(0.0,0.0,1.0));
#315=DIRECTION('',(-0.707106781186547,-0.707106781186548,0.0));
#316=DIRECTION('',(-6.99353086378051E-17,2.45502073030628E-16,1.0));
#317=DIRECTION('',(-0.707106781186547,0.707106781186547,-2.23047911617478E-16));
#318=DIRECTION('',(-6.99353086378051E-17,2.45502073030628E-16,1.0));
#319=DIRECTION('',(-0.707106781186548,0.707106781186547,-2.23047911617479E-16));
#320=DIRECTION('',(-6.99353086378051E-17,2.45502073030628E-16,1.0));
#321=DIRECTION('',(-0.707106781186548,0.707106781186547,-2.23047911617478E-16));
#322=DIRECTION('',(-6.99353086378051E-17,2.45502073030628E-16,1.0));
#323=DIRECTION('',(-0.707106781186547,0.707106781186547,-2.23047911617478E-16));
#324=DIRECTION('',(-6.99353086378051E-17,2.45502073030628E-16,1.0));
#325=DIRECTION('',(-0.707106781186548,0.707106781186547,-2.23047911617478E-16));
#326=DIRECTION('',(-6.99353086378051E-17,2.45502073030628E-16,1.0));
#327=DIRECTION('',(-0.707106781186547,0.707106781186547,-2.23047911617479E-16));
#328=DIRECTION('',(-6.99353086378051E-17,2.45502073030628E-16,1.0));
#329=DIRECTION('',(-0.707106781186547,0.707106781186547,-2.23047911617478E-16));
#330=DIRECTION('',(-6.99353086378051E-17,2.45502073030628E-16,1.0));
#331=DIRECTION('',(-0.707106781186548,0.707106781186547,-2.23047911617478E-16));
#332=DIRECTION('',(-6.99353086378051E-17,2.45502073030628E-16,1.0));
#333=DIRECTION('',(-0.707106781186548,0.707106781186547,-2.23047911617479E-16));
#334=DIRECTION('',(0.0,0.0,1.0));
#335=DIRECTION('',(-0.707106781186547,-0.707106781186548,0.0));
#336=CARTESIAN_POINT('',(0.0,0.0,0.0));
#339=CARTESIAN_POINT('',(15.9311266007567,-3.5527136788005E-15,7.83394313018954E-16));
#340=CARTESIAN_POINT('',(13.335,-1.77635683940025E-15,0.0));
#341=CARTESIAN_POINT('',(10.795,-1.77635683940025E-15,3.89734540936122E-17));
#342=CARTESIAN_POINT('',(8.255,-1.77635683940025E-15,1.16920362280837E-16));
#343=CARTESIAN_POINT('',(5.715,-3.5527136788005E-15,2.33840724561673E-16));
#344=CARTESIAN_POINT('',(3.11887339924331,-5.32907051820075E-15,3.92698908208377E-16));
#345=CARTESIAN_POINT('',(3.00662019772995,0.0024804687499973,3.98105418706472E-16));
#346=CARTESIAN_POINT('',(2.83206383832007,0.0139149811841524,4.04917381455774E-16));
#347=CARTESIAN_POINT('',(2.59849106952602,0.0456224309654338,4.10578187743467E-16));
#348=CARTESIAN_POINT('',(2.30108879478042,0.114810649551103,4.11719203974946E-16));
#349=CARTESIAN_POINT('',(2.00496598615955,0.215017149255914,4.06262228486902E-16));
#350=CARTESIAN_POINT('',(1.71412168117712,0.34687569764586,3.93862619316127E-16));
#351=CARTESIAN_POINT('',(1.43376576431316,0.51005923993737,3.74314068910401E-16));
#352=CARTESIAN_POINT('',(1.16878791011373,0.703197133802446,3.47646892935272E-16));
#353=CARTESIAN_POINT('',(0.923891882541968,0.923893070824358,3.14117164072837E-16));
#354=CARTESIAN_POINT('',(0.703197762278101,1.1687852958726,2.7421504242531E-16));
#355=CARTESIAN_POINT('',(0.510058873654058,1.43377128202799,2.2862714284746E-16));
#356=CARTESIAN_POINT('',(0.346875929394797,1.71410933810762,1.78224959146211E-16));
#357=CARTESIAN_POINT('',(0.215017013520557,2.00499538462579,1.23947659050189E-16));
#358=CARTESIAN_POINT('',(0.114810734666682,2.30100502507841,6.69199090199953E-17));
#359=CARTESIAN_POINT('',(0.0456223789926877,2.59867622036732,7.9041103181911E-18));
#360=CARTESIAN_POINT('',(0.0139149985692963,2.83183742707354,-3.95097004256781E-17));
#361=CARTESIAN_POINT('',(0.0024804687499973,3.00662019772994,-7.57035664313044E-17));
#362=CARTESIAN_POINT('',(-3.5527136788005E-15,3.11887339924331,-9.92057211979422E-17));
#363=CARTESIAN_POINT('',(-5.32907051820075E-15,5.71499999999999,-6.66133814775092E-17));
#364=CARTESIAN_POINT('',(-7.105427357601E-15,8.255,-4.44089209850061E-17));
#365=CARTESIAN_POINT('',(-1.06581410364015E-14,10.795,-4.44089209850061E-17));
#366=CARTESIAN_POINT('',(-1.06581410364015E-14,13.335,-6.66133814775091E-17));
#367=CARTESIAN_POINT('',(-1.4210854715202E-14,15.9311266007567,-1.26764114873798E-16));
#368=CARTESIAN_POINT('',(0.00248046874998487,16.04337980227,-1.57769787238659E-16));
#369=CARTESIAN_POINT('',(0.0139149811841435,16.2179361616799,-2.04524287359925E-16));
#370=CARTESIAN_POINT('',(0.0456224309654196,16.451508930474,-2.63924785527392E-16));
#371=CARTESIAN_POINT('',(0.114810649551103,16.7489112052196,-3.34005495471489E-16));
#372=CARTESIAN_POINT('',(0.215017149255894,17.0450340138405,-3.97750554678658E-16));
#373=CARTESIAN_POINT('',(0.346875697645864,17.3358783188229,-4.53916235831784E-16));
#374=CARTESIAN_POINT('',(0.510059239937352,17.6162342356869,-5.01104343042162E-16));
#375=CARTESIAN_POINT('',(0.703197133802449,17.8812120898863,-5.38207574683702E-16));
#376=CARTESIAN_POINT('',(0.923893070824347,18.126108117458,-5.64368403270843E-16));
#377=CARTESIAN_POINT('',(1.16878529587259,18.3468022377219,-5.79079035207938E-16));
#378=CARTESIAN_POINT('',(1.43377128202799,18.5399411263459,-5.82189465451833E-16));
#379=CARTESIAN_POINT('',(1.7141093381076,18.7031240706052,-5.73940025903013E-16));
#380=CARTESIAN_POINT('',(2.00499538462579,18.8349829864794,-5.54872690927232E-16));
#381=CARTESIAN_POINT('',(2.30100502507841,18.9351892653333,-5.25940502887188E-16));
#382=CARTESIAN_POINT('',(2.59867622036731,19.0043776210073,-4.87988567461258E-16));
#383=CARTESIAN_POINT('',(2.83183742707353,19.0360850014307,-4.51954547051858E-16));
#384=CARTESIAN_POINT('',(3.00662019772995,19.04751953125,-4.21483333239131E-16));
#385=CARTESIAN_POINT('',(3.1188733992433,19.05,-4.00549370501796E-16));
#386=CARTESIAN_POINT('',(5.71499999999999,19.05,-2.33840724561673E-16));
#387=CARTESIAN_POINT('',(8.25499999999999,19.05,-1.55893816374449E-16));
#388=CARTESIAN_POINT('',(10.795,19.05,-1.55893816374449E-16));
#389=CARTESIAN_POINT('',(13.335,19.05,-2.33840724561673E-16));
#390=CARTESIAN_POINT('',(15.9311266007567,19.05,-3.92698908208377E-16));
#391=CARTESIAN_POINT('',(16.04337980227,19.04751953125,-3.98105418706472E-16));
#392=CARTESIAN_POINT('',(16.2179361616799,19.0360850188159,-4.04917381455773E-16));
#393=CARTESIAN_POINT('',(16.451508930474,19.0043775690346,-4.10578187743466E-16));
#394=CARTESIAN_POINT('',(16.7489112052196,18.9351893504489,-4.11719203974945E-16));
#395=CARTESIAN_POINT('',(17.0450340138405,18.8349828507441,-4.06262228486902E-16));
#396=CARTESIAN_POINT('',(17.3358783188229,18.7031243023541,-3.93862619316126E-16));
#397=CARTESIAN_POINT('',(17.6162342356868,18.5399407600626,-3.74314068910401E-16));
#398=CARTESIAN_POINT('',(17.8812120898863,18.3468028661976,-3.47646892935271E-16));
#399=CARTESIAN_POINT('',(18.126108117458,18.1261069291756,-3.14117164072837E-16));
#400=CARTESIAN_POINT('',(18.3468022377219,17.8812147041274,-2.74215042425309E-16));
#401=CARTESIAN_POINT('',(18.5399411263459,17.616228717972,-2.2862714284746E-16));
#402=CARTESIAN_POINT('',(18.7031240706052,17.3358906618924,-1.78224959146211E-16));
#403=CARTESIAN_POINT('',(18.8349829864794,17.0450046153742,-1.23947659050189E-16));
#404=CARTESIAN_POINT('',(18.9351892653333,16.7489949749216,-6.69199090199949E-17));
#405=CARTESIAN_POINT('',(19.0043776210073,16.4513237796327,-7.90411031819098E-18));
#406=CARTESIAN_POINT('',(19.0360850014307,16.2181625729265,3.95097004256783E-17));
#407=CARTESIAN_POINT('',(19.04751953125,16.0433798022701,7.57035664313046E-17));
#408=CARTESIAN_POINT('',(19.05,15.9311266007567,9.92057211979423E-17));
#409=CARTESIAN_POINT('',(19.05,13.335,6.66133814775093E-17));
#410=CARTESIAN_POINT('',(19.05,10.795,4.44089209850062E-17));
#411=CARTESIAN_POINT('',(19.05,8.255,4.44089209850061E-17));
#412=CARTESIAN_POINT('',(19.05,5.715,6.66133814775091E-17));
#413=CARTESIAN_POINT('',(19.05,3.11887339924332,1.26764114873798E-16));
#414=CARTESIAN_POINT('',(19.04751953125,3.00662019772995,1.58074267348765E-16));
#415=CARTESIAN_POINT('',(19.0360850188158,2.83206383832008,2.06232365723373E-16));
#416=CARTESIAN_POINT('',(19.0043775690346,2.59849106952602,2.69524986216747E-16));
#417=CARTESIAN_POINT('',(18.9351893504489,2.30108879478042,3.48098621706885E-16));
#418=CARTESIAN_POINT('',(18.8349828507441,2.00496598615955,4.2414413261839E-16));
#419=CARTESIAN_POINT('',(18.7031243023541,1.71412168117713,4.96495587259788E-16));
#420=CARTESIAN_POINT('',(18.5399407600626,1.43376576431316,5.63714643428687E-16));
#421=CARTESIAN_POINT('',(18.3468028661976,1.16878791011373,6.24525751732553E-16));
#422=CARTESIAN_POINT('',(18.1261069291756,0.923891882541971,6.77777235343851E-16));
#423=CARTESIAN_POINT('',(17.8812147041274,0.7031977622781,7.22548641740158E-16));
#424=CARTESIAN_POINT('',(17.616228717972,0.510058873654062,7.5818637644666E-16));
#425=CARTESIAN_POINT('',(17.3358906618924,0.346875929394793,7.84348723856302E-16));
#426=CARTESIAN_POINT('',(17.0450046153742,0.21501701352056,8.00987952598471E-16));
#427=CARTESIAN_POINT('',(16.7489949749216,0.114810734666683,8.08391254742511E-16));
#428=CARTESIAN_POINT('',(16.4513237796327,0.0456223789926753,8.06978767079046E-16));
#429=CARTESIAN_POINT('',(16.2181625729264,0.0139149985693088,7.99565526467997E-16));
#430=CARTESIAN_POINT('',(16.0433798022701,0.00248046874999197,7.90549078918361E-16));
#431=CARTESIAN_POINT('',(15.9311266007567,-3.5527136788005E-15,7.83394313018954E-16));
#432=CARTESIAN_POINT('',(13.335,-1.77635683940025E-15,0.0));
#433=CARTESIAN_POINT('',(0.0,0.0,0.0));
#434=CARTESIAN_POINT('',(9.525,9.525,0.0));
#435=CARTESIAN_POINT('',(9.525,9.525,-6.35));
#436=CARTESIAN_POINT('',(6.7230893795483,6.72308937954831,-6.35));
#437=CARTESIAN_POINT('',(9.525,19.05,-6.35));
#438=CARTESIAN_POINT('',(3.17499999999998,19.05,-6.35));
#439=CARTESIAN_POINT('',(15.875,19.05,-6.35));
#440=CARTESIAN_POINT('',(15.875,15.875,-6.35));
#441=CARTESIAN_POINT('',(19.05,15.875,-6.35));
#442=CARTESIAN_POINT('',(19.05,9.52500000000001,-6.35));
#443=CARTESIAN_POINT('',(19.05,3.175,-6.35));
#444=CARTESIAN_POINT('',(15.875,3.17499999999999,-6.35));
#445=CARTESIAN_POINT('',(15.875,-5.20417042793042E-15,-6.35));
#446=CARTESIAN_POINT('',(9.52499999999999,-3.46944695195361E-15,-6.35));
#447=CARTESIAN_POINT('',(3.175,-1.73472347597681E-15,-6.35));
#448=CARTESIAN_POINT('',(3.175,3.17499999999999,-6.35));
#449=CARTESIAN_POINT('',(-1.73472347597681E-15,3.17499999999999,-6.35));
#450=CARTESIAN_POINT('',(-6.93889390390723E-15,9.525,-6.35));
#451=CARTESIAN_POINT('',(-1.04083408558608E-14,15.875,-6.35));
#452=CARTESIAN_POINT('',(3.17499999999998,15.875,-6.35));
#453=CARTESIAN_POINT('',(9.525,8.99466991411009,-6.35));
#454=CARTESIAN_POINT('',(9.525,19.05,-5.27182464349352E-15));
#455=CARTESIAN_POINT('',(15.875,19.05,-4.82773543364345E-15));
#456=CARTESIAN_POINT('',(3.17499999999998,19.05,-5.71591385334358E-15));
#457=CARTESIAN_POINT('',(15.875,19.05,-4.33680868994202E-15));
#458=CARTESIAN_POINT('',(3.17499999999998,19.05,-5.20417042793042E-15));
#459=CARTESIAN_POINT('',(9.525,19.05,-5.27182464349352E-15));
#460=CARTESIAN_POINT('',(-1.73472347597681E-15,3.17499999999999,-1.73472347597681E-15));
#461=CARTESIAN_POINT('',(-1.73472347597681E-15,3.17499999999999,-2.04061304890738E-15));
#462=CARTESIAN_POINT('',(-6.93889390390723E-15,9.525,-3.59955121265187E-15));
#463=CARTESIAN_POINT('',(-1.21430643318377E-14,15.875,-5.15848937639637E-15));
#464=CARTESIAN_POINT('',(-1.21430643318377E-14,15.875,-5.20417042793042E-15));
#465=CARTESIAN_POINT('',(-6.93889390390723E-15,9.525,-3.59955121265187E-15));
#466=CARTESIAN_POINT('',(15.875,-1.73472347597681E-15,-9.62964972193618E-32));
#467=CARTESIAN_POINT('',(15.875,-1.73472347597681E-15,-1.50920942409981E-16));
#468=CARTESIAN_POINT('',(9.525,-1.73472347597681E-15,-5.95010152260044E-16));
#469=CARTESIAN_POINT('',(3.17499999999999,-1.73472347597681E-15,-1.03909936211011E-15));
#470=CARTESIAN_POINT('',(3.17499999999999,-1.73472347597681E-15,-8.67361737988404E-16));
#471=CARTESIAN_POINT('',(9.52499999999999,-1.73472347597681E-15,-5.95010152260044E-16));
#472=CARTESIAN_POINT('',(19.05,15.875,-3.46944695195361E-15));
#473=CARTESIAN_POINT('',(19.05,15.875,-3.82622174684618E-15));
#474=CARTESIAN_POINT('',(19.05,9.52500000000001,-2.26728358310169E-15));
#475=CARTESIAN_POINT('',(19.05,3.175,-7.08345419357195E-16));
#476=CARTESIAN_POINT('',(19.05,3.175,0.0));
#477=CARTESIAN_POINT('',(19.05,9.52500000000001,-2.26728358310169E-15));
#478=CARTESIAN_POINT('',(9.525,9.525,0.0));
#479=CARTESIAN_POINT('',(6.7230893795483,6.72308937954831,0.0));
#480=CARTESIAN_POINT('',(15.875,15.875,-4.04826635177121E-15));
#481=CARTESIAN_POINT('',(3.17499999999998,15.875,-4.93644477147134E-15));
#482=CARTESIAN_POINT('',(3.175,3.17499999999999,-1.81856844398235E-15));
#483=CARTESIAN_POINT('',(15.875,3.17499999999999,-9.30390024282225E-16));
#484=CARTESIAN_POINT('',(9.525,9.525,-2.93341739787678E-15));
#485=CARTESIAN_POINT('',(15.875,15.875,-3.46944695195361E-15));
#486=CARTESIAN_POINT('',(15.875,3.17499999999999,-8.67361737988404E-16));
#487=CARTESIAN_POINT('',(3.175,3.17499999999999,-1.73472347597681E-15));
#488=CARTESIAN_POINT('',(3.17499999999998,15.875,-4.33680868994202E-15));
#489=CARTESIAN_POINT('',(9.525,9.525,-33.3676978394524));
#490=MECHANICAL_DESIGN_GEOMETRIC_PRESENTATION_REPRESENTATION('',(#232,#233,#234,
     #235),#491);
#491=(GEOMETRIC_REPRESENTATION_CONTEXT(3)GLOBAL_UNCERTAINTY_ASSIGNED_CONTEXT((#492))
     GLOBAL_UNIT_ASSIGNED_CONTEXT((#498,#494,#493))REPRESENTATION_CONTEXT('SNMM190632',
     'TOP_LEVEL_ASSEMBLY_PART'));
#492=UNCERTAINTY_MEASURE_WITH_UNIT(LENGTH_MEASURE(2.0E-5),#498,'DISTANCE_ACCURACY_VALUE',
     'Maximum Tolerance applied to model');
#493=(NAMED_UNIT(*)SI_UNIT($,.STERADIAN.)SOLID_ANGLE_UNIT());
#494=(CONVERSION_BASED_UNIT('DEGREE',#496)NAMED_UNIT(#495)PLANE_ANGLE_UNIT());
#495=DIMENSIONAL_EXPONENTS(0.0,0.0,0.0,0.0,0.0,0.0,0.0);
#496=PLANE_ANGLE_MEASURE_WITH_UNIT(PLANE_ANGLE_MEASURE(0.0174532925),#497);
#497=(NAMED_UNIT(*)PLANE_ANGLE_UNIT()SI_UNIT($,.RADIAN.));
#498=(LENGTH_UNIT()NAMED_UNIT(*)SI_UNIT(.MILLI.,.METRE.));
#499=CONSTRUCTIVE_GEOMETRY_REPRESENTATION('supplemental geometry',(#249,#250),#491);
#500=CONSTRUCTIVE_GEOMETRY_REPRESENTATION_RELATIONSHIP('supplemental geometry','contains PCS and MCS coordinate systems',
     #24,#499);
ENDSEC;
END-ISO-10303-21;
