ISO-10303-21;
HEADER;
FILE_DESCRIPTION(
/* description */ (''),
/* implementation_level */ '2;1');
FILE_NAME(
/* name */ 'SNMM250924.stp',
/* time_stamp */ '2017-03-21T10:54:25',
/* author */ ('Sandvik Coromant R&D'),
/* organization */ ('Sandvik Machining Solutions'),
/* preprocessor_version */ 'ST-DEVELOPER v15',
/* originating_system */ 'SIEMENS PLM Software NX v8.5.3.3(64 bits)',
/* authorization */ '');
FILE_SCHEMA(('AUTOMOTIVE_DESIGN'));
ENDSEC;
DATA;
#10=GEOMETRICALLY_BOUNDED_WIREFRAME_SHAPE_REPRESENTATION('IsoTurningInsert-None',
     (#25),#491);
#11=SHAPE_REPRESENTATION_RELATIONSHIP('None','relationship between IsoTurningInsert-None and IsoTurningInsert-None',
     #24,#13);
#12=SHAPE_REPRESENTATION_RELATIONSHIP('None','relationship between IsoTurningInsert-None and IsoTurningInsert-None',
     #24,#10);
#13=ADVANCED_BREP_SHAPE_REPRESENTATION('IsoTurningInsert-None',(#31),#491);
#14=SHAPE_DEFINITION_REPRESENTATION(#15,#24);
#15=PRODUCT_DEFINITION_SHAPE('','',#16);
#16=PRODUCT_DEFINITION(' ','',#18,#17);
#17=PRODUCT_DEFINITION_CONTEXT('part definition',#23,'design');
#18=PRODUCT_DEFINITION_FORMATION_WITH_SPECIFIED_SOURCE(' ',' ',#20,.NOT_KNOWN.);
#19=PRODUCT_RELATED_PRODUCT_CATEGORY('part','',(#20));
#20=PRODUCT('IsoTurningInsert','IsoTurningInsert',' ',(#21));
#21=PRODUCT_CONTEXT(' ',#23,'mechanical');
#22=APPLICATION_PROTOCOL_DEFINITION('international standard','automotive_design',
     2010,#23);
#23=APPLICATION_CONTEXT('core data for automotive mechanical design processes');
#24=SHAPE_REPRESENTATION('IsoTurningInsert-None',(#248),#491);
#25=GEOMETRIC_CURVE_SET('geometric curve set',(#228));
#26=SURFACE_STYLE_USAGE(.BOTH.,#27);
#27=SURFACE_SIDE_STYLE('',(#28));
#28=SURFACE_STYLE_FILL_AREA(#29);
#29=FILL_AREA_STYLE('',(#30));
#30=FILL_AREA_STYLE_COLOUR('',#247);
#31=MANIFOLD_SOLID_BREP('CUT',#32);
#32=CLOSED_SHELL('',(#46,#47,#48,#49,#50,#51,#52,#53,#54,#55,#56));
#33=CYLINDRICAL_SURFACE('',#267,2.38125);
#34=CYLINDRICAL_SURFACE('',#268,2.38125);
#35=CYLINDRICAL_SURFACE('',#269,2.38125);
#36=CYLINDRICAL_SURFACE('',#270,2.38125);
#37=CYLINDRICAL_SURFACE('',#271,4.5595);
#38=FACE_OUTER_BOUND('',#103,.T.);
#39=FACE_OUTER_BOUND('',#104,.T.);
#40=FACE_OUTER_BOUND('',#105,.T.);
#41=FACE_OUTER_BOUND('',#106,.T.);
#42=FACE_OUTER_BOUND('',#109,.T.);
#43=FACE_OUTER_BOUND('',#110,.T.);
#44=FACE_OUTER_BOUND('',#111,.T.);
#45=FACE_OUTER_BOUND('',#112,.T.);
#46=ADVANCED_FACE('',(#95,#96),#57,.F.);
#47=ADVANCED_FACE('',(#38),#58,.T.);
#48=ADVANCED_FACE('',(#39),#59,.T.);
#49=ADVANCED_FACE('',(#40),#60,.T.);
#50=ADVANCED_FACE('',(#41),#61,.T.);
#51=ADVANCED_FACE('',(#97,#98),#62,.T.);
#52=ADVANCED_FACE('',(#42),#33,.T.);
#53=ADVANCED_FACE('',(#43),#34,.T.);
#54=ADVANCED_FACE('',(#44),#35,.T.);
#55=ADVANCED_FACE('',(#45),#36,.T.);
#56=ADVANCED_FACE('',(#99,#100),#37,.F.);
#57=PLANE('',#256);
#58=PLANE('',#257);
#59=PLANE('',#258);
#60=PLANE('',#259);
#61=PLANE('',#260);
#62=PLANE('',#266);
#63=LINE('',#437,#79);
#64=LINE('',#442,#80);
#65=LINE('',#446,#81);
#66=LINE('',#450,#82);
#67=LINE('',#454,#83);
#68=LINE('',#457,#84);
#69=LINE('',#458,#85);
#70=LINE('',#460,#86);
#71=LINE('',#462,#87);
#72=LINE('',#464,#88);
#73=LINE('',#466,#89);
#74=LINE('',#468,#90);
#75=LINE('',#470,#91);
#76=LINE('',#472,#92);
#77=LINE('',#474,#93);
#78=LINE('',#476,#94);
#79=VECTOR('',#280,1.0);
#80=VECTOR('',#283,1.0);
#81=VECTOR('',#286,1.0);
#82=VECTOR('',#289,1.0);
#83=VECTOR('',#294,1.0);
#84=VECTOR('',#295,1.0);
#85=VECTOR('',#296,1.0);
#86=VECTOR('',#299,1.0);
#87=VECTOR('',#300,1.0);
#88=VECTOR('',#301,1.0);
#89=VECTOR('',#304,1.0);
#90=VECTOR('',#305,1.0);
#91=VECTOR('',#306,1.0);
#92=VECTOR('',#309,1.0);
#93=VECTOR('',#310,1.0);
#94=VECTOR('',#311,1.0);
#95=FACE_BOUND('',#101,.T.);
#96=FACE_BOUND('',#102,.T.);
#97=FACE_BOUND('',#107,.T.);
#98=FACE_BOUND('',#108,.T.);
#99=FACE_BOUND('',#113,.T.);
#100=FACE_BOUND('',#114,.T.);
#101=EDGE_LOOP('',(#115));
#102=EDGE_LOOP('',(#116,#117,#118,#119,#120,#121,#122,#123));
#103=EDGE_LOOP('',(#124,#125,#126,#127));
#104=EDGE_LOOP('',(#128,#129,#130,#131));
#105=EDGE_LOOP('',(#132,#133,#134,#135));
#106=EDGE_LOOP('',(#136,#137,#138,#139));
#107=EDGE_LOOP('',(#140));
#108=EDGE_LOOP('',(#141,#142,#143,#144,#145,#146,#147,#148));
#109=EDGE_LOOP('',(#149,#150,#151,#152));
#110=EDGE_LOOP('',(#153,#154,#155,#156));
#111=EDGE_LOOP('',(#157,#158,#159,#160));
#112=EDGE_LOOP('',(#161,#162,#163,#164));
#113=EDGE_LOOP('',(#165));
#114=EDGE_LOOP('',(#166));
#115=ORIENTED_EDGE('',*,*,#185,.T.);
#116=ORIENTED_EDGE('',*,*,#186,.T.);
#117=ORIENTED_EDGE('',*,*,#187,.T.);
#118=ORIENTED_EDGE('',*,*,#188,.T.);
#119=ORIENTED_EDGE('',*,*,#189,.T.);
#120=ORIENTED_EDGE('',*,*,#190,.T.);
#121=ORIENTED_EDGE('',*,*,#191,.T.);
#122=ORIENTED_EDGE('',*,*,#192,.T.);
#123=ORIENTED_EDGE('',*,*,#193,.T.);
#124=ORIENTED_EDGE('',*,*,#194,.F.);
#125=ORIENTED_EDGE('',*,*,#195,.T.);
#126=ORIENTED_EDGE('',*,*,#186,.F.);
#127=ORIENTED_EDGE('',*,*,#196,.T.);
#128=ORIENTED_EDGE('',*,*,#192,.F.);
#129=ORIENTED_EDGE('',*,*,#197,.T.);
#130=ORIENTED_EDGE('',*,*,#198,.F.);
#131=ORIENTED_EDGE('',*,*,#199,.T.);
#132=ORIENTED_EDGE('',*,*,#190,.F.);
#133=ORIENTED_EDGE('',*,*,#200,.T.);
#134=ORIENTED_EDGE('',*,*,#201,.F.);
#135=ORIENTED_EDGE('',*,*,#202,.T.);
#136=ORIENTED_EDGE('',*,*,#188,.F.);
#137=ORIENTED_EDGE('',*,*,#203,.T.);
#138=ORIENTED_EDGE('',*,*,#204,.F.);
#139=ORIENTED_EDGE('',*,*,#205,.T.);
#140=ORIENTED_EDGE('',*,*,#206,.F.);
#141=ORIENTED_EDGE('',*,*,#204,.T.);
#142=ORIENTED_EDGE('',*,*,#207,.T.);
#143=ORIENTED_EDGE('',*,*,#194,.T.);
#144=ORIENTED_EDGE('',*,*,#208,.T.);
#145=ORIENTED_EDGE('',*,*,#198,.T.);
#146=ORIENTED_EDGE('',*,*,#209,.T.);
#147=ORIENTED_EDGE('',*,*,#201,.T.);
#148=ORIENTED_EDGE('',*,*,#210,.T.);
#149=ORIENTED_EDGE('',*,*,#187,.F.);
#150=ORIENTED_EDGE('',*,*,#195,.F.);
#151=ORIENTED_EDGE('',*,*,#207,.F.);
#152=ORIENTED_EDGE('',*,*,#203,.F.);
#153=ORIENTED_EDGE('',*,*,#189,.F.);
#154=ORIENTED_EDGE('',*,*,#205,.F.);
#155=ORIENTED_EDGE('',*,*,#210,.F.);
#156=ORIENTED_EDGE('',*,*,#200,.F.);
#157=ORIENTED_EDGE('',*,*,#191,.F.);
#158=ORIENTED_EDGE('',*,*,#202,.F.);
#159=ORIENTED_EDGE('',*,*,#209,.F.);
#160=ORIENTED_EDGE('',*,*,#197,.F.);
#161=ORIENTED_EDGE('',*,*,#193,.F.);
#162=ORIENTED_EDGE('',*,*,#199,.F.);
#163=ORIENTED_EDGE('',*,*,#208,.F.);
#164=ORIENTED_EDGE('',*,*,#196,.F.);
#165=ORIENTED_EDGE('',*,*,#185,.F.);
#166=ORIENTED_EDGE('',*,*,#206,.T.);
#167=VERTEX_POINT('',#436);
#168=VERTEX_POINT('',#438);
#169=VERTEX_POINT('',#439);
#170=VERTEX_POINT('',#441);
#171=VERTEX_POINT('',#443);
#172=VERTEX_POINT('',#445);
#173=VERTEX_POINT('',#447);
#174=VERTEX_POINT('',#449);
#175=VERTEX_POINT('',#451);
#176=VERTEX_POINT('',#455);
#177=VERTEX_POINT('',#456);
#178=VERTEX_POINT('',#461);
#179=VERTEX_POINT('',#463);
#180=VERTEX_POINT('',#467);
#181=VERTEX_POINT('',#469);
#182=VERTEX_POINT('',#473);
#183=VERTEX_POINT('',#475);
#184=VERTEX_POINT('',#479);
#185=EDGE_CURVE('',#167,#167,#211,.T.);
#186=EDGE_CURVE('',#168,#169,#63,.T.);
#187=EDGE_CURVE('',#169,#170,#212,.T.);
#188=EDGE_CURVE('',#170,#171,#64,.T.);
#189=EDGE_CURVE('',#171,#172,#213,.T.);
#190=EDGE_CURVE('',#172,#173,#65,.T.);
#191=EDGE_CURVE('',#173,#174,#214,.T.);
#192=EDGE_CURVE('',#174,#175,#66,.T.);
#193=EDGE_CURVE('',#175,#168,#215,.T.);
#194=EDGE_CURVE('',#176,#177,#67,.T.);
#195=EDGE_CURVE('',#176,#169,#68,.T.);
#196=EDGE_CURVE('',#168,#177,#69,.T.);
#197=EDGE_CURVE('',#174,#178,#70,.T.);
#198=EDGE_CURVE('',#179,#178,#71,.T.);
#199=EDGE_CURVE('',#179,#175,#72,.T.);
#200=EDGE_CURVE('',#172,#180,#73,.T.);
#201=EDGE_CURVE('',#181,#180,#74,.T.);
#202=EDGE_CURVE('',#181,#173,#75,.T.);
#203=EDGE_CURVE('',#170,#182,#76,.T.);
#204=EDGE_CURVE('',#183,#182,#77,.T.);
#205=EDGE_CURVE('',#183,#171,#78,.T.);
#206=EDGE_CURVE('',#184,#184,#216,.T.);
#207=EDGE_CURVE('',#182,#176,#217,.T.);
#208=EDGE_CURVE('',#177,#179,#218,.T.);
#209=EDGE_CURVE('',#178,#181,#219,.T.);
#210=EDGE_CURVE('',#180,#183,#220,.T.);
#211=CIRCLE('',#251,4.5595);
#212=CIRCLE('',#252,2.38125);
#213=CIRCLE('',#253,2.38125);
#214=CIRCLE('',#254,2.38125);
#215=CIRCLE('',#255,2.38125);
#216=CIRCLE('',#261,4.5595);
#217=CIRCLE('',#262,2.38125);
#218=CIRCLE('',#263,2.38125);
#219=CIRCLE('',#264,2.38125);
#220=CIRCLE('',#265,2.38125);
#221=CURVE_STYLE('',#225,POSITIVE_LENGTH_MEASURE(0.18),#224);
#222=CURVE_STYLE('',#226,POSITIVE_LENGTH_MEASURE(0.18),#246);
#223=CURVE_STYLE('',#227,POSITIVE_LENGTH_MEASURE(0.18),#246);
#224=DRAUGHTING_PRE_DEFINED_COLOUR('blue');
#225=DRAUGHTING_PRE_DEFINED_CURVE_FONT('continuous');
#226=DRAUGHTING_PRE_DEFINED_CURVE_FONT('continuous');
#227=DRAUGHTING_PRE_DEFINED_CURVE_FONT('continuous');
#228=B_SPLINE_CURVE_WITH_KNOTS('CUTTING EDGE LINE',5,(#339,#340,#341,#342,#343,#344,
     #345,#346,#347,#348,#349,#350,#351,#352,#353,#354,#355,#356,#357,#358,#359,
     #360,#361,#362,#363,#364,#365,#366,#367,#368,#369,#370,#371,#372,#373,#374,
     #375,#376,#377,#378,#379,#380,#381,#382,#383,#384,#385,#386,#387,#388,#389,
     #390,#391,#392,#393,#394,#395,#396,#397,#398,#399,#400,#401,#402,#403,#404,
     #405,#406,#407,#408,#409,#410,#411,#412,#413,#414,#415,#416,#417,#418,#419,
     #420,#421,#422,#423,#424,#425,#426,#427,#428,#429,#430,#431,#432),.UNSPECIFIED.,
     .T.,.F.,(2,4,1,1,1,1,1,1,1,1,1,1,1,1,1,1,1,4,4,1,1,1,1,1,1,1,1,1,1,1,1,1,1,
     1,4,4,1,1,1,1,1,1,1,1,1,1,1,1,1,1,1,4,4,1,1,1,1,1,1,1,1,1,1,1,1,1,1,1,4,4,1,
     1),(-0.2116409767,0.0,0.00239743895625,0.0047948779125,0.00719231686874999,
     0.00958975582499999,0.01198719478125,0.0143846337375,0.01678207269375,0.01917951165,
     0.02157695060625,0.0239743895625,0.02637182851875,0.028769267475,0.03116670643125,
     0.0335641453875,0.03596158434375,0.0383590233,0.25,0.25239743895625,0.2547948779125,
     0.25719231686875,0.259589755825,0.26198719478125,0.2643846337375,0.26678207269375,
     0.26917951165,0.27157695060625,0.2739743895625,0.27637182851875,0.278769267475,
     0.28116670643125,0.2835641453875,0.28596158434375,0.2883590233,0.5,0.50239743895625,
     0.5047948779125,0.50719231686875,0.509589755825,0.51198719478125,0.5143846337375,
     0.51678207269375,0.51917951165,0.52157695060625,0.5239743895625,0.52637182851875,
     0.528769267475,0.53116670643125,0.5335641453875,0.53596158434375,0.5383590233,
     0.75,0.75239743895625,0.7547948779125,0.75719231686875,0.759589755825,0.76198719478125,
     0.7643846337375,0.76678207269375,0.76917951165,0.77157695060625,0.7739743895625,
     0.77637182851875,0.778769267475,0.78116670643125,0.7835641453875,0.78596158434375,
     0.7883590233,1.0,1.00239743895625,1.0047948779125),.UNSPECIFIED.);
#229=PRESENTATION_LAYER_ASSIGNMENT('1','Layer 1',(#228,#249,#250,#31));
#232=STYLED_ITEM('',(#238),#228);
#233=STYLED_ITEM('',(#239),#249);
#234=STYLED_ITEM('',(#240),#250);
#235=STYLED_ITEM('',(#241),#31);
#236=PRESENTATION_STYLE_ASSIGNMENT((#242));
#237=PRESENTATION_STYLE_ASSIGNMENT((#243));
#238=PRESENTATION_STYLE_ASSIGNMENT((#221));
#239=PRESENTATION_STYLE_ASSIGNMENT((#222));
#240=PRESENTATION_STYLE_ASSIGNMENT((#223));
#241=PRESENTATION_STYLE_ASSIGNMENT((#26));
#242=POINT_STYLE('',#244,POSITIVE_LENGTH_MEASURE(3.0),#246);
#243=POINT_STYLE('',#245,POSITIVE_LENGTH_MEASURE(3.0),#246);
#244=PRE_DEFINED_POINT_MARKER_SYMBOL('plus');
#245=PRE_DEFINED_POINT_MARKER_SYMBOL('plus');
#246=COLOUR_RGB('Medium Maroon',0.6,0.4,0.4);
#247=COLOUR_RGB('IsoInsertColor',0.8,0.8,0.8);
#248=AXIS2_PLACEMENT_3D('',#336,#272,#273);
#249=AXIS2_PLACEMENT_3D('PCS',#433,#274,#275);
#250=AXIS2_PLACEMENT_3D('MCS',#434,#276,#277);
#251=AXIS2_PLACEMENT_3D('',#435,#278,#279);
#252=AXIS2_PLACEMENT_3D('',#440,#281,#282);
#253=AXIS2_PLACEMENT_3D('',#444,#284,#285);
#254=AXIS2_PLACEMENT_3D('',#448,#287,#288);
#255=AXIS2_PLACEMENT_3D('',#452,#290,#291);
#256=AXIS2_PLACEMENT_3D('',#453,#292,#293);
#257=AXIS2_PLACEMENT_3D('',#459,#297,#298);
#258=AXIS2_PLACEMENT_3D('',#465,#302,#303);
#259=AXIS2_PLACEMENT_3D('',#471,#307,#308);
#260=AXIS2_PLACEMENT_3D('',#477,#312,#313);
#261=AXIS2_PLACEMENT_3D('',#478,#314,#315);
#262=AXIS2_PLACEMENT_3D('',#480,#316,#317);
#263=AXIS2_PLACEMENT_3D('',#481,#318,#319);
#264=AXIS2_PLACEMENT_3D('',#482,#320,#321);
#265=AXIS2_PLACEMENT_3D('',#483,#322,#323);
#266=AXIS2_PLACEMENT_3D('',#484,#324,#325);
#267=AXIS2_PLACEMENT_3D('',#485,#326,#327);
#268=AXIS2_PLACEMENT_3D('',#486,#328,#329);
#269=AXIS2_PLACEMENT_3D('',#487,#330,#331);
#270=AXIS2_PLACEMENT_3D('',#488,#332,#333);
#271=AXIS2_PLACEMENT_3D('',#489,#334,#335);
#272=DIRECTION('',(0.0,0.0,1.0));
#273=DIRECTION('',(1.0,0.0,0.0));
#274=DIRECTION('',(0.0,0.0,1.0));
#275=DIRECTION('',(1.0,0.0,0.0));
#276=DIRECTION('',(0.0,0.0,1.0));
#277=DIRECTION('',(1.0,0.0,0.0));
#278=DIRECTION('',(0.0,0.0,1.0));
#279=DIRECTION('',(-0.707106781186548,-0.707106781186547,0.0));
#280=DIRECTION('',(1.0,-6.66133814775094E-16,0.0));
#281=DIRECTION('',(0.0,0.0,-1.0));
#282=DIRECTION('',(-0.707106781186548,-0.707106781186548,0.0));
#283=DIRECTION('',(-1.11022302462516E-16,-1.0,0.0));
#284=DIRECTION('',(0.0,0.0,-1.0));
#285=DIRECTION('',(-0.707106781186548,-0.707106781186547,0.0));
#286=DIRECTION('',(-1.0,1.11022302462516E-16,0.0));
#287=DIRECTION('',(0.0,0.0,-1.0));
#288=DIRECTION('',(-0.707106781186548,-0.707106781186547,0.0));
#289=DIRECTION('',(-1.11022302462516E-16,1.0,0.0));
#290=DIRECTION('',(0.0,0.0,-1.0));
#291=DIRECTION('',(-0.707106781186548,-0.707106781186548,0.0));
#292=DIRECTION('',(0.0,0.0,1.0));
#293=DIRECTION('',(-0.707106781186548,-0.707106781186547,0.0));
#294=DIRECTION('',(-1.0,6.66133814775094E-16,-5.24514814783538E-17));
#295=DIRECTION('',(5.24514814783537E-17,-1.84126554772971E-16,-1.0));
#296=DIRECTION('',(-5.24514814783537E-17,1.84126554772971E-16,1.0));
#297=DIRECTION('',(6.66133814775094E-16,1.0,-1.84126554772971E-16));
#298=DIRECTION('',(-1.0,6.66133814775094E-16,0.0));
#299=DIRECTION('',(-5.24514814783537E-17,1.84126554772971E-16,1.0));
#300=DIRECTION('',(1.11022302462516E-16,-1.0,1.84126554772971E-16));
#301=DIRECTION('',(5.24514814783537E-17,-1.84126554772971E-16,-1.0));
#302=DIRECTION('',(-1.0,-1.11022302462516E-16,-5.24514814783537E-17));
#303=DIRECTION('',(1.11022302462516E-16,-1.0,0.0));
#304=DIRECTION('',(-5.24514814783537E-17,1.84126554772971E-16,1.0));
#305=DIRECTION('',(1.0,-1.11022302462516E-16,5.24514814783537E-17));
#306=DIRECTION('',(5.24514814783537E-17,-1.84126554772971E-16,-1.0));
#307=DIRECTION('',(-1.11022302462516E-16,-1.0,1.84126554772971E-16));
#308=DIRECTION('',(1.0,-1.11022302462516E-16,0.0));
#309=DIRECTION('',(-5.24514814783537E-17,1.84126554772971E-16,1.0));
#310=DIRECTION('',(1.11022302462516E-16,1.0,-1.84126554772971E-16));
#311=DIRECTION('',(5.24514814783537E-17,-1.84126554772971E-16,-1.0));
#312=DIRECTION('',(1.0,-1.11022302462516E-16,5.24514814783537E-17));
#313=DIRECTION('',(1.11022302462516E-16,1.0,0.0));
#314=DIRECTION('',(0.0,0.0,1.0));
#315=DIRECTION('',(-0.707106781186548,-0.707106781186547,0.0));
#316=DIRECTION('',(-5.24514814783537E-17,1.84126554772971E-16,1.0));
#317=DIRECTION('',(-0.707106781186548,0.707106781186548,-1.67285933713109E-16));
#318=DIRECTION('',(-5.24514814783537E-17,1.84126554772971E-16,1.0));
#319=DIRECTION('',(-0.707106781186547,0.707106781186548,-1.67285933713109E-16));
#320=DIRECTION('',(-5.24514814783537E-17,1.84126554772971E-16,1.0));
#321=DIRECTION('',(-0.707106781186547,0.707106781186548,-1.67285933713109E-16));
#322=DIRECTION('',(-5.24514814783537E-17,1.84126554772971E-16,1.0));
#323=DIRECTION('',(-0.707106781186548,0.707106781186548,-1.67285933713109E-16));
#324=DIRECTION('',(-5.24514814783537E-17,1.84126554772971E-16,1.0));
#325=DIRECTION('',(-0.707106781186547,0.707106781186548,-1.67285933713109E-16));
#326=DIRECTION('',(-5.24514814783537E-17,1.84126554772971E-16,1.0));
#327=DIRECTION('',(-0.707106781186548,0.707106781186548,-1.67285933713109E-16));
#328=DIRECTION('',(-5.24514814783537E-17,1.84126554772971E-16,1.0));
#329=DIRECTION('',(-0.707106781186548,0.707106781186548,-1.67285933713109E-16));
#330=DIRECTION('',(-5.24514814783537E-17,1.84126554772971E-16,1.0));
#331=DIRECTION('',(-0.707106781186547,0.707106781186548,-1.67285933713109E-16));
#332=DIRECTION('',(-5.24514814783537E-17,1.84126554772971E-16,1.0));
#333=DIRECTION('',(-0.707106781186547,0.707106781186548,-1.67285933713109E-16));
#334=DIRECTION('',(0.0,0.0,1.0));
#335=DIRECTION('',(-0.707106781186548,-0.707106781186547,0.0));
#336=CARTESIAN_POINT('',(0.0,0.0,0.0));
#339=CARTESIAN_POINT('',(18.89125,1.77635683940025E-15,0.0));
#340=CARTESIAN_POINT('',(23.0608449505675,-3.5527136788005E-15,4.40659301073162E-16));
#341=CARTESIAN_POINT('',(23.1450348517025,0.00186035156249886,4.44683856891579E-16));
#342=CARTESIAN_POINT('',(23.2760688286098,0.0104362455169031,4.49752824124985E-16));
#343=CARTESIAN_POINT('',(23.4510543757295,0.0342167959647455,4.53928781933468E-16));
#344=CARTESIAN_POINT('',(23.6742118534799,0.086108030182773,4.54718282009733E-16));
#345=CARTESIAN_POINT('',(23.8962655619905,0.161262792671174,4.5055635118077E-16));
#346=CARTESIAN_POINT('',(24.1144130358967,0.26015689111825,4.41195908746964E-16));
#347=CARTESIAN_POINT('',(24.3246738952353,0.382544253278869,4.2647993974402E-16));
#348=CARTESIAN_POINT('',(24.5234098183498,0.52739814240992,4.06433585241764E-16));
#349=CARTESIAN_POINT('',(24.7070807501161,0.692919249883886,3.81249652804555E-16));
#350=CARTESIAN_POINT('',(24.8726018575901,0.876590181650201,3.51295877991604E-16));
#351=CARTESIAN_POINT('',(25.0174557467211,1.07532610476471,3.17089121446568E-16));
#352=CARTESIAN_POINT('',(25.1398431088818,1.28558696410322,2.79279665487904E-16));
#353=CARTESIAN_POINT('',(25.2387372073288,1.50373443800956,2.38578985564549E-16));
#354=CARTESIAN_POINT('',(25.3138919698172,1.72578814651973,1.95811456885117E-16));
#355=CARTESIAN_POINT('',(25.3657832040353,1.94894562427149,1.51591541289807E-16));
#356=CARTESIAN_POINT('',(25.3895637544831,2.12393117138883,1.16030254873588E-16));
#357=CARTESIAN_POINT('',(25.3981396484375,2.25496514829746,8.89167753836808E-17));
#358=CARTESIAN_POINT('',(25.4,2.33915504943248,7.13048146165115E-17));
#359=CARTESIAN_POINT('',(25.4,6.50875,3.7470027081099E-17));
#360=CARTESIAN_POINT('',(25.4,10.63625,2.4980018054066E-17));
#361=CARTESIAN_POINT('',(25.4,14.76375,2.49800180540659E-17));
#362=CARTESIAN_POINT('',(25.4,18.89125,3.74700270810989E-17));
#363=CARTESIAN_POINT('',(25.4,23.0608449505675,5.58032181738424E-17));
#364=CARTESIAN_POINT('',(25.3981396484375,23.1450348517025,4.25832561176086E-17));
#365=CARTESIAN_POINT('',(25.3895637544831,23.2760688286098,2.22325910589218E-17));
#366=CARTESIAN_POINT('',(25.3657832040352,23.4510543757295,-4.45577896450593E-18));
#367=CARTESIAN_POINT('',(25.3138919698172,23.6742118534799,-3.7637021379765E-17));
#368=CARTESIAN_POINT('',(25.2387372073288,23.8962655619905,-6.97224675995986E-17));
#369=CARTESIAN_POINT('',(25.1398431088818,24.1144130358967,-1.00250758464599E-16));
#370=CARTESIAN_POINT('',(25.0174557467211,24.3246738952353,-1.28603136101961E-16));
#371=CARTESIAN_POINT('',(24.8726018575901,24.5234098183498,-1.54245777446739E-16));
#372=CARTESIAN_POINT('',(24.7070807501161,24.7070807501161,-1.76690978759238E-16));
#373=CARTESIAN_POINT('',(24.5234098183498,24.8726018575901,-1.95551360905769E-16));
#374=CARTESIAN_POINT('',(24.3246738952353,25.0174557467211,-2.10551621089497E-16));
#375=CARTESIAN_POINT('',(24.1144130358968,25.1398431088817,-2.21547874954522E-16));
#376=CARTESIAN_POINT('',(23.8962655619905,25.2387372073288,-2.28522120388202E-16));
#377=CARTESIAN_POINT('',(23.6742118534803,25.3138919698172,-2.31593172381488E-16));
#378=CARTESIAN_POINT('',(23.4510543757285,25.3657832040352,-2.30947172041656E-16));
#379=CARTESIAN_POINT('',(23.2760688286112,25.3895637544831,-2.27770648536257E-16));
#380=CARTESIAN_POINT('',(23.1450348517025,25.3981396484375,-2.23934298022391E-16));
#381=CARTESIAN_POINT('',(23.0608449505675,25.4,-2.20893135867212E-16));
#382=CARTESIAN_POINT('',(18.89125,25.4,-1.31535407565941E-16));
#383=CARTESIAN_POINT('',(14.76375,25.4,-8.76902717106276E-17));
#384=CARTESIAN_POINT('',(10.63625,25.4,-8.76902717106277E-17));
#385=CARTESIAN_POINT('',(6.50875,25.4,-1.31535407565941E-16));
#386=CARTESIAN_POINT('',(2.33915504943249,25.4,-2.2530902090726E-16));
#387=CARTESIAN_POINT('',(2.25496514829747,25.3981396484375,-2.37084374947011E-16));
#388=CARTESIAN_POINT('',(2.12393117139021,25.3895637544831,-2.54216759543483E-16));
#389=CARTESIAN_POINT('',(1.94894562427053,25.3657832040352,-2.74502460315074E-16));
#390=CARTESIAN_POINT('',(1.72578814652006,25.3138919698172,-2.95836569166347E-16));
#391=CARTESIAN_POINT('',(1.50373443800945,25.2387372073288,-3.12117630498694E-16));
#392=CARTESIAN_POINT('',(1.28558696410326,25.1398431088817,-3.22840559466276E-16));
#393=CARTESIAN_POINT('',(1.07532610476469,25.0174557467211,-3.27481894280138E-16));
#394=CARTESIAN_POINT('',(0.87659018165022,24.8726018575901,-3.25731820194232E-16));
#395=CARTESIAN_POINT('',(0.692919249883882,24.7070807501161,-3.17457235696059E-16));
#396=CARTESIAN_POINT('',(0.527398142409936,24.5234098183498,-3.02741876513801E-16));
#397=CARTESIAN_POINT('',(0.382544253278873,24.3246738952353,-2.81870843744349E-16));
#398=CARTESIAN_POINT('',(0.260156891118246,24.1144130358968,-2.55328769456879E-16));
#399=CARTESIAN_POINT('',(0.161262792671195,23.8962655619905,-2.23732604350743E-16));
#400=CARTESIAN_POINT('',(0.0861080301827624,23.6742118534803,-1.87884069417197E-16));
#401=CARTESIAN_POINT('',(0.034216795964765,23.4510543757285,-1.48441430911627E-16));
#402=CARTESIAN_POINT('',(0.0104362455169067,23.2760688286112,-1.15069459907691E-16));
#403=CARTESIAN_POINT('',(0.00186035156249886,23.1450348517025,-8.87455053217463E-17));
#404=CARTESIAN_POINT('',(0.0,23.0608449505675,-7.13048146165118E-17));
#405=CARTESIAN_POINT('',(0.0,18.89125,-3.74700270810992E-17));
#406=CARTESIAN_POINT('',(0.0,14.76375,-2.49800180540661E-17));
#407=CARTESIAN_POINT('',(0.0,10.63625,-2.49800180540659E-17));
#408=CARTESIAN_POINT('',(3.5527136788005E-15,6.50874999999999,-3.74700270810988E-17));
#409=CARTESIAN_POINT('',(1.77635683940025E-15,2.33915504943248,-5.58032181738421E-17));
#410=CARTESIAN_POINT('',(0.0018603515625113,2.25496514829747,-4.25832561176084E-17));
#411=CARTESIAN_POINT('',(0.0104362455169049,2.12393117139021,-2.22325910589215E-17));
#412=CARTESIAN_POINT('',(0.0342167959647615,1.94894562427052,4.45577896450626E-18));
#413=CARTESIAN_POINT('',(0.0861080301827819,1.72578814652006,3.76370213797653E-17));
#414=CARTESIAN_POINT('',(0.161262792671188,1.50373443800945,6.97224675995992E-17));
#415=CARTESIAN_POINT('',(0.260156891118266,1.28558696410326,1.00250758464599E-16));
#416=CARTESIAN_POINT('',(0.382544253278878,1.07532610476469,1.28603136101962E-16));
#417=CARTESIAN_POINT('',(0.527398142409936,0.876590181650206,1.54245777446739E-16));
#418=CARTESIAN_POINT('',(0.692919249883888,0.692919249883879,1.76690978759239E-16));
#419=CARTESIAN_POINT('',(0.876590181650228,0.52739814240994,1.95551360905769E-16));
#420=CARTESIAN_POINT('',(1.0753261047647,0.382544253278864,2.10551621089498E-16));
#421=CARTESIAN_POINT('',(1.28558696410324,0.260156891118253,2.21547874954523E-16));
#422=CARTESIAN_POINT('',(1.50373443800956,0.161262792671186,2.28522120388202E-16));
#423=CARTESIAN_POINT('',(1.72578814651973,0.0861080301827606,2.31593172381489E-16));
#424=CARTESIAN_POINT('',(1.94894562427151,0.0342167959647579,2.30947172041656E-16));
#425=CARTESIAN_POINT('',(2.12393117138882,0.0104362455168996,2.27770648536258E-16));
#426=CARTESIAN_POINT('',(2.25496514829747,0.00186035156249886,2.23934298022391E-16));
#427=CARTESIAN_POINT('',(2.33915504943249,0.0,2.20893135867212E-16));
#428=CARTESIAN_POINT('',(6.50875,0.0,1.31535407565941E-16));
#429=CARTESIAN_POINT('',(10.63625,0.0,6.57677037829707E-17));
#430=CARTESIAN_POINT('',(14.76375,1.77635683940025E-15,2.19225679276569E-17));
#431=CARTESIAN_POINT('',(18.89125,1.77635683940025E-15,0.0));
#432=CARTESIAN_POINT('',(23.0608449505675,-3.5527136788005E-15,4.40659301073162E-16));
#433=CARTESIAN_POINT('',(0.0,0.0,0.0));
#434=CARTESIAN_POINT('',(12.7,12.7,0.0));
#435=CARTESIAN_POINT('',(12.7,12.7,-9.525));
#436=CARTESIAN_POINT('',(9.47594663117994,9.47594663117994,-9.525));
#437=CARTESIAN_POINT('',(12.7,25.4,-9.525));
#438=CARTESIAN_POINT('',(2.38125,25.4,-9.525));
#439=CARTESIAN_POINT('',(23.01875,25.4,-9.525));
#440=CARTESIAN_POINT('',(23.01875,23.01875,-9.525));
#441=CARTESIAN_POINT('',(25.4,23.01875,-9.525));
#442=CARTESIAN_POINT('',(25.4,12.7,-9.525));
#443=CARTESIAN_POINT('',(25.4,2.38124999999999,-9.525));
#444=CARTESIAN_POINT('',(23.01875,2.38124999999999,-9.525));
#445=CARTESIAN_POINT('',(23.01875,-3.46944695195361E-15,-9.525));
#446=CARTESIAN_POINT('',(12.7,-3.46944695195361E-15,-9.525));
#447=CARTESIAN_POINT('',(2.38125,0.0,-9.525));
#448=CARTESIAN_POINT('',(2.38125,2.38124999999999,-9.525));
#449=CARTESIAN_POINT('',(1.73472347597681E-15,2.38124999999999,-9.525));
#450=CARTESIAN_POINT('',(0.0,12.7,-9.525));
#451=CARTESIAN_POINT('',(-1.73472347597681E-15,23.01875,-9.525));
#452=CARTESIAN_POINT('',(2.38125,23.01875,-9.525));
#453=CARTESIAN_POINT('',(12.7,12.1696699141101,-9.525));
#454=CARTESIAN_POINT('',(12.7,25.4,-5.27182464349352E-15));
#455=CARTESIAN_POINT('',(23.01875,25.4,-4.73059091898875E-15));
#456=CARTESIAN_POINT('',(2.38125,25.4,-5.81305836799828E-15));
#457=CARTESIAN_POINT('',(23.01875,25.4,-5.20417042793042E-15));
#458=CARTESIAN_POINT('',(2.38125,25.4,-6.93889390390723E-15));
#459=CARTESIAN_POINT('',(12.7,25.4,-5.27182464349352E-15));
#460=CARTESIAN_POINT('',(0.0,2.38124999999999,-1.73472347597681E-15));
#461=CARTESIAN_POINT('',(0.0,2.38124999999999,-1.69959532558828E-15));
#462=CARTESIAN_POINT('',(0.0,12.7,-3.59955121265187E-15));
#463=CARTESIAN_POINT('',(-1.73472347597681E-15,23.01875,-5.49950709971547E-15));
#464=CARTESIAN_POINT('',(-1.73472347597681E-15,23.01875,-5.20417042793042E-15));
#465=CARTESIAN_POINT('',(0.0,12.7,-3.59955121265187E-15));
#466=CARTESIAN_POINT('',(23.01875,-1.73472347597681E-15,-9.62964972193618E-32));
#467=CARTESIAN_POINT('',(23.01875,-1.73472347597681E-15,-5.37764277552841E-17));
#468=CARTESIAN_POINT('',(12.7,3.46944695195361E-15,-5.95010152260047E-16));
#469=CARTESIAN_POINT('',(2.38125,0.0,-1.13624387676481E-15));
#470=CARTESIAN_POINT('',(2.38125,0.0,-1.73472347597681E-15));
#471=CARTESIAN_POINT('',(12.7,0.0,-5.95010152260047E-16));
#472=CARTESIAN_POINT('',(25.4,23.01875,-5.20417042793042E-15));
#473=CARTESIAN_POINT('',(25.4,23.01875,-4.16723947016529E-15));
#474=CARTESIAN_POINT('',(25.4,12.7,-2.26728358310169E-15));
#475=CARTESIAN_POINT('',(25.4,2.38125,-3.67327696038092E-16));
#476=CARTESIAN_POINT('',(25.4,2.38125,-1.73472347597681E-15));
#477=CARTESIAN_POINT('',(25.4,12.7,-2.26728358310169E-15));
#478=CARTESIAN_POINT('',(12.7,12.7,0.0));
#479=CARTESIAN_POINT('',(9.47594663117994,9.47594663117994,0.0));
#480=CARTESIAN_POINT('',(23.01875,23.01875,-4.29213956043562E-15));
#481=CARTESIAN_POINT('',(2.38125,23.01875,-5.37460700944514E-15));
#482=CARTESIAN_POINT('',(2.38125,2.38125,-1.57469523531795E-15));
#483=CARTESIAN_POINT('',(23.01875,2.38125,-4.92227786308422E-16));
#484=CARTESIAN_POINT('',(12.7,12.7,-2.93341739787678E-15));
#485=CARTESIAN_POINT('',(23.01875,23.01875,-5.20417042793042E-15));
#486=CARTESIAN_POINT('',(23.01875,2.38125,-1.73472347597681E-15));
#487=CARTESIAN_POINT('',(2.38125,2.38125,-1.73472347597681E-15));
#488=CARTESIAN_POINT('',(2.38125,23.01875,-5.20417042793042E-15));
#489=CARTESIAN_POINT('',(12.7,12.7,-33.3676978394524));
#490=MECHANICAL_DESIGN_GEOMETRIC_PRESENTATION_REPRESENTATION('',(#232,#233,#234,
     #235),#491);
#491=(GEOMETRIC_REPRESENTATION_CONTEXT(3)GLOBAL_UNCERTAINTY_ASSIGNED_CONTEXT((#492))
     GLOBAL_UNIT_ASSIGNED_CONTEXT((#498,#494,#493))REPRESENTATION_CONTEXT('SNMM250924',
     'TOP_LEVEL_ASSEMBLY_PART'));
#492=UNCERTAINTY_MEASURE_WITH_UNIT(LENGTH_MEASURE(2.0E-5),#498,'DISTANCE_ACCURACY_VALUE',
     'Maximum Tolerance applied to model');
#493=(NAMED_UNIT(*)SI_UNIT($,.STERADIAN.)SOLID_ANGLE_UNIT());
#494=(CONVERSION_BASED_UNIT('DEGREE',#496)NAMED_UNIT(#495)PLANE_ANGLE_UNIT());
#495=DIMENSIONAL_EXPONENTS(0.0,0.0,0.0,0.0,0.0,0.0,0.0);
#496=PLANE_ANGLE_MEASURE_WITH_UNIT(PLANE_ANGLE_MEASURE(0.0174532925),#497);
#497=(NAMED_UNIT(*)PLANE_ANGLE_UNIT()SI_UNIT($,.RADIAN.));
#498=(LENGTH_UNIT()NAMED_UNIT(*)SI_UNIT(.MILLI.,.METRE.));
#499=CONSTRUCTIVE_GEOMETRY_REPRESENTATION('supplemental geometry',(#249,#250),#491);
#500=CONSTRUCTIVE_GEOMETRY_REPRESENTATION_RELATIONSHIP('supplemental geometry','contains PCS and MCS coordinate systems',
     #24,#499);
ENDSEC;
END-ISO-10303-21;
