ISO-10303-21;
HEADER;
FILE_DESCRIPTION(
/* description */ (''),
/* implementation_level */ '2;1');
FILE_NAME(
/* name */ 'VBMT110308.stp',
/* time_stamp */ '2017-03-21T10:54:44',
/* author */ ('Sandvik Coromant R&D'),
/* organization */ ('Sandvik Machining Solutions'),
/* preprocessor_version */ 'ST-DEVELOPER v15',
/* originating_system */ 'SIEMENS PLM Software NX v8.5.3.3(64 bits)',
/* authorization */ '');
FILE_SCHEMA(('AUTOMOTIVE_DESIGN'));
ENDSEC;
DATA;
#10=GEOMETRICALLY_BOUNDED_WIREFRAME_SHAPE_REPRESENTATION('IsoTurningInsert-None',
     (#25),#523);
#11=SHAPE_REPRESENTATION_RELATIONSHIP('None','relationship between IsoTurningInsert-None and IsoTurningInsert-None',
     #24,#13);
#12=SHAPE_REPRESENTATION_RELATIONSHIP('None','relationship between IsoTurningInsert-None and IsoTurningInsert-None',
     #24,#10);
#13=ADVANCED_BREP_SHAPE_REPRESENTATION('IsoTurningInsert-None',(#31),#523);
#14=SHAPE_DEFINITION_REPRESENTATION(#15,#24);
#15=PRODUCT_DEFINITION_SHAPE('','',#16);
#16=PRODUCT_DEFINITION(' ','',#18,#17);
#17=PRODUCT_DEFINITION_CONTEXT('part definition',#23,'design');
#18=PRODUCT_DEFINITION_FORMATION_WITH_SPECIFIED_SOURCE(' ',' ',#20,.NOT_KNOWN.);
#19=PRODUCT_RELATED_PRODUCT_CATEGORY('part','',(#20));
#20=PRODUCT('IsoTurningInsert','IsoTurningInsert',' ',(#21));
#21=PRODUCT_CONTEXT(' ',#23,'mechanical');
#22=APPLICATION_PROTOCOL_DEFINITION('international standard','automotive_design',
     2010,#23);
#23=APPLICATION_CONTEXT('core data for automotive mechanical design processes');
#24=SHAPE_REPRESENTATION('IsoTurningInsert-None',(#281),#523);
#25=GEOMETRIC_CURVE_SET('geometric curve set',(#261));
#26=SURFACE_STYLE_USAGE(.BOTH.,#27);
#27=SURFACE_SIDE_STYLE('',(#28));
#28=SURFACE_STYLE_FILL_AREA(#29);
#29=FILL_AREA_STYLE('',(#30));
#30=FILL_AREA_STYLE_COLOUR('',#280);
#31=MANIFOLD_SOLID_BREP('CUT',#32);
#32=CLOSED_SHELL('',(#49,#50,#51,#52,#53,#54,#55,#56,#57,#58,#59,#60,#61,#62));
#33=CYLINDRICAL_SURFACE('',#309,1.4);
#34=TOROIDAL_SURFACE('',#308,3.9,2.5);
#35=TOROIDAL_SURFACE('',#310,1.38569981785225,0.5);
#36=CONICAL_SURFACE('',#300,0.793750000000002,5.0);
#37=CONICAL_SURFACE('',#301,0.793750000000002,5.0);
#38=CONICAL_SURFACE('',#302,0.793750000000002,5.0);
#39=CONICAL_SURFACE('',#303,0.793750000000002,5.0);
#40=CONICAL_SURFACE('',#305,1.87499999997636,4.00000000179052);
#41=FACE_OUTER_BOUND('',#115,.T.);
#42=FACE_OUTER_BOUND('',#116,.T.);
#43=FACE_OUTER_BOUND('',#117,.T.);
#44=FACE_OUTER_BOUND('',#118,.T.);
#45=FACE_OUTER_BOUND('',#121,.T.);
#46=FACE_OUTER_BOUND('',#122,.T.);
#47=FACE_OUTER_BOUND('',#123,.T.);
#48=FACE_OUTER_BOUND('',#124,.T.);
#49=ADVANCED_FACE('',(#101,#102),#63,.F.);
#50=ADVANCED_FACE('',(#41),#64,.F.);
#51=ADVANCED_FACE('',(#42),#65,.F.);
#52=ADVANCED_FACE('',(#43),#66,.F.);
#53=ADVANCED_FACE('',(#44),#67,.F.);
#54=ADVANCED_FACE('',(#103,#104),#68,.T.);
#55=ADVANCED_FACE('',(#45),#36,.T.);
#56=ADVANCED_FACE('',(#46),#37,.T.);
#57=ADVANCED_FACE('',(#47),#38,.T.);
#58=ADVANCED_FACE('',(#48),#39,.T.);
#59=ADVANCED_FACE('',(#105,#106),#40,.F.);
#60=ADVANCED_FACE('',(#107,#108),#34,.T.);
#61=ADVANCED_FACE('',(#109,#110),#33,.F.);
#62=ADVANCED_FACE('',(#111,#112),#35,.F.);
#63=PLANE('',#289);
#64=PLANE('',#290);
#65=PLANE('',#291);
#66=PLANE('',#292);
#67=PLANE('',#293);
#68=PLANE('',#299);
#69=LINE('',#460,#85);
#70=LINE('',#465,#86);
#71=LINE('',#469,#87);
#72=LINE('',#473,#88);
#73=LINE('',#477,#89);
#74=LINE('',#480,#90);
#75=LINE('',#481,#91);
#76=LINE('',#483,#92);
#77=LINE('',#485,#93);
#78=LINE('',#487,#94);
#79=LINE('',#489,#95);
#80=LINE('',#491,#96);
#81=LINE('',#493,#97);
#82=LINE('',#495,#98);
#83=LINE('',#497,#99);
#84=LINE('',#499,#100);
#85=VECTOR('',#319,1.0);
#86=VECTOR('',#322,1.0);
#87=VECTOR('',#325,1.0);
#88=VECTOR('',#328,1.0);
#89=VECTOR('',#333,1.0);
#90=VECTOR('',#334,1.0);
#91=VECTOR('',#335,1.0);
#92=VECTOR('',#338,1.0);
#93=VECTOR('',#339,1.0);
#94=VECTOR('',#340,1.0);
#95=VECTOR('',#343,1.0);
#96=VECTOR('',#344,1.0);
#97=VECTOR('',#345,1.0);
#98=VECTOR('',#348,1.0);
#99=VECTOR('',#349,1.0);
#100=VECTOR('',#350,1.0);
#101=FACE_BOUND('',#113,.T.);
#102=FACE_BOUND('',#114,.T.);
#103=FACE_BOUND('',#119,.T.);
#104=FACE_BOUND('',#120,.T.);
#105=FACE_BOUND('',#125,.T.);
#106=FACE_BOUND('',#126,.T.);
#107=FACE_BOUND('',#127,.T.);
#108=FACE_BOUND('',#128,.T.);
#109=FACE_BOUND('',#129,.T.);
#110=FACE_BOUND('',#130,.T.);
#111=FACE_BOUND('',#131,.T.);
#112=FACE_BOUND('',#132,.T.);
#113=EDGE_LOOP('',(#133));
#114=EDGE_LOOP('',(#134,#135,#136,#137,#138,#139,#140,#141));
#115=EDGE_LOOP('',(#142,#143,#144,#145));
#116=EDGE_LOOP('',(#146,#147,#148,#149));
#117=EDGE_LOOP('',(#150,#151,#152,#153));
#118=EDGE_LOOP('',(#154,#155,#156,#157));
#119=EDGE_LOOP('',(#158));
#120=EDGE_LOOP('',(#159,#160,#161,#162,#163,#164,#165,#166));
#121=EDGE_LOOP('',(#167,#168,#169,#170));
#122=EDGE_LOOP('',(#171,#172,#173,#174));
#123=EDGE_LOOP('',(#175,#176,#177,#178));
#124=EDGE_LOOP('',(#179,#180,#181,#182));
#125=EDGE_LOOP('',(#183));
#126=EDGE_LOOP('',(#184));
#127=EDGE_LOOP('',(#185));
#128=EDGE_LOOP('',(#186));
#129=EDGE_LOOP('',(#187));
#130=EDGE_LOOP('',(#188));
#131=EDGE_LOOP('',(#189));
#132=EDGE_LOOP('',(#190));
#133=ORIENTED_EDGE('',*,*,#212,.T.);
#134=ORIENTED_EDGE('',*,*,#213,.T.);
#135=ORIENTED_EDGE('',*,*,#214,.T.);
#136=ORIENTED_EDGE('',*,*,#215,.T.);
#137=ORIENTED_EDGE('',*,*,#216,.T.);
#138=ORIENTED_EDGE('',*,*,#217,.T.);
#139=ORIENTED_EDGE('',*,*,#218,.T.);
#140=ORIENTED_EDGE('',*,*,#219,.T.);
#141=ORIENTED_EDGE('',*,*,#220,.T.);
#142=ORIENTED_EDGE('',*,*,#221,.F.);
#143=ORIENTED_EDGE('',*,*,#222,.T.);
#144=ORIENTED_EDGE('',*,*,#213,.F.);
#145=ORIENTED_EDGE('',*,*,#223,.T.);
#146=ORIENTED_EDGE('',*,*,#219,.F.);
#147=ORIENTED_EDGE('',*,*,#224,.T.);
#148=ORIENTED_EDGE('',*,*,#225,.F.);
#149=ORIENTED_EDGE('',*,*,#226,.T.);
#150=ORIENTED_EDGE('',*,*,#217,.F.);
#151=ORIENTED_EDGE('',*,*,#227,.T.);
#152=ORIENTED_EDGE('',*,*,#228,.F.);
#153=ORIENTED_EDGE('',*,*,#229,.T.);
#154=ORIENTED_EDGE('',*,*,#215,.F.);
#155=ORIENTED_EDGE('',*,*,#230,.T.);
#156=ORIENTED_EDGE('',*,*,#231,.F.);
#157=ORIENTED_EDGE('',*,*,#232,.T.);
#158=ORIENTED_EDGE('',*,*,#233,.F.);
#159=ORIENTED_EDGE('',*,*,#231,.T.);
#160=ORIENTED_EDGE('',*,*,#234,.T.);
#161=ORIENTED_EDGE('',*,*,#221,.T.);
#162=ORIENTED_EDGE('',*,*,#235,.T.);
#163=ORIENTED_EDGE('',*,*,#225,.T.);
#164=ORIENTED_EDGE('',*,*,#236,.T.);
#165=ORIENTED_EDGE('',*,*,#228,.T.);
#166=ORIENTED_EDGE('',*,*,#237,.T.);
#167=ORIENTED_EDGE('',*,*,#214,.F.);
#168=ORIENTED_EDGE('',*,*,#222,.F.);
#169=ORIENTED_EDGE('',*,*,#234,.F.);
#170=ORIENTED_EDGE('',*,*,#230,.F.);
#171=ORIENTED_EDGE('',*,*,#216,.F.);
#172=ORIENTED_EDGE('',*,*,#232,.F.);
#173=ORIENTED_EDGE('',*,*,#237,.F.);
#174=ORIENTED_EDGE('',*,*,#227,.F.);
#175=ORIENTED_EDGE('',*,*,#218,.F.);
#176=ORIENTED_EDGE('',*,*,#229,.F.);
#177=ORIENTED_EDGE('',*,*,#236,.F.);
#178=ORIENTED_EDGE('',*,*,#224,.F.);
#179=ORIENTED_EDGE('',*,*,#220,.F.);
#180=ORIENTED_EDGE('',*,*,#226,.F.);
#181=ORIENTED_EDGE('',*,*,#235,.F.);
#182=ORIENTED_EDGE('',*,*,#223,.F.);
#183=ORIENTED_EDGE('',*,*,#238,.T.);
#184=ORIENTED_EDGE('',*,*,#233,.T.);
#185=ORIENTED_EDGE('',*,*,#239,.T.);
#186=ORIENTED_EDGE('',*,*,#240,.T.);
#187=ORIENTED_EDGE('',*,*,#240,.F.);
#188=ORIENTED_EDGE('',*,*,#212,.F.);
#189=ORIENTED_EDGE('',*,*,#239,.F.);
#190=ORIENTED_EDGE('',*,*,#238,.F.);
#191=VERTEX_POINT('',#459);
#192=VERTEX_POINT('',#461);
#193=VERTEX_POINT('',#462);
#194=VERTEX_POINT('',#464);
#195=VERTEX_POINT('',#466);
#196=VERTEX_POINT('',#468);
#197=VERTEX_POINT('',#470);
#198=VERTEX_POINT('',#472);
#199=VERTEX_POINT('',#474);
#200=VERTEX_POINT('',#478);
#201=VERTEX_POINT('',#479);
#202=VERTEX_POINT('',#484);
#203=VERTEX_POINT('',#486);
#204=VERTEX_POINT('',#490);
#205=VERTEX_POINT('',#492);
#206=VERTEX_POINT('',#496);
#207=VERTEX_POINT('',#498);
#208=VERTEX_POINT('',#502);
#209=VERTEX_POINT('',#513);
#210=VERTEX_POINT('',#516);
#211=VERTEX_POINT('',#518);
#212=EDGE_CURVE('',#191,#191,#241,.T.);
#213=EDGE_CURVE('',#192,#193,#69,.T.);
#214=EDGE_CURVE('',#193,#194,#242,.T.);
#215=EDGE_CURVE('',#194,#195,#70,.T.);
#216=EDGE_CURVE('',#195,#196,#243,.T.);
#217=EDGE_CURVE('',#196,#197,#71,.T.);
#218=EDGE_CURVE('',#197,#198,#244,.T.);
#219=EDGE_CURVE('',#198,#199,#72,.T.);
#220=EDGE_CURVE('',#199,#192,#245,.T.);
#221=EDGE_CURVE('',#200,#201,#73,.T.);
#222=EDGE_CURVE('',#200,#193,#74,.T.);
#223=EDGE_CURVE('',#192,#201,#75,.T.);
#224=EDGE_CURVE('',#198,#202,#76,.T.);
#225=EDGE_CURVE('',#203,#202,#77,.T.);
#226=EDGE_CURVE('',#203,#199,#78,.T.);
#227=EDGE_CURVE('',#196,#204,#79,.T.);
#228=EDGE_CURVE('',#205,#204,#80,.T.);
#229=EDGE_CURVE('',#205,#197,#81,.T.);
#230=EDGE_CURVE('',#194,#206,#82,.T.);
#231=EDGE_CURVE('',#207,#206,#83,.T.);
#232=EDGE_CURVE('',#207,#195,#84,.T.);
#233=EDGE_CURVE('',#208,#208,#246,.T.);
#234=EDGE_CURVE('',#206,#200,#247,.T.);
#235=EDGE_CURVE('',#201,#203,#248,.T.);
#236=EDGE_CURVE('',#202,#205,#249,.T.);
#237=EDGE_CURVE('',#204,#207,#250,.T.);
#238=EDGE_CURVE('',#209,#209,#251,.T.);
#239=EDGE_CURVE('',#210,#210,#252,.T.);
#240=EDGE_CURVE('',#211,#211,#253,.T.);
#241=CIRCLE('',#284,1.4);
#242=CIRCLE('',#285,0.515973493305194);
#243=CIRCLE('',#286,0.515973493305193);
#244=CIRCLE('',#287,0.515973493305193);
#245=CIRCLE('',#288,0.515973493305194);
#246=CIRCLE('',#294,1.92255023212159);
#247=CIRCLE('',#295,0.793750000000002);
#248=CIRCLE('',#296,0.793750000000002);
#249=CIRCLE('',#297,0.793750000000002);
#250=CIRCLE('',#298,0.793750000000002);
#251=CIRCLE('',#304,1.88448184298103);
#252=CIRCLE('',#306,1.80474984821024);
#253=CIRCLE('',#307,1.4);
#254=CURVE_STYLE('',#258,POSITIVE_LENGTH_MEASURE(0.18),#257);
#255=CURVE_STYLE('',#259,POSITIVE_LENGTH_MEASURE(0.18),#279);
#256=CURVE_STYLE('',#260,POSITIVE_LENGTH_MEASURE(0.18),#279);
#257=DRAUGHTING_PRE_DEFINED_COLOUR('blue');
#258=DRAUGHTING_PRE_DEFINED_CURVE_FONT('continuous');
#259=DRAUGHTING_PRE_DEFINED_CURVE_FONT('continuous');
#260=DRAUGHTING_PRE_DEFINED_CURVE_FONT('continuous');
#261=B_SPLINE_CURVE_WITH_KNOTS('CUTTING EDGE LINE',5,(#390,#391,#392,#393,#394,#395,
     #396,#397,#398,#399,#400,#401,#402,#403,#404,#405,#406,#407,#408,#409,#410,
     #411,#412,#413,#414,#415,#416,#417,#418,#419,#420,#421,#422,#423,#424,#425,
     #426,#427,#428,#429,#430,#431,#432,#433,#434,#435,#436,#437,#438,#439,#440,
     #441,#442,#443,#444,#445,#446,#447,#448,#449,#450,#451,#452,#453,#454,#455),
     .UNSPECIFIED.,.T.,.F.,(2,4,1,4,4,1,1,1,1,1,1,1,1,1,1,1,1,1,1,1,4,4,1,4,4,1,
     1,1,1,1,1,1,1,1,1,1,1,1,1,1,4,4,1,1),(-0.2173606925,0.0,0.00634653200000002,
     0.012693064,0.2300537564,0.23334035334375,0.2366269502875,0.23991354723125,
     0.243200144175029,0.24648674111875,0.2497733380625,0.25305993500625,0.256346531950076,
     0.25963312889375,0.2629197258375,0.26620632278125,0.269492919725,0.27277951666875,
     0.2760661136125,0.27935271055625,0.2826393075,0.5,0.506346532,0.512693064,0.7300537564,
     0.73334035334375,0.7366269502875,0.73991354723125,0.743200144175029,0.74648674111875,
     0.7497733380625,0.75305993500625,0.756346531950076,0.75963312889375,0.7629197258375,
     0.76620632278125,0.769492919725036,0.77277951666875,0.7760661136125,0.77935271055625,
     0.7826393075,1.0,1.006346532,1.012693064),.UNSPECIFIED.);
#262=PRESENTATION_LAYER_ASSIGNMENT('1','Layer 1',(#261,#282,#283,#31));
#265=STYLED_ITEM('',(#271),#261);
#266=STYLED_ITEM('',(#272),#282);
#267=STYLED_ITEM('',(#273),#283);
#268=STYLED_ITEM('',(#274),#31);
#269=PRESENTATION_STYLE_ASSIGNMENT((#275));
#270=PRESENTATION_STYLE_ASSIGNMENT((#276));
#271=PRESENTATION_STYLE_ASSIGNMENT((#254));
#272=PRESENTATION_STYLE_ASSIGNMENT((#255));
#273=PRESENTATION_STYLE_ASSIGNMENT((#256));
#274=PRESENTATION_STYLE_ASSIGNMENT((#26));
#275=POINT_STYLE('',#277,POSITIVE_LENGTH_MEASURE(3.0),#279);
#276=POINT_STYLE('',#278,POSITIVE_LENGTH_MEASURE(3.0),#279);
#277=PRE_DEFINED_POINT_MARKER_SYMBOL('plus');
#278=PRE_DEFINED_POINT_MARKER_SYMBOL('plus');
#279=COLOUR_RGB('Medium Maroon',0.6,0.4,0.4);
#280=COLOUR_RGB('IsoInsertColor',0.8,0.8,0.8);
#281=AXIS2_PLACEMENT_3D('',#387,#311,#312);
#282=AXIS2_PLACEMENT_3D('PCS',#456,#313,#314);
#283=AXIS2_PLACEMENT_3D('MCS',#457,#315,#316);
#284=AXIS2_PLACEMENT_3D('',#458,#317,#318);
#285=AXIS2_PLACEMENT_3D('',#463,#320,#321);
#286=AXIS2_PLACEMENT_3D('',#467,#323,#324);
#287=AXIS2_PLACEMENT_3D('',#471,#326,#327);
#288=AXIS2_PLACEMENT_3D('',#475,#329,#330);
#289=AXIS2_PLACEMENT_3D('',#476,#331,#332);
#290=AXIS2_PLACEMENT_3D('',#482,#336,#337);
#291=AXIS2_PLACEMENT_3D('',#488,#341,#342);
#292=AXIS2_PLACEMENT_3D('',#494,#346,#347);
#293=AXIS2_PLACEMENT_3D('',#500,#351,#352);
#294=AXIS2_PLACEMENT_3D('',#501,#353,#354);
#295=AXIS2_PLACEMENT_3D('',#503,#355,#356);
#296=AXIS2_PLACEMENT_3D('',#504,#357,#358);
#297=AXIS2_PLACEMENT_3D('',#505,#359,#360);
#298=AXIS2_PLACEMENT_3D('',#506,#361,#362);
#299=AXIS2_PLACEMENT_3D('',#507,#363,#364);
#300=AXIS2_PLACEMENT_3D('',#508,#365,#366);
#301=AXIS2_PLACEMENT_3D('',#509,#367,#368);
#302=AXIS2_PLACEMENT_3D('',#510,#369,#370);
#303=AXIS2_PLACEMENT_3D('',#511,#371,#372);
#304=AXIS2_PLACEMENT_3D('',#512,#373,#374);
#305=AXIS2_PLACEMENT_3D('',#514,#375,#376);
#306=AXIS2_PLACEMENT_3D('',#515,#377,#378);
#307=AXIS2_PLACEMENT_3D('',#517,#379,#380);
#308=AXIS2_PLACEMENT_3D('',#519,#381,#382);
#309=AXIS2_PLACEMENT_3D('',#520,#383,#384);
#310=AXIS2_PLACEMENT_3D('',#521,#385,#386);
#311=DIRECTION('',(0.0,0.0,1.0));
#312=DIRECTION('',(1.0,0.0,0.0));
#313=DIRECTION('',(0.0,0.0,1.0));
#314=DIRECTION('',(1.0,0.0,0.0));
#315=DIRECTION('',(0.0,0.0,1.0));
#316=DIRECTION('',(1.0,0.0,0.0));
#317=DIRECTION('',(0.0,0.0,1.0));
#318=DIRECTION('',(-0.953716950748227,-0.300705799504273,0.0));
#319=DIRECTION('',(1.0,1.11022302462516E-16,0.0));
#320=DIRECTION('',(0.0,0.0,-1.0));
#321=DIRECTION('',(-0.953716950748226,-0.300705799504273,0.0));
#322=DIRECTION('',(-0.819152044288991,-0.573576436351048,0.0));
#323=DIRECTION('',(0.0,0.0,-1.0));
#324=DIRECTION('',(-0.953716950748227,-0.300705799504273,0.0));
#325=DIRECTION('',(-1.0,-2.22044604925031E-16,0.0));
#326=DIRECTION('',(0.0,0.0,-1.0));
#327=DIRECTION('',(-0.953716950748227,-0.300705799504274,0.0));
#328=DIRECTION('',(0.819152044288991,0.573576436351047,0.0));
#329=DIRECTION('',(0.0,0.0,-1.0));
#330=DIRECTION('',(-0.953716950748226,-0.300705799504273,0.0));
#331=DIRECTION('',(0.0,0.0,1.0));
#332=DIRECTION('',(-0.953716950748227,-0.300705799504274,0.0));
#333=DIRECTION('',(-1.0,-5.55111512312578E-17,-1.24282216252114E-16));
#334=DIRECTION('',(1.2490009027033E-16,-0.087155742747659,-0.996194698091745));
#335=DIRECTION('',(-1.2490009027033E-16,0.087155742747659,0.996194698091745));
#336=DIRECTION('',(5.55111512312578E-17,-0.996194698091746,0.087155742747659));
#337=DIRECTION('',(1.0,1.11022302462516E-16,0.0));
#338=DIRECTION('',(-0.0499904803327305,0.0713938048432704,0.996194698091745));
#339=DIRECTION('',(-0.819152044288991,-0.573576436351047,4.19233686243495E-16));
#340=DIRECTION('',(0.0499904803327305,-0.0713938048432704,-0.996194698091745));
#341=DIRECTION('',(0.571393804843271,-0.816034923451707,0.0871557427476589));
#342=DIRECTION('',(0.819152044288991,0.573576436351047,0.0));
#343=DIRECTION('',(-1.04083408558608E-16,-0.0871557427476572,0.996194698091746));
#344=DIRECTION('',(1.0,1.66533453693773E-16,1.19425619820105E-16));
#345=DIRECTION('',(1.04083408558608E-16,0.0871557427476572,-0.996194698091746));
#346=DIRECTION('',(-1.11022302462516E-16,0.996194698091746,0.0871557427476572));
#347=DIRECTION('',(-1.0,-2.22044604925031E-16,0.0));
#348=DIRECTION('',(0.0499904803327303,-0.0713938048432686,0.996194698091746));
#349=DIRECTION('',(0.819152044288991,0.573576436351048,-4.24090282675503E-16));
#350=DIRECTION('',(-0.0499904803327303,0.0713938048432686,-0.996194698091746));
#351=DIRECTION('',(-0.571393804843271,0.816034923451708,0.0871557427476573));
#352=DIRECTION('',(-0.819152044288991,-0.573576436351048,0.0));
#353=DIRECTION('',(0.0,0.0,1.0));
#354=DIRECTION('',(-0.953716950748227,-0.300705799504273,0.0));
#355=DIRECTION('',(-1.20339735310749E-16,9.08369172207804E-16,1.0));
#356=DIRECTION('',(-0.300705799504272,0.953716950748227,-9.02513933390469E-16));
#357=DIRECTION('',(-1.20339735310749E-16,9.08369172207804E-16,1.0));
#358=DIRECTION('',(-0.300705799504274,0.953716950748227,-9.02513933390469E-16));
#359=DIRECTION('',(-1.20339735310749E-16,9.08369172207804E-16,1.0));
#360=DIRECTION('',(-0.300705799504273,0.953716950748227,-9.02513933390468E-16));
#361=DIRECTION('',(-1.20339735310749E-16,9.08369172207804E-16,1.0));
#362=DIRECTION('',(-0.300705799504274,0.953716950748227,-9.02513933390468E-16));
#363=DIRECTION('',(-1.20339735310749E-16,9.08369172207804E-16,1.0));
#364=DIRECTION('',(-0.300705799504274,0.953716950748227,-9.02513933390468E-16));
#365=DIRECTION('',(-1.20339735310749E-16,9.08369172207804E-16,1.0));
#366=DIRECTION('',(-0.300705799504274,0.953716950748227,-1.20845692263778E-15));
#367=DIRECTION('',(-1.20339735310749E-16,9.08369172207804E-16,1.0));
#368=DIRECTION('',(-0.300705799504274,0.953716950748227,-1.24775633475608E-15));
#369=DIRECTION('',(-1.20339735310749E-16,9.08369172207804E-16,1.0));
#370=DIRECTION('',(-0.300705799504274,0.953716950748227,-1.2379314817265E-15));
#371=DIRECTION('',(-1.20339735310749E-16,9.08369172207804E-16,1.0));
#372=DIRECTION('',(-0.300705799504274,0.953716950748227,-1.1986320696082E-15));
#373=DIRECTION('',(0.0,0.0,-1.0));
#374=DIRECTION('',(0.953716950748227,0.300705799504274,0.0));
#375=DIRECTION('',(0.0,0.0,1.0));
#376=DIRECTION('',(-0.953716950748227,-0.300705799504274,-9.66395375416688E-17));
#377=DIRECTION('',(0.0,0.0,1.0));
#378=DIRECTION('',(0.953716950748227,0.300705799504273,0.0));
#379=DIRECTION('',(0.0,0.0,-1.0));
#380=DIRECTION('',(-0.953716950748227,-0.300705799504274,0.0));
#381=DIRECTION('',(0.0,0.0,1.0));
#382=DIRECTION('',(-0.953716950748227,-0.300705799504274,0.0));
#383=DIRECTION('',(0.0,0.0,1.0));
#384=DIRECTION('',(-0.953716950748226,-0.300705799504274,0.0));
#385=DIRECTION('',(0.0,0.0,-1.0));
#386=DIRECTION('',(0.953716950748226,0.300705799504274,0.0));
#387=CARTESIAN_POINT('',(0.0,0.0,0.0));
#390=CARTESIAN_POINT('',(9.15998566569218,-3.10862446895044E-15,9.86076131526265E-32));
#391=CARTESIAN_POINT('',(10.8683557841926,-3.10862446895044E-15,7.26762693880548E-16));
#392=CARTESIAN_POINT('',(10.9638298755352,0.00717740324227734,7.31732288919959E-16));
#393=CARTESIAN_POINT('',(11.0617551413304,0.0289630381901445,7.25984159778502E-16));
#394=CARTESIAN_POINT('',(11.1544665498511,0.0672849157699886,6.63253215973546E-16));
#395=CARTESIAN_POINT('',(11.2367911363249,0.116167220307537,4.68966858166344E-16));
#396=CARTESIAN_POINT('',(12.6362060112968,1.09604806484561,6.45411222600559E-17));
#397=CARTESIAN_POINT('',(13.9965169877186,2.04854806484561,-5.91645678915759E-32));
#398=CARTESIAN_POINT('',(15.3568279641405,3.00104806484562,-7.88860905221012E-32));
#399=CARTESIAN_POINT('',(16.7171389405624,3.95354806484562,6.45411222600558E-17));
#400=CARTESIAN_POINT('',(18.0966734508663,4.91950852818087,3.45062457472032E-16));
#401=CARTESIAN_POINT('',(18.1341256059002,4.9478503374839,3.81383116642395E-16));
#402=CARTESIAN_POINT('',(18.1899403166557,4.99677117769793,4.16017380456405E-16));
#403=CARTESIAN_POINT('',(18.2565082612219,5.07084485880733,4.22512972082939E-16));
#404=CARTESIAN_POINT('',(18.3268919306301,5.17951270547637,3.8339081473015E-16));
#405=CARTESIAN_POINT('',(18.3788488224207,5.29930481058983,3.07769762795648E-16));
#406=CARTESIAN_POINT('',(18.410582931826,5.42638342754162,2.0853125242247E-16));
#407=CARTESIAN_POINT('',(18.4210523452403,5.55462911369655,9.72261274351475E-17));
#408=CARTESIAN_POINT('',(18.4109069642558,5.68068670023889,-1.80443184329458E-17));
#409=CARTESIAN_POINT('',(18.38320379827,5.79620189330969,-1.2637866497111E-16));
#410=CARTESIAN_POINT('',(18.3396401105337,5.90671628308421,-2.32099325701013E-16));
#411=CARTESIAN_POINT('',(18.2756470588432,6.01579576426821,-3.38369062208578E-16));
#412=CARTESIAN_POINT('',(18.1935123138008,6.11484347141584,-4.33837204257769E-16));
#413=CARTESIAN_POINT('',(18.0946279529601,6.20073824289363,-5.09933475620507E-16));
#414=CARTESIAN_POINT('',(17.983357430081,6.26906494184995,-5.55291919946285E-16));
#415=CARTESIAN_POINT('',(17.8633731871623,6.31771001632079,-5.56811625136359E-16));
#416=CARTESIAN_POINT('',(17.7663570012488,6.34020581921005,-5.15445254397687E-16));
#417=CARTESIAN_POINT('',(17.6925764256389,6.34826542258862,-4.50813228389282E-16));
#418=CARTESIAN_POINT('',(17.6456412223,6.35000000000001,-3.93735831768693E-16));
#419=CARTESIAN_POINT('',(15.9615405478015,6.35000000000001,-7.21018030439945E-17));
#420=CARTESIAN_POINT('',(14.3009074749724,6.35000000000001,7.88860905221012E-32));
#421=CARTESIAN_POINT('',(12.6402744021433,6.35000000000001,2.36658271566304E-31));
#422=CARTESIAN_POINT('',(10.9796413293142,6.35000000000001,-7.21018030439943E-17));
#423=CARTESIAN_POINT('',(9.2712712108138,6.35000000000001,-5.07120193447137E-16));
#424=CARTESIAN_POINT('',(9.17579711947119,6.34282259675772,-6.9059852506529E-16));
#425=CARTESIAN_POINT('',(9.07787185367602,6.32103696180986,-7.28505522329167E-16));
#426=CARTESIAN_POINT('',(8.98516044515532,6.28271508423001,-6.63253215973545E-16));
#427=CARTESIAN_POINT('',(8.90283585868142,6.23383277969246,-4.68966858166343E-16));
#428=CARTESIAN_POINT('',(7.5034209837096,5.25395193515439,-6.45411222600559E-17));
#429=CARTESIAN_POINT('',(6.14311000728773,4.30145193515439,-1.97215226305253E-32));
#430=CARTESIAN_POINT('',(4.78279903086587,3.34895193515439,0.0));
#431=CARTESIAN_POINT('',(3.42248805444401,2.39645193515439,-6.45411222600559E-17));
#432=CARTESIAN_POINT('',(2.04295354414008,1.43049147181913,-3.45062457472032E-16));
#433=CARTESIAN_POINT('',(2.00550138910613,1.4021496625161,-3.81383116642395E-16));
#434=CARTESIAN_POINT('',(1.94968667835069,1.35322882230208,-4.16017380456405E-16));
#435=CARTESIAN_POINT('',(1.88311873378447,1.27915514119267,-4.22512972082939E-16));
#436=CARTESIAN_POINT('',(1.81273506437622,1.17048729452363,-3.83390814730149E-16));
#437=CARTESIAN_POINT('',(1.76077817258571,1.05069518941017,-3.07769762795647E-16));
#438=CARTESIAN_POINT('',(1.72904406318034,0.923616572458378,-2.08531252422468E-16));
#439=CARTESIAN_POINT('',(1.71857464976605,0.795370886303449,-9.7226127435146E-17));
#440=CARTESIAN_POINT('',(1.72872003075054,0.66931329976111,1.80443184329483E-17));
#441=CARTESIAN_POINT('',(1.75642319673637,0.553798106690313,1.26378664971112E-16));
#442=CARTESIAN_POINT('',(1.79998688447269,0.443283716915789,2.32099325701016E-16));
#443=CARTESIAN_POINT('',(1.86397993616335,0.334204235731556,3.38369062208808E-16));
#444=CARTESIAN_POINT('',(1.94611468120573,0.235156528583949,4.33837204257978E-16));
#445=CARTESIAN_POINT('',(2.0449990420465,0.149261757106202,5.09933475620638E-16));
#446=CARTESIAN_POINT('',(2.15626956492562,0.0809350581499375,5.55291919946325E-16));
#447=CARTESIAN_POINT('',(2.27625380784435,0.0322899836791439,5.56811625136245E-16));
#448=CARTESIAN_POINT('',(2.37326999375756,0.00979418078995709,5.15445254397688E-16));
#449=CARTESIAN_POINT('',(2.44705056936751,0.00173457741138083,4.50813228389282E-16));
#450=CARTESIAN_POINT('',(2.49398577270637,-4.88498130835069E-15,3.93735831768693E-16));
#451=CARTESIAN_POINT('',(4.1780864472049,-3.99680288865056E-15,7.21018030439946E-17));
#452=CARTESIAN_POINT('',(5.83871952003399,-3.10862446895044E-15,-2.95822839457879E-32));
#453=CARTESIAN_POINT('',(7.49935259286308,-3.10862446895044E-15,9.86076131526265E-32));
#454=CARTESIAN_POINT('',(9.15998566569218,-3.10862446895044E-15,9.86076131526265E-32));
#455=CARTESIAN_POINT('',(10.8683557841926,-3.10862446895044E-15,7.26762693880548E-16));
#456=CARTESIAN_POINT('',(0.0,0.0,0.0));
#457=CARTESIAN_POINT('',(10.0698134975032,3.175,0.0));
#458=CARTESIAN_POINT('',(10.0698134975032,3.175,-3.175));
#459=CARTESIAN_POINT('',(8.73460976645568,2.75401188069402,-3.175));
#460=CARTESIAN_POINT('',(10.0698134975032,6.0722234933052,-3.175));
#461=CARTESIAN_POINT('',(9.3190082564851,6.0722234933052,-3.175));
#462=CARTESIAN_POINT('',(17.6221736206306,6.0722234933052,-3.175));
#463=CARTESIAN_POINT('',(17.6221736206306,5.55625000000001,-3.175));
#464=CARTESIAN_POINT('',(17.9181238581722,5.13358925816012,-3.175));
#465=CARTESIAN_POINT('',(11.7315926241057,0.801733452696956,-3.175));
#466=CARTESIAN_POINT('',(11.1165689760629,0.371089258160115,-3.175));
#467=CARTESIAN_POINT('',(10.8206187385213,0.793749999999999,-3.175));
#468=CARTESIAN_POINT('',(10.8206187385213,0.277776506694803,-3.175));
#469=CARTESIAN_POINT('',(10.0698134975032,0.277776506694802,-3.175));
#470=CARTESIAN_POINT('',(2.5174533743758,0.277776506694802,-3.175));
#471=CARTESIAN_POINT('',(2.5174533743758,0.793749999999998,-3.175));
#472=CARTESIAN_POINT('',(2.22150313683421,1.21641074183988,-3.175));
#473=CARTESIAN_POINT('',(8.40803437090066,5.54826654730304,-3.175));
#474=CARTESIAN_POINT('',(9.02305801894351,5.97891074183988,-3.175));
#475=CARTESIAN_POINT('',(9.3190082564851,5.55625,-3.175));
#476=CARTESIAN_POINT('',(9.82493431578671,2.70459146865531,-3.175));
#477=CARTESIAN_POINT('',(10.0698134975032,6.35000000000001,-5.81748951963656E-15));
#478=CARTESIAN_POINT('',(17.6221736206306,6.35000000000001,-4.90864050144796E-15));
#479=CARTESIAN_POINT('',(9.3190082564851,6.35000000000001,-5.9078412236106E-15));
#480=CARTESIAN_POINT('',(17.6221736206306,6.35000000000001,-5.22994589500577E-15));
#481=CARTESIAN_POINT('',(9.3190082564851,6.35000000000001,-6.13745429401969E-15));
#482=CARTESIAN_POINT('',(10.0698134975032,6.35000000000001,-5.81748951963656E-15));
#483=CARTESIAN_POINT('',(2.06217707802215,1.44395193515439,-2.61916988779217E-15));
#484=CARTESIAN_POINT('',(2.06217707802215,1.44395193515439,-2.32462354734611E-15));
#485=CARTESIAN_POINT('',(8.24870831208861,5.77580774061755,-5.51506228827902E-15));
#486=CARTESIAN_POINT('',(8.86373196013146,6.20645193515439,-5.83223441577121E-15));
#487=CARTESIAN_POINT('',(8.86373196013146,6.20645193515439,-6.08918159812041E-15));
#488=CARTESIAN_POINT('',(8.24870831208861,5.77580774061755,-5.51506228827901E-15));
#489=CARTESIAN_POINT('',(10.8206187385213,-2.60208521396521E-15,-2.7283449596883E-17));
#490=CARTESIAN_POINT('',(10.8206187385213,-2.60208521396521E-15,4.10064278570364E-17));
#491=CARTESIAN_POINT('',(10.0698134975032,-3.03576608295941E-15,-4.93452761170014E-17));
#492=CARTESIAN_POINT('',(2.5174533743758,-3.90312782094782E-15,-9.58194294305604E-16));
#493=CARTESIAN_POINT('',(2.5174533743758,-3.90312782094782E-15,-9.30002753625282E-16));
#494=CARTESIAN_POINT('',(10.0698134975032,-3.03576608295941E-15,-4.93452761170022E-17));
#495=CARTESIAN_POINT('',(18.0774499169842,4.90604806484562,-3.48677493804441E-15));
#496=CARTESIAN_POINT('',(18.0774499169842,4.90604806484562,-3.54221124840745E-15));
#497=CARTESIAN_POINT('',(11.8909186829178,0.574192259382456,-3.51772507474552E-16));
#498=CARTESIAN_POINT('',(11.2758950348749,0.143548064845611,-3.460037998235E-17));
#499=CARTESIAN_POINT('',(11.2758950348749,0.143548064845611,-3.2891370980788E-17));
#500=CARTESIAN_POINT('',(11.8909186829178,0.574192259382451,-3.51772507474548E-16));
#501=CARTESIAN_POINT('',(10.0698134975032,3.175,0.0));
#502=CARTESIAN_POINT('',(8.23624475246389,2.59687799536275,0.0));
#503=CARTESIAN_POINT('',(17.6221736206306,5.55625,-4.18762247100801E-15));
#504=CARTESIAN_POINT('',(9.3190082564851,5.55625,-5.18682319317065E-15));
#505=CARTESIAN_POINT('',(2.5174533743758,0.793749999999997,-1.67921232474555E-15));
#506=CARTESIAN_POINT('',(10.8206187385213,0.793749999999998,-6.80011602582908E-16));
#507=CARTESIAN_POINT('',(10.0698134975032,3.175,-2.93341739787678E-15));
#508=CARTESIAN_POINT('',(17.6221736206306,5.55625,-4.33680868994202E-15));
#509=CARTESIAN_POINT('',(10.8206187385213,0.793749999999998,-8.67361737988404E-16));
#510=CARTESIAN_POINT('',(2.5174533743758,0.793749999999997,-1.73472347597681E-15));
#511=CARTESIAN_POINT('',(9.3190082564851,5.55625,-5.20417042793042E-15));
#512=CARTESIAN_POINT('',(10.0698134975032,3.175,-0.544403327785277));
#513=CARTESIAN_POINT('',(11.8670757745315,3.7416746192449,-0.544403327785277));
#514=CARTESIAN_POINT('',(10.0698134975032,3.175,-0.680000000032648));
#515=CARTESIAN_POINT('',(10.0698134975032,3.175,-0.782283357604643));
#516=CARTESIAN_POINT('',(11.7910340196016,3.71769874601128,-0.782283357604643));
#517=CARTESIAN_POINT('',(10.0698134975032,3.175,-2.14607469113957));
#518=CARTESIAN_POINT('',(8.73460976645568,2.75401188069402,-2.14607469113957));
#519=CARTESIAN_POINT('',(10.0698134975032,3.175,-2.14607469113958));
#520=CARTESIAN_POINT('',(10.0698134975032,3.175,-33.3676978394524));
#521=CARTESIAN_POINT('',(10.0698134975032,3.175,-0.509525090897631));
#522=MECHANICAL_DESIGN_GEOMETRIC_PRESENTATION_REPRESENTATION('',(#265,#266,#267,
     #268),#523);
#523=(GEOMETRIC_REPRESENTATION_CONTEXT(3)GLOBAL_UNCERTAINTY_ASSIGNED_CONTEXT((#524))
     GLOBAL_UNIT_ASSIGNED_CONTEXT((#530,#526,#525))REPRESENTATION_CONTEXT('VBMT110308',
     'TOP_LEVEL_ASSEMBLY_PART'));
#524=UNCERTAINTY_MEASURE_WITH_UNIT(LENGTH_MEASURE(2.0E-5),#530,'DISTANCE_ACCURACY_VALUE',
     'Maximum Tolerance applied to model');
#525=(NAMED_UNIT(*)SI_UNIT($,.STERADIAN.)SOLID_ANGLE_UNIT());
#526=(CONVERSION_BASED_UNIT('DEGREE',#528)NAMED_UNIT(#527)PLANE_ANGLE_UNIT());
#527=DIMENSIONAL_EXPONENTS(0.0,0.0,0.0,0.0,0.0,0.0,0.0);
#528=PLANE_ANGLE_MEASURE_WITH_UNIT(PLANE_ANGLE_MEASURE(0.0174532925),#529);
#529=(NAMED_UNIT(*)PLANE_ANGLE_UNIT()SI_UNIT($,.RADIAN.));
#530=(LENGTH_UNIT()NAMED_UNIT(*)SI_UNIT(.MILLI.,.METRE.));
#531=CONSTRUCTIVE_GEOMETRY_REPRESENTATION('supplemental geometry',(#282,#283),#523);
#532=CONSTRUCTIVE_GEOMETRY_REPRESENTATION_RELATIONSHIP('supplemental geometry','contains PCS and MCS coordinate systems',
     #24,#531);
ENDSEC;
END-ISO-10303-21;
