ISO-10303-21;
HEADER;
FILE_DESCRIPTION(
/* description */ (''),
/* implementation_level */ '2;1');
FILE_NAME(
/* name */ 'TCMT220408.stp',
/* time_stamp */ '2017-03-21T10:54:35',
/* author */ ('Sandvik Coromant R&D'),
/* organization */ ('Sandvik Machining Solutions'),
/* preprocessor_version */ 'ST-DEVELOPER v15',
/* originating_system */ 'SIEMENS PLM Software NX v8.5.3.3(64 bits)',
/* authorization */ '');
FILE_SCHEMA(('AUTOMOTIVE_DESIGN'));
ENDSEC;
DATA;
#10=GEOMETRICALLY_BOUNDED_WIREFRAME_SHAPE_REPRESENTATION('IsoTurningInsert-None',
     (#25),#409);
#11=SHAPE_REPRESENTATION_RELATIONSHIP('None','relationship between IsoTurningInsert-None and IsoTurningInsert-None',
     #24,#13);
#12=SHAPE_REPRESENTATION_RELATIONSHIP('None','relationship between IsoTurningInsert-None and IsoTurningInsert-None',
     #24,#10);
#13=ADVANCED_BREP_SHAPE_REPRESENTATION('IsoTurningInsert-None',(#31),#409);
#14=SHAPE_DEFINITION_REPRESENTATION(#15,#24);
#15=PRODUCT_DEFINITION_SHAPE('','',#16);
#16=PRODUCT_DEFINITION(' ','',#18,#17);
#17=PRODUCT_DEFINITION_CONTEXT('part definition',#23,'design');
#18=PRODUCT_DEFINITION_FORMATION_WITH_SPECIFIED_SOURCE(' ',' ',#20,.NOT_KNOWN.);
#19=PRODUCT_RELATED_PRODUCT_CATEGORY('part','',(#20));
#20=PRODUCT('IsoTurningInsert','IsoTurningInsert',' ',(#21));
#21=PRODUCT_CONTEXT(' ',#23,'mechanical');
#22=APPLICATION_PROTOCOL_DEFINITION('international standard','automotive_design',
     2010,#23);
#23=APPLICATION_CONTEXT('core data for automotive mechanical design processes');
#24=SHAPE_REPRESENTATION('IsoTurningInsert-None',(#242),#409);
#25=GEOMETRIC_CURVE_SET('geometric curve set',(#221));
#26=SURFACE_STYLE_USAGE(.BOTH.,#27);
#27=SURFACE_SIDE_STYLE('',(#28));
#28=SURFACE_STYLE_FILL_AREA(#29);
#29=FILL_AREA_STYLE('',(#30));
#30=FILL_AREA_STYLE_COLOUR('',#241);
#31=MANIFOLD_SOLID_BREP('CUT',#32);
#32=CLOSED_SHELL('',(#46,#47,#48,#49,#50,#51,#52,#53,#54,#55,#56,#57));
#33=CYLINDRICAL_SURFACE('',#266,2.75);
#34=TOROIDAL_SURFACE('',#265,6.74999999999999,4.0);
#35=TOROIDAL_SURFACE('',#267,3.51434831777092,0.5);
#36=CONICAL_SURFACE('',#258,0.793749999999998,7.0);
#37=CONICAL_SURFACE('',#259,0.793749999999998,7.0);
#38=CONICAL_SURFACE('',#260,0.793749999999998,7.0);
#39=CONICAL_SURFACE('',#262,4.00000000002695,3.99999999859293);
#40=FACE_OUTER_BOUND('',#101,.T.);
#41=FACE_OUTER_BOUND('',#102,.T.);
#42=FACE_OUTER_BOUND('',#103,.T.);
#43=FACE_OUTER_BOUND('',#106,.T.);
#44=FACE_OUTER_BOUND('',#107,.T.);
#45=FACE_OUTER_BOUND('',#108,.T.);
#46=ADVANCED_FACE('',(#87,#88),#58,.F.);
#47=ADVANCED_FACE('',(#40),#59,.F.);
#48=ADVANCED_FACE('',(#41),#60,.F.);
#49=ADVANCED_FACE('',(#42),#61,.F.);
#50=ADVANCED_FACE('',(#89,#90),#62,.T.);
#51=ADVANCED_FACE('',(#43),#36,.T.);
#52=ADVANCED_FACE('',(#44),#37,.T.);
#53=ADVANCED_FACE('',(#45),#38,.T.);
#54=ADVANCED_FACE('',(#91,#92),#39,.F.);
#55=ADVANCED_FACE('',(#93,#94),#34,.T.);
#56=ADVANCED_FACE('',(#95,#96),#33,.F.);
#57=ADVANCED_FACE('',(#97,#98),#35,.F.);
#58=PLANE('',#249);
#59=PLANE('',#250);
#60=PLANE('',#251);
#61=PLANE('',#252);
#62=PLANE('',#257);
#63=LINE('',#358,#75);
#64=LINE('',#363,#76);
#65=LINE('',#367,#77);
#66=LINE('',#371,#78);
#67=LINE('',#373,#79);
#68=LINE('',#375,#80);
#69=LINE('',#377,#81);
#70=LINE('',#379,#82);
#71=LINE('',#381,#83);
#72=LINE('',#383,#84);
#73=LINE('',#386,#85);
#74=LINE('',#387,#86);
#75=VECTOR('',#276,1.0);
#76=VECTOR('',#279,1.0);
#77=VECTOR('',#282,1.0);
#78=VECTOR('',#287,1.0);
#79=VECTOR('',#288,1.0);
#80=VECTOR('',#289,1.0);
#81=VECTOR('',#292,1.0);
#82=VECTOR('',#293,1.0);
#83=VECTOR('',#294,1.0);
#84=VECTOR('',#297,1.0);
#85=VECTOR('',#298,1.0);
#86=VECTOR('',#299,1.0);
#87=FACE_BOUND('',#99,.T.);
#88=FACE_BOUND('',#100,.T.);
#89=FACE_BOUND('',#104,.T.);
#90=FACE_BOUND('',#105,.T.);
#91=FACE_BOUND('',#109,.T.);
#92=FACE_BOUND('',#110,.T.);
#93=FACE_BOUND('',#111,.T.);
#94=FACE_BOUND('',#112,.T.);
#95=FACE_BOUND('',#113,.T.);
#96=FACE_BOUND('',#114,.T.);
#97=FACE_BOUND('',#115,.T.);
#98=FACE_BOUND('',#116,.T.);
#99=EDGE_LOOP('',(#117));
#100=EDGE_LOOP('',(#118,#119,#120,#121,#122,#123));
#101=EDGE_LOOP('',(#124,#125,#126,#127));
#102=EDGE_LOOP('',(#128,#129,#130,#131));
#103=EDGE_LOOP('',(#132,#133,#134,#135));
#104=EDGE_LOOP('',(#136));
#105=EDGE_LOOP('',(#137,#138,#139,#140,#141,#142));
#106=EDGE_LOOP('',(#143,#144,#145,#146));
#107=EDGE_LOOP('',(#147,#148,#149,#150));
#108=EDGE_LOOP('',(#151,#152,#153,#154));
#109=EDGE_LOOP('',(#155));
#110=EDGE_LOOP('',(#156));
#111=EDGE_LOOP('',(#157));
#112=EDGE_LOOP('',(#158));
#113=EDGE_LOOP('',(#159));
#114=EDGE_LOOP('',(#160));
#115=EDGE_LOOP('',(#161));
#116=EDGE_LOOP('',(#162));
#117=ORIENTED_EDGE('',*,*,#180,.T.);
#118=ORIENTED_EDGE('',*,*,#181,.T.);
#119=ORIENTED_EDGE('',*,*,#182,.T.);
#120=ORIENTED_EDGE('',*,*,#183,.T.);
#121=ORIENTED_EDGE('',*,*,#184,.T.);
#122=ORIENTED_EDGE('',*,*,#185,.T.);
#123=ORIENTED_EDGE('',*,*,#186,.T.);
#124=ORIENTED_EDGE('',*,*,#185,.F.);
#125=ORIENTED_EDGE('',*,*,#187,.T.);
#126=ORIENTED_EDGE('',*,*,#188,.F.);
#127=ORIENTED_EDGE('',*,*,#189,.T.);
#128=ORIENTED_EDGE('',*,*,#183,.F.);
#129=ORIENTED_EDGE('',*,*,#190,.T.);
#130=ORIENTED_EDGE('',*,*,#191,.F.);
#131=ORIENTED_EDGE('',*,*,#192,.T.);
#132=ORIENTED_EDGE('',*,*,#193,.F.);
#133=ORIENTED_EDGE('',*,*,#194,.T.);
#134=ORIENTED_EDGE('',*,*,#181,.F.);
#135=ORIENTED_EDGE('',*,*,#195,.T.);
#136=ORIENTED_EDGE('',*,*,#196,.F.);
#137=ORIENTED_EDGE('',*,*,#191,.T.);
#138=ORIENTED_EDGE('',*,*,#197,.T.);
#139=ORIENTED_EDGE('',*,*,#193,.T.);
#140=ORIENTED_EDGE('',*,*,#198,.T.);
#141=ORIENTED_EDGE('',*,*,#188,.T.);
#142=ORIENTED_EDGE('',*,*,#199,.T.);
#143=ORIENTED_EDGE('',*,*,#182,.F.);
#144=ORIENTED_EDGE('',*,*,#194,.F.);
#145=ORIENTED_EDGE('',*,*,#197,.F.);
#146=ORIENTED_EDGE('',*,*,#190,.F.);
#147=ORIENTED_EDGE('',*,*,#184,.F.);
#148=ORIENTED_EDGE('',*,*,#192,.F.);
#149=ORIENTED_EDGE('',*,*,#199,.F.);
#150=ORIENTED_EDGE('',*,*,#187,.F.);
#151=ORIENTED_EDGE('',*,*,#186,.F.);
#152=ORIENTED_EDGE('',*,*,#189,.F.);
#153=ORIENTED_EDGE('',*,*,#198,.F.);
#154=ORIENTED_EDGE('',*,*,#195,.F.);
#155=ORIENTED_EDGE('',*,*,#200,.T.);
#156=ORIENTED_EDGE('',*,*,#196,.T.);
#157=ORIENTED_EDGE('',*,*,#201,.T.);
#158=ORIENTED_EDGE('',*,*,#202,.T.);
#159=ORIENTED_EDGE('',*,*,#202,.F.);
#160=ORIENTED_EDGE('',*,*,#180,.F.);
#161=ORIENTED_EDGE('',*,*,#201,.F.);
#162=ORIENTED_EDGE('',*,*,#200,.F.);
#163=VERTEX_POINT('',#357);
#164=VERTEX_POINT('',#359);
#165=VERTEX_POINT('',#360);
#166=VERTEX_POINT('',#362);
#167=VERTEX_POINT('',#364);
#168=VERTEX_POINT('',#366);
#169=VERTEX_POINT('',#368);
#170=VERTEX_POINT('',#372);
#171=VERTEX_POINT('',#374);
#172=VERTEX_POINT('',#378);
#173=VERTEX_POINT('',#380);
#174=VERTEX_POINT('',#384);
#175=VERTEX_POINT('',#385);
#176=VERTEX_POINT('',#390);
#177=VERTEX_POINT('',#399);
#178=VERTEX_POINT('',#402);
#179=VERTEX_POINT('',#404);
#180=EDGE_CURVE('',#163,#163,#203,.T.);
#181=EDGE_CURVE('',#164,#165,#63,.T.);
#182=EDGE_CURVE('',#165,#166,#204,.T.);
#183=EDGE_CURVE('',#166,#167,#64,.T.);
#184=EDGE_CURVE('',#167,#168,#205,.T.);
#185=EDGE_CURVE('',#168,#169,#65,.T.);
#186=EDGE_CURVE('',#169,#164,#206,.T.);
#187=EDGE_CURVE('',#168,#170,#66,.T.);
#188=EDGE_CURVE('',#171,#170,#67,.T.);
#189=EDGE_CURVE('',#171,#169,#68,.T.);
#190=EDGE_CURVE('',#166,#172,#69,.T.);
#191=EDGE_CURVE('',#173,#172,#70,.T.);
#192=EDGE_CURVE('',#173,#167,#71,.T.);
#193=EDGE_CURVE('',#174,#175,#72,.T.);
#194=EDGE_CURVE('',#174,#165,#73,.T.);
#195=EDGE_CURVE('',#164,#175,#74,.T.);
#196=EDGE_CURVE('',#176,#176,#207,.T.);
#197=EDGE_CURVE('',#172,#174,#208,.T.);
#198=EDGE_CURVE('',#175,#171,#209,.T.);
#199=EDGE_CURVE('',#170,#173,#210,.T.);
#200=EDGE_CURVE('',#177,#177,#211,.T.);
#201=EDGE_CURVE('',#178,#178,#212,.T.);
#202=EDGE_CURVE('',#179,#179,#213,.T.);
#203=CIRCLE('',#245,2.75);
#204=CIRCLE('',#246,0.208988528699915);
#205=CIRCLE('',#247,0.208988528699916);
#206=CIRCLE('',#248,0.208988528699916);
#207=CIRCLE('',#253,4.07132534818238);
#208=CIRCLE('',#254,0.793749999999998);
#209=CIRCLE('',#255,0.793749999999998);
#210=CIRCLE('',#256,0.793749999999998);
#211=CIRCLE('',#261,4.01313034290169);
#212=CIRCLE('',#263,3.87386517135193);
#213=CIRCLE('',#264,2.75);
#214=CURVE_STYLE('',#218,POSITIVE_LENGTH_MEASURE(0.18),#217);
#215=CURVE_STYLE('',#219,POSITIVE_LENGTH_MEASURE(0.18),#240);
#216=CURVE_STYLE('',#220,POSITIVE_LENGTH_MEASURE(0.18),#240);
#217=DRAUGHTING_PRE_DEFINED_COLOUR('blue');
#218=DRAUGHTING_PRE_DEFINED_CURVE_FONT('continuous');
#219=DRAUGHTING_PRE_DEFINED_CURVE_FONT('continuous');
#220=DRAUGHTING_PRE_DEFINED_CURVE_FONT('continuous');
#221=TRIMMED_CURVE('CUTTING EDGE LINE',#222,(PARAMETER_VALUE(0.0)),(PARAMETER_VALUE(
     1.0)),.T.,.PARAMETER.);
#222=(BOUNDED_CURVE()B_SPLINE_CURVE(3,(#335,#336,#337,#338,#339,#340,#341,#342,#343,
     #344,#345,#346,#347,#348,#349,#350,#351,#352,#353),.UNSPECIFIED.,.T.,.F.)
     B_SPLINE_CURVE_WITH_KNOTS((1,3,3,3,3,3,3,3,1),(-0.0265014949249509,0.0,0.306831838408382,
     0.333333333333333,0.640165171741716,0.666666666666667,0.973498505075049,1.0,
     1.30683183840838),.UNSPECIFIED.)CURVE()GEOMETRIC_REPRESENTATION_ITEM()
     RATIONAL_B_SPLINE_CURVE((0.666666666666667,0.666666666666667,0.666666666666667,
     0.666666666666667,0.444444444444444,0.444444444444444,0.666666666666667,0.666666666666667,
     0.666666666666667,0.666666666666667,0.444444444444444,0.444444444444444,0.666666666666667,
     0.666666666666667,0.666666666666667,0.666666666666667,0.444444444444444,0.444444444444444,
     0.666666666666667))REPRESENTATION_ITEM('CUTTING EDGE LINE'));
#223=PRESENTATION_LAYER_ASSIGNMENT('1','Layer 1',(#221,#243,#244,#31));
#226=STYLED_ITEM('',(#232),#221);
#227=STYLED_ITEM('',(#233),#243);
#228=STYLED_ITEM('',(#234),#244);
#229=STYLED_ITEM('',(#235),#31);
#230=PRESENTATION_STYLE_ASSIGNMENT((#236));
#231=PRESENTATION_STYLE_ASSIGNMENT((#237));
#232=PRESENTATION_STYLE_ASSIGNMENT((#214));
#233=PRESENTATION_STYLE_ASSIGNMENT((#215));
#234=PRESENTATION_STYLE_ASSIGNMENT((#216));
#235=PRESENTATION_STYLE_ASSIGNMENT((#26));
#236=POINT_STYLE('',#238,POSITIVE_LENGTH_MEASURE(3.0),#240);
#237=POINT_STYLE('',#239,POSITIVE_LENGTH_MEASURE(3.0),#240);
#238=PRE_DEFINED_POINT_MARKER_SYMBOL('plus');
#239=PRE_DEFINED_POINT_MARKER_SYMBOL('plus');
#240=COLOUR_RGB('Medium Maroon',0.6,0.4,0.4);
#241=COLOUR_RGB('IsoInsertColor',0.8,0.8,0.8);
#242=AXIS2_PLACEMENT_3D('',#332,#268,#269);
#243=AXIS2_PLACEMENT_3D('PCS',#354,#270,#271);
#244=AXIS2_PLACEMENT_3D('MCS',#355,#272,#273);
#245=AXIS2_PLACEMENT_3D('',#356,#274,#275);
#246=AXIS2_PLACEMENT_3D('',#361,#277,#278);
#247=AXIS2_PLACEMENT_3D('',#365,#280,#281);
#248=AXIS2_PLACEMENT_3D('',#369,#283,#284);
#249=AXIS2_PLACEMENT_3D('',#370,#285,#286);
#250=AXIS2_PLACEMENT_3D('',#376,#290,#291);
#251=AXIS2_PLACEMENT_3D('',#382,#295,#296);
#252=AXIS2_PLACEMENT_3D('',#388,#300,#301);
#253=AXIS2_PLACEMENT_3D('',#389,#302,#303);
#254=AXIS2_PLACEMENT_3D('',#391,#304,#305);
#255=AXIS2_PLACEMENT_3D('',#392,#306,#307);
#256=AXIS2_PLACEMENT_3D('',#393,#308,#309);
#257=AXIS2_PLACEMENT_3D('',#394,#310,#311);
#258=AXIS2_PLACEMENT_3D('',#395,#312,#313);
#259=AXIS2_PLACEMENT_3D('',#396,#314,#315);
#260=AXIS2_PLACEMENT_3D('',#397,#316,#317);
#261=AXIS2_PLACEMENT_3D('',#398,#318,#319);
#262=AXIS2_PLACEMENT_3D('',#400,#320,#321);
#263=AXIS2_PLACEMENT_3D('',#401,#322,#323);
#264=AXIS2_PLACEMENT_3D('',#403,#324,#325);
#265=AXIS2_PLACEMENT_3D('',#405,#326,#327);
#266=AXIS2_PLACEMENT_3D('',#406,#328,#329);
#267=AXIS2_PLACEMENT_3D('',#407,#330,#331);
#268=DIRECTION('',(0.0,0.0,1.0));
#269=DIRECTION('',(1.0,0.0,0.0));
#270=DIRECTION('',(0.0,0.0,1.0));
#271=DIRECTION('',(1.0,0.0,0.0));
#272=DIRECTION('',(0.0,0.0,1.0));
#273=DIRECTION('',(1.0,0.0,0.0));
#274=DIRECTION('',(0.0,0.0,1.0));
#275=DIRECTION('',(-0.866025403784438,-0.5,0.0));
#276=DIRECTION('',(0.500000000000001,-0.866025403784438,0.0));
#277=DIRECTION('',(0.0,0.0,-1.0));
#278=DIRECTION('',(-0.866025403784445,-0.500000000000001,0.0));
#279=DIRECTION('',(-1.0,-1.38777878078145E-15,0.0));
#280=DIRECTION('',(0.0,0.0,-1.0));
#281=DIRECTION('',(-0.866025403784438,-0.5,0.0));
#282=DIRECTION('',(0.5,0.866025403784439,0.0));
#283=DIRECTION('',(0.0,0.0,-1.0));
#284=DIRECTION('',(-0.866025403784442,-0.500000000000003,0.0));
#285=DIRECTION('',(0.0,0.0,1.0));
#286=DIRECTION('',(-0.866025403784439,-0.5,0.0));
#287=DIRECTION('',(-0.105541947331387,0.060934671702574,0.992546151641322));
#288=DIRECTION('',(-0.5,-0.866025403784439,1.64703636504919E-16));
#289=DIRECTION('',(0.105541947331387,-0.060934671702574,-0.992546151641322));
#290=DIRECTION('',(0.859570181749867,-0.496273075820661,0.121869343405148));
#291=DIRECTION('',(0.5,0.866025403784439,0.0));
#292=DIRECTION('',(7.63278329429795E-17,-0.121869343405147,0.992546151641322));
#293=DIRECTION('',(1.0,1.38777878078145E-15,9.88221819029511E-17));
#294=DIRECTION('',(-7.63278329429795E-17,0.121869343405147,-0.992546151641322));
#295=DIRECTION('',(-1.33226762955019E-15,0.992546151641322,0.121869343405147));
#296=DIRECTION('',(-1.0,-1.38777878078145E-15,0.0));
#297=DIRECTION('',(-0.500000000000001,0.866025403784438,-2.67498746399814E-16));
#298=DIRECTION('',(-0.105541947331387,-0.060934671702574,-0.992546151641322));
#299=DIRECTION('',(0.105541947331387,0.060934671702574,0.992546151641322));
#300=DIRECTION('',(-0.859570181749866,-0.496273075820662,0.121869343405147));
#301=DIRECTION('',(-0.105541947331387,-0.0609346717025738,-0.992546151641322));
#302=DIRECTION('',(0.0,0.0,1.0));
#303=DIRECTION('',(-0.866025403784439,-0.5,0.0));
#304=DIRECTION('',(-1.0031202989993E-16,2.50965769017958E-16,1.0));
#305=DIRECTION('',(-0.499999999999999,0.866025403784438,-2.67498746399814E-16));
#306=DIRECTION('',(-1.0031202989993E-16,2.50965769017958E-16,1.0));
#307=DIRECTION('',(-0.500000000000001,0.866025403784438,-2.67498746399814E-16));
#308=DIRECTION('',(-1.0031202989993E-16,2.50965769017958E-16,1.0));
#309=DIRECTION('',(-0.5,0.866025403784439,-2.67498746399814E-16));
#310=DIRECTION('',(-1.0031202989993E-16,2.50965769017958E-16,1.0));
#311=DIRECTION('',(-0.5,0.866025403784439,-2.67498746399814E-16));
#312=DIRECTION('',(-1.0031202989993E-16,2.50965769017958E-16,1.0));
#313=DIRECTION('',(-0.5,0.866025403784439,0.0));
#314=DIRECTION('',(-1.0031202989993E-16,2.50965769017958E-16,1.0));
#315=DIRECTION('',(-0.5,0.866025403784439,2.10561642650195E-17));
#316=DIRECTION('',(-1.0031202989993E-16,2.50965769017958E-16,1.0));
#317=DIRECTION('',(-0.5,0.866025403784439,4.2112328530039E-17));
#318=DIRECTION('',(0.0,0.0,-1.0));
#319=DIRECTION('',(0.866025403784439,0.5,0.0));
#320=DIRECTION('',(0.0,0.0,1.0));
#321=DIRECTION('',(-0.866025403784439,-0.5,0.0));
#322=DIRECTION('',(0.0,0.0,1.0));
#323=DIRECTION('',(0.866025403784439,0.5,0.0));
#324=DIRECTION('',(0.0,0.0,-1.0));
#325=DIRECTION('',(-0.866025403784438,-0.5,0.0));
#326=DIRECTION('',(0.0,0.0,1.0));
#327=DIRECTION('',(-0.866025403784439,-0.5,0.0));
#328=DIRECTION('',(0.0,0.0,1.0));
#329=DIRECTION('',(-0.866025403784438,-0.5,0.0));
#330=DIRECTION('',(0.0,0.0,-1.0));
#331=DIRECTION('',(0.866025403784439,0.5,0.0));
#332=CARTESIAN_POINT('',(0.0,0.0,0.0));
#335=CARTESIAN_POINT('',(21.3096375918708,1.190625,0.0));
#336=CARTESIAN_POINT('',(18.101735158686,6.74687499999999,0.0));
#337=CARTESIAN_POINT('',(14.8938327255011,12.303125,1.84391468143691E-15));
#338=CARTESIAN_POINT('',(11.6859302923163,17.859375,-1.53233907044611E-17));
#339=CARTESIAN_POINT('',(11.3422264601893,18.4546875,-2.14527469862464E-16));
#340=CARTESIAN_POINT('',(10.6548187959354,18.4546875,-9.33085041110981E-17));
#341=CARTESIAN_POINT('',(10.3111149638085,17.859375,-8.42786488745403E-17));
#342=CARTESIAN_POINT('',(7.10321253062361,12.303125,0.0));
#343=CARTESIAN_POINT('',(3.89531009743872,6.74687499999999,-3.70315275357835E-16));
#344=CARTESIAN_POINT('',(0.687407664253888,1.19062499999997,-8.42786488745395E-17));
#345=CARTESIAN_POINT('',(0.343703832126943,0.595312499999969,-5.36318674656151E-17));
#346=CARTESIAN_POINT('',(0.68740766425389,-2.79776202205539E-14,1.10273686676752E-16));
#347=CARTESIAN_POINT('',(1.37481532850779,-2.66453525910038E-14,9.96020395790018E-17));
#348=CARTESIAN_POINT('',(7.79062019487751,-1.46549439250521E-14,0.0));
#349=CARTESIAN_POINT('',(14.2064250612472,3.59712259978551E-14,-1.47359940607909E-15));
#350=CARTESIAN_POINT('',(20.6222299276169,2.66453525910038E-15,9.96020395790014E-17));
#351=CARTESIAN_POINT('',(21.3096375918708,1.99840144432528E-15,2.68159337328082E-16));
#352=CARTESIAN_POINT('',(21.6533414239978,0.595312499999998,1.53233907044619E-16));
#353=CARTESIAN_POINT('',(21.3096375918708,1.190625,-3.06467814089226E-17));
#354=CARTESIAN_POINT('',(0.0,0.0,0.0));
#355=CARTESIAN_POINT('',(10.9985226280624,6.35,0.0));
#356=CARTESIAN_POINT('',(10.9985226280624,6.35,-4.7625));
#357=CARTESIAN_POINT('',(8.61695276765516,4.975,-4.7625));
#358=CARTESIAN_POINT('',(15.9913656527933,9.23261926434995,-4.7625));
#359=CARTESIAN_POINT('',(11.179512003016,17.5669942643499,-4.7625));
#360=CARTESIAN_POINT('',(20.8032193025706,0.898244264349954,-4.7625));
#361=CARTESIAN_POINT('',(20.6222299276169,0.793750000000002,-4.7625));
#362=CARTESIAN_POINT('',(20.6222299276169,0.584761471300084,-4.7625));
#363=CARTESIAN_POINT('',(8.54516467434021,0.584761471300069,-4.7625));
#364=CARTESIAN_POINT('',(1.37481532850779,0.58476147130006,-4.7625));
#365=CARTESIAN_POINT('',(1.37481532850779,0.793749999999974,-4.7625));
#366=CARTESIAN_POINT('',(1.19382595355412,0.898244264349927,-4.7625));
#367=CARTESIAN_POINT('',(4.77900062647034,7.10794895184994,-4.7625));
#368=CARTESIAN_POINT('',(10.8175332531087,17.5669942643499,-4.7625));
#369=CARTESIAN_POINT('',(10.9985226280624,17.4625,-4.7625));
#370=CARTESIAN_POINT('',(10.8612631016432,5.83774047358084,-4.7625));
#371=CARTESIAN_POINT('',(0.687407664253887,1.19062499999997,-2.57308739786576E-15));
#372=CARTESIAN_POINT('',(0.687407664253887,1.19062499999997,-2.18575157973078E-15));
#373=CARTESIAN_POINT('',(5.49926131403119,9.525,-3.79470760369927E-15));
#374=CARTESIAN_POINT('',(10.3111149638085,17.859375,-5.40366362766776E-15));
#375=CARTESIAN_POINT('',(10.3111149638085,17.859375,-5.99230969083925E-15));
#376=CARTESIAN_POINT('',(4.2725823371701,7.40032968749998,-3.38453874301759E-15));
#377=CARTESIAN_POINT('',(20.6222299276169,4.33680868994202E-15,-2.54398433869154E-17));
#378=CARTESIAN_POINT('',(20.6222299276169,4.33680868994202E-15,1.12757025938494E-16));
#379=CARTESIAN_POINT('',(10.9985226280624,-9.54097911787244E-15,-8.52616588442599E-16));
#380=CARTESIAN_POINT('',(1.37481532850779,-2.16840434497101E-14,-1.81799020282369E-15));
#381=CARTESIAN_POINT('',(1.37481532850779,-2.16840434497101E-14,-1.76803911794009E-15));
#382=CARTESIAN_POINT('',(8.54516467434021,-1.21430643318377E-14,-1.09871790485161E-15));
#383=CARTESIAN_POINT('',(16.4977839420935,9.525,-2.69142347297802E-15));
#384=CARTESIAN_POINT('',(21.3096375918708,1.190625,-1.17093834628432E-16));
#385=CARTESIAN_POINT('',(11.6859302923163,17.859375,-5.2657531113276E-15));
#386=CARTESIAN_POINT('',(21.3096375918708,1.190625,9.56486417293736E-18));
#387=CARTESIAN_POINT('',(11.6859302923163,17.859375,-5.11564467698445E-15));
#388=CARTESIAN_POINT('',(16.4977839420935,9.52499999999999,-2.69142347297802E-15));
#389=CARTESIAN_POINT('',(10.9985226280624,6.35,-6.93889390390723E-15));
#390=CARTESIAN_POINT('',(7.4726514494649,4.31433732590881,-6.93889390390723E-15));
#391=CARTESIAN_POINT('',(20.6222299276169,0.793750000000002,-8.64470532195091E-17));
#392=CARTESIAN_POINT('',(10.9985226280624,17.4625,-5.23510632991868E-15));
#393=CARTESIAN_POINT('',(1.37481532850778,0.793749999999973,-2.0171942819817E-15));
#394=CARTESIAN_POINT('',(10.9985226280624,6.35,-2.44624922170663E-15));
#395=CARTESIAN_POINT('',(20.6222299276169,0.793750000000002,0.0));
#396=CARTESIAN_POINT('',(1.37481532850778,0.793749999999973,-2.60208521396521E-15));
#397=CARTESIAN_POINT('',(10.9985226280624,17.4625,-5.20417042793042E-15));
#398=CARTESIAN_POINT('',(10.9985226280624,6.35,-0.832227348620401));
#399=CARTESIAN_POINT('',(14.4739954537134,8.35656517145085,-0.832227348620401));
#400=CARTESIAN_POINT('',(10.9985226280624,6.35,-1.01999999997449));
#401=CARTESIAN_POINT('',(10.9985226280624,6.35,-1.14483671152669));
#402=CARTESIAN_POINT('',(14.3533882772889,8.28693258567597,-1.14483671152669));
#403=CARTESIAN_POINT('',(10.9985226280624,6.35,-3.92473750965557));
#404=CARTESIAN_POINT('',(8.61695276765516,4.975,-3.92473750965557));
#405=CARTESIAN_POINT('',(10.9985226280624,6.35,-3.92473750965557));
#406=CARTESIAN_POINT('',(10.9985226280624,6.35,-33.3676978394524));
#407=CARTESIAN_POINT('',(10.9985226280624,6.35,-0.797349111760582));
#408=MECHANICAL_DESIGN_GEOMETRIC_PRESENTATION_REPRESENTATION('',(#226,#227,#228,
     #229),#409);
#409=(GEOMETRIC_REPRESENTATION_CONTEXT(3)GLOBAL_UNCERTAINTY_ASSIGNED_CONTEXT((#410))
     GLOBAL_UNIT_ASSIGNED_CONTEXT((#416,#412,#411))REPRESENTATION_CONTEXT('TCMT220408',
     'TOP_LEVEL_ASSEMBLY_PART'));
#410=UNCERTAINTY_MEASURE_WITH_UNIT(LENGTH_MEASURE(2.0E-5),#416,'DISTANCE_ACCURACY_VALUE',
     'Maximum Tolerance applied to model');
#411=(NAMED_UNIT(*)SI_UNIT($,.STERADIAN.)SOLID_ANGLE_UNIT());
#412=(CONVERSION_BASED_UNIT('DEGREE',#414)NAMED_UNIT(#413)PLANE_ANGLE_UNIT());
#413=DIMENSIONAL_EXPONENTS(0.0,0.0,0.0,0.0,0.0,0.0,0.0);
#414=PLANE_ANGLE_MEASURE_WITH_UNIT(PLANE_ANGLE_MEASURE(0.0174532925),#415);
#415=(NAMED_UNIT(*)PLANE_ANGLE_UNIT()SI_UNIT($,.RADIAN.));
#416=(LENGTH_UNIT()NAMED_UNIT(*)SI_UNIT(.MILLI.,.METRE.));
#417=CONSTRUCTIVE_GEOMETRY_REPRESENTATION('supplemental geometry',(#243,#244),#409);
#418=CONSTRUCTIVE_GEOMETRY_REPRESENTATION_RELATIONSHIP('supplemental geometry','contains PCS and MCS coordinate systems',
     #24,#417);
ENDSEC;
END-ISO-10303-21;
