ISO-10303-21;
HEADER;
FILE_DESCRIPTION(
/* description */ (''),
/* implementation_level */ '2;1');
FILE_NAME(
/* name */ 'SPMR090304.stp',
/* time_stamp */ '2017-03-21T10:54:26',
/* author */ ('Sandvik Coromant R&D'),
/* organization */ ('Sandvik Machining Solutions'),
/* preprocessor_version */ 'ST-DEVELOPER v15',
/* originating_system */ 'SIEMENS PLM Software NX v8.5.3.3(64 bits)',
/* authorization */ '');
FILE_SCHEMA(('AUTOMOTIVE_DESIGN'));
ENDSEC;
DATA;
#10=GEOMETRICALLY_BOUNDED_WIREFRAME_SHAPE_REPRESENTATION('IsoTurningInsert-None',
     (#25),#405);
#11=SHAPE_REPRESENTATION_RELATIONSHIP('None','relationship between IsoTurningInsert-None and IsoTurningInsert-None',
     #24,#13);
#12=SHAPE_REPRESENTATION_RELATIONSHIP('None','relationship between IsoTurningInsert-None and IsoTurningInsert-None',
     #24,#10);
#13=ADVANCED_BREP_SHAPE_REPRESENTATION('IsoTurningInsert-None',(#31),#405);
#14=SHAPE_DEFINITION_REPRESENTATION(#15,#24);
#15=PRODUCT_DEFINITION_SHAPE('','',#16);
#16=PRODUCT_DEFINITION(' ','',#18,#17);
#17=PRODUCT_DEFINITION_CONTEXT('part definition',#23,'design');
#18=PRODUCT_DEFINITION_FORMATION_WITH_SPECIFIED_SOURCE(' ',' ',#20,.NOT_KNOWN.);
#19=PRODUCT_RELATED_PRODUCT_CATEGORY('part','',(#20));
#20=PRODUCT('IsoTurningInsert','IsoTurningInsert',' ',(#21));
#21=PRODUCT_CONTEXT(' ',#23,'mechanical');
#22=APPLICATION_PROTOCOL_DEFINITION('international standard','automotive_design',
     2010,#23);
#23=APPLICATION_CONTEXT('core data for automotive mechanical design processes');
#24=SHAPE_REPRESENTATION('IsoTurningInsert-None',(#232),#405);
#25=GEOMETRIC_CURVE_SET('geometric curve set',(#212));
#26=SURFACE_STYLE_USAGE(.BOTH.,#27);
#27=SURFACE_SIDE_STYLE('',(#28));
#28=SURFACE_STYLE_FILL_AREA(#29);
#29=FILL_AREA_STYLE('',(#30));
#30=FILL_AREA_STYLE_COLOUR('',#231);
#31=MANIFOLD_SOLID_BREP('CUT',#32);
#32=CLOSED_SHELL('',(#41,#42,#43,#44,#45,#46,#47,#48,#49,#50));
#33=CONICAL_SURFACE('',#245,0.396874999999999,11.0);
#34=CONICAL_SURFACE('',#246,0.396874999999999,11.0);
#35=CONICAL_SURFACE('',#247,0.396874999999999,11.0);
#36=CONICAL_SURFACE('',#248,0.396874999999999,11.0);
#37=CIRCLE('',#240,0.396874999999999);
#38=CIRCLE('',#241,0.396874999999999);
#39=CIRCLE('',#242,0.396874999999999);
#40=CIRCLE('',#243,0.396874999999999);
#41=ADVANCED_FACE('',(#57),#51,.F.);
#42=ADVANCED_FACE('',(#58),#52,.F.);
#43=ADVANCED_FACE('',(#59),#53,.F.);
#44=ADVANCED_FACE('',(#60),#54,.F.);
#45=ADVANCED_FACE('',(#61),#55,.F.);
#46=ADVANCED_FACE('',(#62),#56,.T.);
#47=ADVANCED_FACE('',(#63),#33,.T.);
#48=ADVANCED_FACE('',(#64),#34,.T.);
#49=ADVANCED_FACE('',(#65),#35,.T.);
#50=ADVANCED_FACE('',(#66),#36,.T.);
#51=PLANE('',#235);
#52=PLANE('',#236);
#53=PLANE('',#237);
#54=PLANE('',#238);
#55=PLANE('',#239);
#56=PLANE('',#244);
#57=FACE_OUTER_BOUND('',#67,.T.);
#58=FACE_OUTER_BOUND('',#68,.T.);
#59=FACE_OUTER_BOUND('',#69,.T.);
#60=FACE_OUTER_BOUND('',#70,.T.);
#61=FACE_OUTER_BOUND('',#71,.T.);
#62=FACE_OUTER_BOUND('',#72,.T.);
#63=FACE_OUTER_BOUND('',#73,.T.);
#64=FACE_OUTER_BOUND('',#74,.T.);
#65=FACE_OUTER_BOUND('',#75,.T.);
#66=FACE_OUTER_BOUND('',#76,.T.);
#67=EDGE_LOOP('',(#77,#78,#79,#80));
#68=EDGE_LOOP('',(#81,#82,#83,#84,#85,#86));
#69=EDGE_LOOP('',(#87,#88,#89,#90,#91,#92));
#70=EDGE_LOOP('',(#93,#94,#95,#96,#97,#98));
#71=EDGE_LOOP('',(#99,#100,#101,#102,#103,#104));
#72=EDGE_LOOP('',(#105,#106,#107,#108,#109,#110,#111,#112));
#73=EDGE_LOOP('',(#113,#114,#115));
#74=EDGE_LOOP('',(#116,#117,#118));
#75=EDGE_LOOP('',(#119,#120,#121));
#76=EDGE_LOOP('',(#122,#123,#124));
#77=ORIENTED_EDGE('',*,*,#141,.T.);
#78=ORIENTED_EDGE('',*,*,#142,.T.);
#79=ORIENTED_EDGE('',*,*,#143,.T.);
#80=ORIENTED_EDGE('',*,*,#144,.T.);
#81=ORIENTED_EDGE('',*,*,#145,.F.);
#82=ORIENTED_EDGE('',*,*,#146,.T.);
#83=ORIENTED_EDGE('',*,*,#147,.F.);
#84=ORIENTED_EDGE('',*,*,#141,.F.);
#85=ORIENTED_EDGE('',*,*,#148,.T.);
#86=ORIENTED_EDGE('',*,*,#149,.T.);
#87=ORIENTED_EDGE('',*,*,#144,.F.);
#88=ORIENTED_EDGE('',*,*,#150,.T.);
#89=ORIENTED_EDGE('',*,*,#151,.T.);
#90=ORIENTED_EDGE('',*,*,#152,.F.);
#91=ORIENTED_EDGE('',*,*,#153,.T.);
#92=ORIENTED_EDGE('',*,*,#148,.F.);
#93=ORIENTED_EDGE('',*,*,#143,.F.);
#94=ORIENTED_EDGE('',*,*,#154,.T.);
#95=ORIENTED_EDGE('',*,*,#155,.T.);
#96=ORIENTED_EDGE('',*,*,#156,.F.);
#97=ORIENTED_EDGE('',*,*,#157,.T.);
#98=ORIENTED_EDGE('',*,*,#150,.F.);
#99=ORIENTED_EDGE('',*,*,#142,.F.);
#100=ORIENTED_EDGE('',*,*,#147,.T.);
#101=ORIENTED_EDGE('',*,*,#158,.T.);
#102=ORIENTED_EDGE('',*,*,#159,.F.);
#103=ORIENTED_EDGE('',*,*,#160,.T.);
#104=ORIENTED_EDGE('',*,*,#154,.F.);
#105=ORIENTED_EDGE('',*,*,#159,.T.);
#106=ORIENTED_EDGE('',*,*,#161,.T.);
#107=ORIENTED_EDGE('',*,*,#145,.T.);
#108=ORIENTED_EDGE('',*,*,#162,.T.);
#109=ORIENTED_EDGE('',*,*,#152,.T.);
#110=ORIENTED_EDGE('',*,*,#163,.T.);
#111=ORIENTED_EDGE('',*,*,#156,.T.);
#112=ORIENTED_EDGE('',*,*,#164,.T.);
#113=ORIENTED_EDGE('',*,*,#158,.F.);
#114=ORIENTED_EDGE('',*,*,#146,.F.);
#115=ORIENTED_EDGE('',*,*,#161,.F.);
#116=ORIENTED_EDGE('',*,*,#155,.F.);
#117=ORIENTED_EDGE('',*,*,#160,.F.);
#118=ORIENTED_EDGE('',*,*,#164,.F.);
#119=ORIENTED_EDGE('',*,*,#151,.F.);
#120=ORIENTED_EDGE('',*,*,#157,.F.);
#121=ORIENTED_EDGE('',*,*,#163,.F.);
#122=ORIENTED_EDGE('',*,*,#149,.F.);
#123=ORIENTED_EDGE('',*,*,#153,.F.);
#124=ORIENTED_EDGE('',*,*,#162,.F.);
#125=VERTEX_POINT('',#355);
#126=VERTEX_POINT('',#356);
#127=VERTEX_POINT('',#358);
#128=VERTEX_POINT('',#360);
#129=VERTEX_POINT('',#364);
#130=VERTEX_POINT('',#365);
#131=VERTEX_POINT('',#367);
#132=VERTEX_POINT('',#370);
#133=VERTEX_POINT('',#374);
#134=VERTEX_POINT('',#376);
#135=VERTEX_POINT('',#378);
#136=VERTEX_POINT('',#382);
#137=VERTEX_POINT('',#384);
#138=VERTEX_POINT('',#386);
#139=VERTEX_POINT('',#390);
#140=VERTEX_POINT('',#392);
#141=EDGE_CURVE('',#125,#126,#165,.T.);
#142=EDGE_CURVE('',#126,#127,#166,.T.);
#143=EDGE_CURVE('',#127,#128,#167,.T.);
#144=EDGE_CURVE('',#128,#125,#168,.T.);
#145=EDGE_CURVE('',#129,#130,#169,.T.);
#146=EDGE_CURVE('',#129,#131,#170,.T.);
#147=EDGE_CURVE('INSERT_CORNER_EDGE3',#126,#131,#171,.T.);
#148=EDGE_CURVE('INSERT_CORNER_EDGE4',#125,#132,#172,.T.);
#149=EDGE_CURVE('',#132,#130,#173,.T.);
#150=EDGE_CURVE('INSERT_CORNER_EDGE1',#128,#133,#174,.T.);
#151=EDGE_CURVE('',#133,#134,#175,.T.);
#152=EDGE_CURVE('',#135,#134,#176,.T.);
#153=EDGE_CURVE('',#135,#132,#177,.T.);
#154=EDGE_CURVE('INSERT_CORNER_EDGE2',#127,#136,#178,.T.);
#155=EDGE_CURVE('',#136,#137,#179,.T.);
#156=EDGE_CURVE('',#138,#137,#180,.T.);
#157=EDGE_CURVE('',#138,#133,#181,.T.);
#158=EDGE_CURVE('',#131,#139,#182,.T.);
#159=EDGE_CURVE('',#140,#139,#183,.T.);
#160=EDGE_CURVE('',#140,#136,#184,.T.);
#161=EDGE_CURVE('',#139,#129,#37,.T.);
#162=EDGE_CURVE('',#130,#135,#38,.T.);
#163=EDGE_CURVE('',#134,#138,#39,.T.);
#164=EDGE_CURVE('',#137,#140,#40,.T.);
#165=LINE('',#354,#185);
#166=LINE('',#357,#186);
#167=LINE('',#359,#187);
#168=LINE('',#361,#188);
#169=LINE('',#363,#189);
#170=LINE('',#366,#190);
#171=LINE('',#368,#191);
#172=LINE('',#369,#192);
#173=LINE('',#371,#193);
#174=LINE('',#373,#194);
#175=LINE('',#375,#195);
#176=LINE('',#377,#196);
#177=LINE('',#379,#197);
#178=LINE('',#381,#198);
#179=LINE('',#383,#199);
#180=LINE('',#385,#200);
#181=LINE('',#387,#201);
#182=LINE('',#389,#202);
#183=LINE('',#391,#203);
#184=LINE('',#393,#204);
#185=VECTOR('',#255,1.0);
#186=VECTOR('',#256,1.0);
#187=VECTOR('',#257,1.0);
#188=VECTOR('',#258,1.0);
#189=VECTOR('',#261,1.0);
#190=VECTOR('',#262,1.0);
#191=VECTOR('',#263,1.0);
#192=VECTOR('',#264,1.0);
#193=VECTOR('',#265,1.0);
#194=VECTOR('',#268,1.0);
#195=VECTOR('',#269,1.0);
#196=VECTOR('',#270,1.0);
#197=VECTOR('',#271,1.0);
#198=VECTOR('',#274,1.0);
#199=VECTOR('',#275,1.0);
#200=VECTOR('',#276,1.0);
#201=VECTOR('',#277,1.0);
#202=VECTOR('',#280,1.0);
#203=VECTOR('',#281,1.0);
#204=VECTOR('',#282,1.0);
#205=CURVE_STYLE('',#209,POSITIVE_LENGTH_MEASURE(0.18),#208);
#206=CURVE_STYLE('',#210,POSITIVE_LENGTH_MEASURE(0.18),#230);
#207=CURVE_STYLE('',#211,POSITIVE_LENGTH_MEASURE(0.18),#230);
#208=DRAUGHTING_PRE_DEFINED_COLOUR('blue');
#209=DRAUGHTING_PRE_DEFINED_CURVE_FONT('continuous');
#210=DRAUGHTING_PRE_DEFINED_CURVE_FONT('continuous');
#211=DRAUGHTING_PRE_DEFINED_CURVE_FONT('continuous');
#212=B_SPLINE_CURVE_WITH_KNOTS('CUTTING EDGE LINE',5,(#306,#307,#308,#309,#310,#311,
     #312,#313,#314,#315,#316,#317,#318,#319,#320,#321,#322,#323,#324,#325,#326,
     #327,#328,#329,#330,#331,#332,#333,#334,#335,#336,#337,#338,#339,#340,#341,
     #342,#343,#344,#345,#346,#347,#348,#349,#350,#351),.UNSPECIFIED.,.T.,.F.,(2,
     4,1,1,1,4,4,1,1,1,4,4,1,1,1,4,4,1,1,1,4,4,1,1),(-0.2333395921,0.0,0.00416510197499997,
     0.00833020394999995,0.012495305925,0.0166604079,0.25,0.254165101975,0.25833020395,
     0.262495305925,0.2666604079,0.5,0.504165101975,0.50833020395,0.512495305925,
     0.5166604079,0.75,0.754165101975,0.75833020395,0.762495305925,0.7666604079,
     1.0,1.004165101975,1.00833020395),.UNSPECIFIED.);
#213=PRESENTATION_LAYER_ASSIGNMENT('1','Layer 1',(#212,#233,#234,#31));
#216=STYLED_ITEM('',(#222),#212);
#217=STYLED_ITEM('',(#223),#233);
#218=STYLED_ITEM('',(#224),#234);
#219=STYLED_ITEM('',(#225),#31);
#220=PRESENTATION_STYLE_ASSIGNMENT((#226));
#221=PRESENTATION_STYLE_ASSIGNMENT((#227));
#222=PRESENTATION_STYLE_ASSIGNMENT((#205));
#223=PRESENTATION_STYLE_ASSIGNMENT((#206));
#224=PRESENTATION_STYLE_ASSIGNMENT((#207));
#225=PRESENTATION_STYLE_ASSIGNMENT((#26));
#226=POINT_STYLE('',#228,POSITIVE_LENGTH_MEASURE(3.0),#230);
#227=POINT_STYLE('',#229,POSITIVE_LENGTH_MEASURE(3.0),#230);
#228=PRE_DEFINED_POINT_MARKER_SYMBOL('plus');
#229=PRE_DEFINED_POINT_MARKER_SYMBOL('plus');
#230=COLOUR_RGB('Medium Maroon',0.6,0.4,0.4);
#231=COLOUR_RGB('IsoInsertColor',0.8,0.8,0.8);
#232=AXIS2_PLACEMENT_3D('',#303,#249,#250);
#233=AXIS2_PLACEMENT_3D('PCS',#352,#251,#252);
#234=AXIS2_PLACEMENT_3D('MCS',#353,#253,#254);
#235=AXIS2_PLACEMENT_3D('',#362,#259,#260);
#236=AXIS2_PLACEMENT_3D('',#372,#266,#267);
#237=AXIS2_PLACEMENT_3D('',#380,#272,#273);
#238=AXIS2_PLACEMENT_3D('',#388,#278,#279);
#239=AXIS2_PLACEMENT_3D('',#394,#283,#284);
#240=AXIS2_PLACEMENT_3D('',#395,#285,#286);
#241=AXIS2_PLACEMENT_3D('',#396,#287,#288);
#242=AXIS2_PLACEMENT_3D('',#397,#289,#290);
#243=AXIS2_PLACEMENT_3D('',#398,#291,#292);
#244=AXIS2_PLACEMENT_3D('',#399,#293,#294);
#245=AXIS2_PLACEMENT_3D('',#400,#295,#296);
#246=AXIS2_PLACEMENT_3D('',#401,#297,#298);
#247=AXIS2_PLACEMENT_3D('',#402,#299,#300);
#248=AXIS2_PLACEMENT_3D('',#403,#301,#302);
#249=DIRECTION('',(0.0,0.0,1.0));
#250=DIRECTION('',(1.0,0.0,0.0));
#251=DIRECTION('',(0.0,0.0,1.0));
#252=DIRECTION('',(1.0,0.0,0.0));
#253=DIRECTION('',(0.0,0.0,1.0));
#254=DIRECTION('',(1.0,0.0,0.0));
#255=DIRECTION('',(1.0,-5.55111512312578E-16,0.0));
#256=DIRECTION('',(-1.11022302462516E-16,-1.0,0.0));
#257=DIRECTION('',(-1.0,2.22044604925031E-16,0.0));
#258=DIRECTION('',(-2.77555756156289E-16,1.0,0.0));
#259=DIRECTION('',(0.0,0.0,1.0));
#260=DIRECTION('',(-0.707106781186548,-0.707106781186548,0.0));
#261=DIRECTION('',(-1.0,4.44089209850063E-16,-1.45568472407846E-16));
#262=DIRECTION('',(4.16333634234434E-17,-0.190808995376545,-0.981627183447664));
#263=DIRECTION('',(0.187427559991896,0.187427559991896,0.964231206459824));
#264=DIRECTION('',(-0.187427559991896,0.187427559991896,0.964231206459824));
#265=DIRECTION('',(-4.16333634234434E-17,0.190808995376545,0.981627183447664));
#266=DIRECTION('',(-5.55111512312578E-16,-0.981627183447664,0.190808995376545));
#267=DIRECTION('',(1.0,-5.55111512312578E-16,0.0));
#268=DIRECTION('',(-0.187427559991896,-0.187427559991895,0.964231206459825));
#269=DIRECTION('',(-0.190808995376545,4.57966997657877E-16,0.981627183447664));
#270=DIRECTION('',(2.22044604925031E-16,-1.0,4.83917906144226E-16));
#271=DIRECTION('',(0.190808995376545,-4.57966997657877E-16,-0.981627183447664));
#272=DIRECTION('',(0.981627183447664,3.33066907387547E-16,0.190808995376545));
#273=DIRECTION('',(-2.77555756156289E-16,1.0,0.0));
#274=DIRECTION('',(0.187427559991896,-0.187427559991896,0.964231206459825));
#275=DIRECTION('',(-1.66533453693773E-16,-0.190808995376544,0.981627183447664));
#276=DIRECTION('',(1.0,-2.22044604925031E-16,1.45568472407846E-16));
#277=DIRECTION('',(1.66533453693773E-16,0.190808995376544,-0.981627183447664));
#278=DIRECTION('',(1.66533453693773E-16,0.981627183447664,0.190808995376544));
#279=DIRECTION('',(-1.0,2.22044604925031E-16,0.0));
#280=DIRECTION('',(0.190808995376545,4.9960036108132E-16,0.981627183447664));
#281=DIRECTION('',(0.0,1.0,-4.94708180881149E-16));
#282=DIRECTION('',(-0.190808995376545,-4.9960036108132E-16,-0.981627183447664));
#283=DIRECTION('',(-0.981627183447664,1.11022302462516E-16,0.190808995376545));
#284=DIRECTION('',(-1.11022302462516E-16,-1.0,0.0));
#285=DIRECTION('',(-1.3987061727561E-16,4.91004146061257E-16,1.0));
#286=DIRECTION('',(-0.707106781186547,0.707106781186547,-4.46095823234957E-16));
#287=DIRECTION('',(-1.3987061727561E-16,4.91004146061257E-16,1.0));
#288=DIRECTION('',(-0.707106781186548,0.707106781186547,-4.46095823234957E-16));
#289=DIRECTION('',(-1.3987061727561E-16,4.91004146061257E-16,1.0));
#290=DIRECTION('',(-0.707106781186548,0.707106781186548,-4.46095823234957E-16));
#291=DIRECTION('',(-1.3987061727561E-16,4.91004146061257E-16,1.0));
#292=DIRECTION('',(-0.707106781186547,0.707106781186548,-4.46095823234957E-16));
#293=DIRECTION('',(-1.3987061727561E-16,4.91004146061257E-16,1.0));
#294=DIRECTION('',(-0.707106781186548,0.707106781186548,-4.46095823234957E-16));
#295=DIRECTION('',(-1.3987061727561E-16,4.91004146061257E-16,1.0));
#296=DIRECTION('',(-0.707106781186548,0.707106781186548,-5.45504409943895E-16));
#297=DIRECTION('',(-1.3987061727561E-16,4.91004146061257E-16,1.0));
#298=DIRECTION('',(-0.707106781186548,0.707106781186548,-5.67769896064054E-16));
#299=DIRECTION('',(-1.3987061727561E-16,4.91004146061257E-16,1.0));
#300=DIRECTION('',(-0.707106781186548,0.707106781186548,-5.63316798840022E-16));
#301=DIRECTION('',(-1.3987061727561E-16,4.91004146061257E-16,1.0));
#302=DIRECTION('',(-0.707106781186548,0.707106781186547,-5.41051312719863E-16));
#303=CARTESIAN_POINT('',(0.0,0.0,0.0));
#306=CARTESIAN_POINT('',(7.381875,0.0,0.0));
#307=CARTESIAN_POINT('',(9.15618830037834,-8.88178419700125E-16,1.9879250161477E-16));
#308=CARTESIAN_POINT('',(9.21231490113502,0.00496093749999638,2.03860178332143E-16));
#309=CARTESIAN_POINT('',(9.30791126309466,0.0290837384929992,2.03699869653915E-16));
#310=CARTESIAN_POINT('',(9.42029137067686,0.104708629322937,1.76997559647112E-16));
#311=CARTESIAN_POINT('',(9.49591626150709,0.21708873690559,1.24536823542501E-16));
#312=CARTESIAN_POINT('',(9.5200390625,0.312685098864977,7.42871234590857E-17));
#313=CARTESIAN_POINT('',(9.525,0.368811699621658,4.34973880269112E-17));
#314=CARTESIAN_POINT('',(9.525,2.143125,1.66533453693772E-17));
#315=CARTESIAN_POINT('',(9.525,3.889375,1.11022302462515E-17));
#316=CARTESIAN_POINT('',(9.525,5.635625,1.11022302462515E-17));
#317=CARTESIAN_POINT('',(9.525,7.381875,1.66533453693773E-17));
#318=CARTESIAN_POINT('',(9.525,9.15618830037834,1.59389943510556E-17));
#319=CARTESIAN_POINT('',(9.5200390625,9.21231490113502,-7.17013712805611E-18));
#320=CARTESIAN_POINT('',(9.495916261507,9.30791126309467,-4.4874659534536E-17));
#321=CARTESIAN_POINT('',(9.42029137067706,9.42029137067686,-8.420605347401E-17));
#322=CARTESIAN_POINT('',(9.30791126309441,9.49591626150709,-1.04178463974309E-16));
#323=CARTESIAN_POINT('',(9.21231490113502,9.5200390625,-1.04237840865139E-16));
#324=CARTESIAN_POINT('',(9.15618830037834,9.525,-1.00398002506285E-16));
#325=CARTESIAN_POINT('',(7.381875,9.525,-5.84601811404182E-17));
#326=CARTESIAN_POINT('',(5.635625,9.525,-3.89734540936122E-17));
#327=CARTESIAN_POINT('',(3.889375,9.525,-3.89734540936122E-17));
#328=CARTESIAN_POINT('',(2.143125,9.525,-5.84601811404183E-17));
#329=CARTESIAN_POINT('',(0.368811699621657,9.525,-1.08248464799704E-16));
#330=CARTESIAN_POINT('',(0.312685098864974,9.5200390625,-1.27095338355004E-16));
#331=CARTESIAN_POINT('',(0.21708873690533,9.495916261507,-1.50404134712055E-16));
#332=CARTESIAN_POINT('',(0.104708629323139,9.42029137067706,-1.51291374084084E-16));
#333=CARTESIAN_POINT('',(0.0290837384929077,9.30791126309441,-1.17396705451011E-16));
#334=CARTESIAN_POINT('',(0.00496093749999726,9.21231490113502,-7.30692030186602E-17));
#335=CARTESIAN_POINT('',(-2.66453525910038E-15,9.15618830037834,-4.34973880269111E-17));
#336=CARTESIAN_POINT('',(-3.5527136788005E-15,7.381875,-1.66533453693771E-17));
#337=CARTESIAN_POINT('',(-3.5527136788005E-15,5.635625,-1.11022302462514E-17));
#338=CARTESIAN_POINT('',(-5.32907051820075E-15,3.889375,-1.11022302462515E-17));
#339=CARTESIAN_POINT('',(-3.5527136788005E-15,2.143125,-1.66533453693774E-17));
#340=CARTESIAN_POINT('',(-2.66453525910038E-15,0.36881169962166,-1.59389943510558E-17));
#341=CARTESIAN_POINT('',(0.00496093749999993,0.31268509886498,7.17013712805596E-18));
#342=CARTESIAN_POINT('',(0.0290837384929912,0.217088736905328,4.4874659534536E-17));
#343=CARTESIAN_POINT('',(0.104708629322944,0.10470862932315,8.420605347401E-17));
#344=CARTESIAN_POINT('',(0.217088736905586,0.0290837384929077,1.0417846397431E-16));
#345=CARTESIAN_POINT('',(0.312685098864974,0.00496093750000082,1.04237840865139E-16));
#346=CARTESIAN_POINT('',(0.368811699621657,8.88178419700125E-16,1.00398002506285E-16));
#347=CARTESIAN_POINT('',(2.143125,0.0,5.84601811404183E-17));
#348=CARTESIAN_POINT('',(3.889375,0.0,2.92300905702091E-17));
#349=CARTESIAN_POINT('',(5.635625,0.0,9.74336352340305E-18));
#350=CARTESIAN_POINT('',(7.381875,0.0,0.0));
#351=CARTESIAN_POINT('',(9.15618830037834,-8.88178419700125E-16,1.9879250161477E-16));
#352=CARTESIAN_POINT('',(0.0,0.0,0.0));
#353=CARTESIAN_POINT('',(4.7625,4.7625,0.0));
#354=CARTESIAN_POINT('',(4.7625,8.90784251848774,-3.175));
#355=CARTESIAN_POINT('',(0.617157481512253,8.90784251848775,-3.175));
#356=CARTESIAN_POINT('',(8.90784251848774,8.90784251848774,-3.175));
#357=CARTESIAN_POINT('',(8.90784251848774,4.7625,-3.175));
#358=CARTESIAN_POINT('',(8.90784251848774,0.617157481512254,-3.175));
#359=CARTESIAN_POINT('',(4.7625,0.617157481512256,-3.175));
#360=CARTESIAN_POINT('',(0.617157481512256,0.617157481512256,-3.175));
#361=CARTESIAN_POINT('',(0.617157481512254,4.7625,-3.175));
#362=CARTESIAN_POINT('',(4.7625,4.23216991411009,-3.175));
#363=CARTESIAN_POINT('',(4.7625,9.525,-5.27182464349352E-15));
#364=CARTESIAN_POINT('',(9.128125,9.525,-4.66120197994968E-15));
#365=CARTESIAN_POINT('',(0.396874999999996,9.525,-5.88244730703735E-15));
#366=CARTESIAN_POINT('',(9.128125,9.525,-4.85954442000954E-15));
#367=CARTESIAN_POINT('',(9.128125,9.128125,-2.04174487508822));
#368=CARTESIAN_POINT('',(9.35769770771049,9.35769770771049,-0.860695679679022));
#369=CARTESIAN_POINT('',(0.167302292289504,9.3576977077105,-0.860695679679025));
#370=CARTESIAN_POINT('',(0.396874999999997,9.128125,-2.04174487508822));
#371=CARTESIAN_POINT('',(0.396874999999996,9.525,-6.17383546763617E-15));
#372=CARTESIAN_POINT('',(4.7625,9.525,-5.27182464349352E-15));
#373=CARTESIAN_POINT('',(0.167302292289505,0.167302292289507,-0.860695679679018));
#374=CARTESIAN_POINT('',(0.396874999999999,0.396875000000001,-2.04174487508822));
#375=CARTESIAN_POINT('',(-8.67361737988404E-16,0.396875000000001,-1.65535213872789E-15));
#376=CARTESIAN_POINT('',(-8.67361737988404E-16,0.396875000000001,-1.4560112375032E-15));
#377=CARTESIAN_POINT('',(-3.46944695195361E-15,4.7625,-3.59955121265187E-15));
#378=CARTESIAN_POINT('',(-2.60208521396521E-15,9.128125,-5.74309118780055E-15));
#379=CARTESIAN_POINT('',(-2.60208521396521E-15,9.128125,-5.62508355713375E-15));
#380=CARTESIAN_POINT('',(-1.73472347597681E-15,4.7625,-3.59955121265187E-15));
#381=CARTESIAN_POINT('',(9.35769770771049,0.167302292289505,-0.860695679679018));
#382=CARTESIAN_POINT('',(9.128125,0.396874999999997,-2.04174487508821));
#383=CARTESIAN_POINT('',(9.128125,-8.67361737988404E-16,3.71998038227407E-17));
#384=CARTESIAN_POINT('',(9.128125,-8.67361737988404E-16,1.56125112837908E-17));
#385=CARTESIAN_POINT('',(4.7625,0.0,-5.95010152260045E-16));
#386=CARTESIAN_POINT('',(0.396874999999998,1.73472347597681E-15,-1.20563281580388E-15));
#387=CARTESIAN_POINT('',(0.396874999999998,1.73472347597681E-15,-1.33030536004713E-15));
#388=CARTESIAN_POINT('',(4.7625,0.0,-5.95010152260045E-16));
#389=CARTESIAN_POINT('',(9.525,9.128125,-4.16233378416525E-15));
#390=CARTESIAN_POINT('',(9.525,9.128125,-4.41082355825036E-15));
#391=CARTESIAN_POINT('',(9.525,4.7625,-2.26728358310169E-15));
#392=CARTESIAN_POINT('',(9.525,0.396874999999999,-1.23743607953013E-16));
#393=CARTESIAN_POINT('',(9.525,0.396874999999998,-3.52077236219533E-16));
#394=CARTESIAN_POINT('',(9.525,4.7625,-2.26728358310169E-15));
#395=CARTESIAN_POINT('',(9.128125,9.128125,-4.46633470948162E-15));
#396=CARTESIAN_POINT('',(0.396874999999997,9.128125,-5.68758003656929E-15));
#397=CARTESIAN_POINT('',(0.396874999999997,0.396875000000001,-1.40050008627194E-15));
#398=CARTESIAN_POINT('',(9.128125,0.396874999999998,-1.7925475918427E-16));
#399=CARTESIAN_POINT('',(4.7625,4.7625,-2.93341739787678E-15));
#400=CARTESIAN_POINT('',(9.128125,9.128125,-4.77048955893622E-15));
#401=CARTESIAN_POINT('',(9.128125,0.396874999999998,-4.33680868994202E-16));
#402=CARTESIAN_POINT('',(0.396874999999997,0.396875000000001,-1.30104260698261E-15));
#403=CARTESIAN_POINT('',(0.396874999999997,9.128125,-5.63785129692462E-15));
#404=MECHANICAL_DESIGN_GEOMETRIC_PRESENTATION_REPRESENTATION('',(#216,#217,#218,
     #219),#405);
#405=(GEOMETRIC_REPRESENTATION_CONTEXT(3)GLOBAL_UNCERTAINTY_ASSIGNED_CONTEXT((#406))
     GLOBAL_UNIT_ASSIGNED_CONTEXT((#412,#408,#407))REPRESENTATION_CONTEXT('SPMR090304',
     'TOP_LEVEL_ASSEMBLY_PART'));
#406=UNCERTAINTY_MEASURE_WITH_UNIT(LENGTH_MEASURE(2.0E-5),#412,'DISTANCE_ACCURACY_VALUE',
     'Maximum Tolerance applied to model');
#407=(NAMED_UNIT(*)SI_UNIT($,.STERADIAN.)SOLID_ANGLE_UNIT());
#408=(CONVERSION_BASED_UNIT('DEGREE',#410)NAMED_UNIT(#409)PLANE_ANGLE_UNIT());
#409=DIMENSIONAL_EXPONENTS(0.0,0.0,0.0,0.0,0.0,0.0,0.0);
#410=PLANE_ANGLE_MEASURE_WITH_UNIT(PLANE_ANGLE_MEASURE(0.0174532925),#411);
#411=(NAMED_UNIT(*)PLANE_ANGLE_UNIT()SI_UNIT($,.RADIAN.));
#412=(LENGTH_UNIT()NAMED_UNIT(*)SI_UNIT(.MILLI.,.METRE.));
#413=CONSTRUCTIVE_GEOMETRY_REPRESENTATION('supplemental geometry',(#233,#234),#405);
#414=CONSTRUCTIVE_GEOMETRY_REPRESENTATION_RELATIONSHIP('supplemental geometry','contains PCS and MCS coordinate systems',
     #24,#413);
ENDSEC;
END-ISO-10303-21;
