ISO-10303-21;
HEADER;
FILE_DESCRIPTION(
/* description */ (''),
/* implementation_level */ '2;1');
FILE_NAME(
/* name */ 'CPMT060204.stp',
/* time_stamp */ '2017-03-21T10:54:00',
/* author */ ('Sandvik Coromant R&D'),
/* organization */ ('Sandvik Machining Solutions'),
/* preprocessor_version */ 'ST-DEVELOPER v15',
/* originating_system */ 'SIEMENS PLM Software NX v8.5.3.3(64 bits)',
/* authorization */ '');
FILE_SCHEMA(('AUTOMOTIVE_DESIGN'));
ENDSEC;
DATA;
#10=GEOMETRICALLY_BOUNDED_WIREFRAME_SHAPE_REPRESENTATION('IsoTurningInsert-None',
     (#25),#507);
#11=SHAPE_REPRESENTATION_RELATIONSHIP('None','relationship between IsoTurningInsert-None and IsoTurningInsert-None',
     #24,#13);
#12=SHAPE_REPRESENTATION_RELATIONSHIP('None','relationship between IsoTurningInsert-None and IsoTurningInsert-None',
     #24,#10);
#13=ADVANCED_BREP_SHAPE_REPRESENTATION('IsoTurningInsert-None',(#31),#507);
#14=SHAPE_DEFINITION_REPRESENTATION(#15,#24);
#15=PRODUCT_DEFINITION_SHAPE('','',#16);
#16=PRODUCT_DEFINITION(' ','',#18,#17);
#17=PRODUCT_DEFINITION_CONTEXT('part definition',#23,'design');
#18=PRODUCT_DEFINITION_FORMATION_WITH_SPECIFIED_SOURCE(' ',' ',#20,.NOT_KNOWN.);
#19=PRODUCT_RELATED_PRODUCT_CATEGORY('part','',(#20));
#20=PRODUCT('IsoTurningInsert','IsoTurningInsert',' ',(#21));
#21=PRODUCT_CONTEXT(' ',#23,'mechanical');
#22=APPLICATION_PROTOCOL_DEFINITION('international standard','automotive_design',
     2010,#23);
#23=APPLICATION_CONTEXT('core data for automotive mechanical design processes');
#24=SHAPE_REPRESENTATION('IsoTurningInsert-None',(#285),#507);
#25=GEOMETRIC_CURVE_SET('geometric curve set',(#265));
#26=SURFACE_STYLE_USAGE(.BOTH.,#27);
#27=SURFACE_SIDE_STYLE('',(#28));
#28=SURFACE_STYLE_FILL_AREA(#29);
#29=FILL_AREA_STYLE('',(#30));
#30=FILL_AREA_STYLE_COLOUR('',#284);
#31=MANIFOLD_SOLID_BREP('CUT',#32);
#32=CLOSED_SHELL('',(#49,#50,#51,#52,#53,#54,#55,#56,#57,#58,#59,#60,#61,#62));
#33=CYLINDRICAL_SURFACE('',#309,1.4);
#34=TOROIDAL_SURFACE('',#308,3.9,2.5);
#35=TOROIDAL_SURFACE('',#310,1.38569981785225,0.5);
#36=CONICAL_SURFACE('',#300,0.396875000000002,11.0);
#37=CONICAL_SURFACE('',#301,0.396875000000002,11.0);
#38=CONICAL_SURFACE('',#302,0.396875000000002,11.0);
#39=CONICAL_SURFACE('',#303,0.396875000000002,11.0);
#40=CONICAL_SURFACE('',#305,1.87499999997636,4.00000000179043);
#41=FACE_OUTER_BOUND('',#123,.T.);
#42=FACE_OUTER_BOUND('',#124,.T.);
#43=FACE_OUTER_BOUND('',#125,.T.);
#44=FACE_OUTER_BOUND('',#126,.T.);
#45=FACE_OUTER_BOUND('',#129,.T.);
#46=FACE_OUTER_BOUND('',#130,.T.);
#47=FACE_OUTER_BOUND('',#131,.T.);
#48=FACE_OUTER_BOUND('',#132,.T.);
#49=ADVANCED_FACE('',(#109,#110),#63,.F.);
#50=ADVANCED_FACE('',(#41),#64,.F.);
#51=ADVANCED_FACE('',(#42),#65,.F.);
#52=ADVANCED_FACE('',(#43),#66,.F.);
#53=ADVANCED_FACE('',(#44),#67,.F.);
#54=ADVANCED_FACE('',(#111,#112),#68,.T.);
#55=ADVANCED_FACE('',(#45),#36,.T.);
#56=ADVANCED_FACE('',(#46),#37,.T.);
#57=ADVANCED_FACE('',(#47),#38,.T.);
#58=ADVANCED_FACE('',(#48),#39,.T.);
#59=ADVANCED_FACE('',(#113,#114),#40,.F.);
#60=ADVANCED_FACE('',(#115,#116),#34,.T.);
#61=ADVANCED_FACE('',(#117,#118),#33,.F.);
#62=ADVANCED_FACE('',(#119,#120),#35,.F.);
#63=PLANE('',#289);
#64=PLANE('',#290);
#65=PLANE('',#291);
#66=PLANE('',#292);
#67=PLANE('',#293);
#68=PLANE('',#299);
#69=LINE('',#444,#89);
#70=LINE('',#447,#90);
#71=LINE('',#449,#91);
#72=LINE('',#451,#92);
#73=LINE('',#453,#93);
#74=LINE('',#456,#94);
#75=LINE('',#458,#95);
#76=LINE('',#459,#96);
#77=LINE('',#461,#97);
#78=LINE('',#463,#98);
#79=LINE('',#465,#99);
#80=LINE('',#467,#100);
#81=LINE('',#469,#101);
#82=LINE('',#471,#102);
#83=LINE('',#473,#103);
#84=LINE('',#475,#104);
#85=LINE('',#477,#105);
#86=LINE('',#479,#106);
#87=LINE('',#481,#107);
#88=LINE('',#483,#108);
#89=VECTOR('',#319,1.0);
#90=VECTOR('',#320,1.0);
#91=VECTOR('',#321,1.0);
#92=VECTOR('',#322,1.0);
#93=VECTOR('',#325,1.0);
#94=VECTOR('',#326,1.0);
#95=VECTOR('',#327,1.0);
#96=VECTOR('',#328,1.0);
#97=VECTOR('',#329,1.0);
#98=VECTOR('',#332,1.0);
#99=VECTOR('',#333,1.0);
#100=VECTOR('',#334,1.0);
#101=VECTOR('',#335,1.0);
#102=VECTOR('',#338,1.0);
#103=VECTOR('',#339,1.0);
#104=VECTOR('',#340,1.0);
#105=VECTOR('',#341,1.0);
#106=VECTOR('',#344,1.0);
#107=VECTOR('',#345,1.0);
#108=VECTOR('',#346,1.0);
#109=FACE_BOUND('',#121,.T.);
#110=FACE_BOUND('',#122,.T.);
#111=FACE_BOUND('',#127,.T.);
#112=FACE_BOUND('',#128,.T.);
#113=FACE_BOUND('',#133,.T.);
#114=FACE_BOUND('',#134,.T.);
#115=FACE_BOUND('',#135,.T.);
#116=FACE_BOUND('',#136,.T.);
#117=FACE_BOUND('',#137,.T.);
#118=FACE_BOUND('',#138,.T.);
#119=FACE_BOUND('',#139,.T.);
#120=FACE_BOUND('',#140,.T.);
#121=EDGE_LOOP('',(#141));
#122=EDGE_LOOP('',(#142,#143,#144,#145));
#123=EDGE_LOOP('',(#146,#147,#148,#149,#150,#151));
#124=EDGE_LOOP('',(#152,#153,#154,#155,#156,#157));
#125=EDGE_LOOP('',(#158,#159,#160,#161,#162,#163));
#126=EDGE_LOOP('',(#164,#165,#166,#167,#168,#169));
#127=EDGE_LOOP('',(#170));
#128=EDGE_LOOP('',(#171,#172,#173,#174,#175,#176,#177,#178));
#129=EDGE_LOOP('',(#179,#180,#181));
#130=EDGE_LOOP('',(#182,#183,#184));
#131=EDGE_LOOP('',(#185,#186,#187));
#132=EDGE_LOOP('',(#188,#189,#190));
#133=EDGE_LOOP('',(#191));
#134=EDGE_LOOP('',(#192));
#135=EDGE_LOOP('',(#193));
#136=EDGE_LOOP('',(#194));
#137=EDGE_LOOP('',(#195));
#138=EDGE_LOOP('',(#196));
#139=EDGE_LOOP('',(#197));
#140=EDGE_LOOP('',(#198));
#141=ORIENTED_EDGE('',*,*,#220,.T.);
#142=ORIENTED_EDGE('',*,*,#221,.T.);
#143=ORIENTED_EDGE('',*,*,#222,.T.);
#144=ORIENTED_EDGE('',*,*,#223,.T.);
#145=ORIENTED_EDGE('',*,*,#224,.T.);
#146=ORIENTED_EDGE('',*,*,#225,.F.);
#147=ORIENTED_EDGE('',*,*,#226,.T.);
#148=ORIENTED_EDGE('',*,*,#227,.F.);
#149=ORIENTED_EDGE('',*,*,#221,.F.);
#150=ORIENTED_EDGE('',*,*,#228,.T.);
#151=ORIENTED_EDGE('',*,*,#229,.T.);
#152=ORIENTED_EDGE('',*,*,#224,.F.);
#153=ORIENTED_EDGE('',*,*,#230,.T.);
#154=ORIENTED_EDGE('',*,*,#231,.T.);
#155=ORIENTED_EDGE('',*,*,#232,.F.);
#156=ORIENTED_EDGE('',*,*,#233,.T.);
#157=ORIENTED_EDGE('',*,*,#228,.F.);
#158=ORIENTED_EDGE('',*,*,#223,.F.);
#159=ORIENTED_EDGE('',*,*,#234,.T.);
#160=ORIENTED_EDGE('',*,*,#235,.T.);
#161=ORIENTED_EDGE('',*,*,#236,.F.);
#162=ORIENTED_EDGE('',*,*,#237,.T.);
#163=ORIENTED_EDGE('',*,*,#230,.F.);
#164=ORIENTED_EDGE('',*,*,#222,.F.);
#165=ORIENTED_EDGE('',*,*,#227,.T.);
#166=ORIENTED_EDGE('',*,*,#238,.T.);
#167=ORIENTED_EDGE('',*,*,#239,.F.);
#168=ORIENTED_EDGE('',*,*,#240,.T.);
#169=ORIENTED_EDGE('',*,*,#234,.F.);
#170=ORIENTED_EDGE('',*,*,#241,.F.);
#171=ORIENTED_EDGE('',*,*,#239,.T.);
#172=ORIENTED_EDGE('',*,*,#242,.T.);
#173=ORIENTED_EDGE('',*,*,#225,.T.);
#174=ORIENTED_EDGE('',*,*,#243,.T.);
#175=ORIENTED_EDGE('',*,*,#232,.T.);
#176=ORIENTED_EDGE('',*,*,#244,.T.);
#177=ORIENTED_EDGE('',*,*,#236,.T.);
#178=ORIENTED_EDGE('',*,*,#245,.T.);
#179=ORIENTED_EDGE('',*,*,#238,.F.);
#180=ORIENTED_EDGE('',*,*,#226,.F.);
#181=ORIENTED_EDGE('',*,*,#242,.F.);
#182=ORIENTED_EDGE('',*,*,#235,.F.);
#183=ORIENTED_EDGE('',*,*,#240,.F.);
#184=ORIENTED_EDGE('',*,*,#245,.F.);
#185=ORIENTED_EDGE('',*,*,#231,.F.);
#186=ORIENTED_EDGE('',*,*,#237,.F.);
#187=ORIENTED_EDGE('',*,*,#244,.F.);
#188=ORIENTED_EDGE('',*,*,#229,.F.);
#189=ORIENTED_EDGE('',*,*,#233,.F.);
#190=ORIENTED_EDGE('',*,*,#243,.F.);
#191=ORIENTED_EDGE('',*,*,#246,.T.);
#192=ORIENTED_EDGE('',*,*,#241,.T.);
#193=ORIENTED_EDGE('',*,*,#247,.T.);
#194=ORIENTED_EDGE('',*,*,#248,.T.);
#195=ORIENTED_EDGE('',*,*,#248,.F.);
#196=ORIENTED_EDGE('',*,*,#220,.F.);
#197=ORIENTED_EDGE('',*,*,#247,.F.);
#198=ORIENTED_EDGE('',*,*,#246,.F.);
#199=VERTEX_POINT('',#443);
#200=VERTEX_POINT('',#445);
#201=VERTEX_POINT('',#446);
#202=VERTEX_POINT('',#448);
#203=VERTEX_POINT('',#450);
#204=VERTEX_POINT('',#454);
#205=VERTEX_POINT('',#455);
#206=VERTEX_POINT('',#457);
#207=VERTEX_POINT('',#460);
#208=VERTEX_POINT('',#464);
#209=VERTEX_POINT('',#466);
#210=VERTEX_POINT('',#468);
#211=VERTEX_POINT('',#472);
#212=VERTEX_POINT('',#474);
#213=VERTEX_POINT('',#476);
#214=VERTEX_POINT('',#480);
#215=VERTEX_POINT('',#482);
#216=VERTEX_POINT('',#486);
#217=VERTEX_POINT('',#497);
#218=VERTEX_POINT('',#500);
#219=VERTEX_POINT('',#502);
#220=EDGE_CURVE('',#199,#199,#249,.T.);
#221=EDGE_CURVE('',#200,#201,#69,.T.);
#222=EDGE_CURVE('',#201,#202,#70,.T.);
#223=EDGE_CURVE('',#202,#203,#71,.T.);
#224=EDGE_CURVE('',#203,#200,#72,.T.);
#225=EDGE_CURVE('',#204,#205,#73,.T.);
#226=EDGE_CURVE('',#204,#206,#74,.T.);
#227=EDGE_CURVE('INSERT_CORNER_EDGE3',#201,#206,#75,.T.);
#228=EDGE_CURVE('INSERT_CORNER_EDGE4',#200,#207,#76,.T.);
#229=EDGE_CURVE('',#207,#205,#77,.T.);
#230=EDGE_CURVE('INSERT_CORNER_EDGE1',#203,#208,#78,.T.);
#231=EDGE_CURVE('',#208,#209,#79,.T.);
#232=EDGE_CURVE('',#210,#209,#80,.T.);
#233=EDGE_CURVE('',#210,#207,#81,.T.);
#234=EDGE_CURVE('INSERT_CORNER_EDGE2',#202,#211,#82,.T.);
#235=EDGE_CURVE('',#211,#212,#83,.T.);
#236=EDGE_CURVE('',#213,#212,#84,.T.);
#237=EDGE_CURVE('',#213,#208,#85,.T.);
#238=EDGE_CURVE('',#206,#214,#86,.T.);
#239=EDGE_CURVE('',#215,#214,#87,.T.);
#240=EDGE_CURVE('',#215,#211,#88,.T.);
#241=EDGE_CURVE('',#216,#216,#250,.T.);
#242=EDGE_CURVE('',#214,#204,#251,.T.);
#243=EDGE_CURVE('',#205,#210,#252,.T.);
#244=EDGE_CURVE('',#209,#213,#253,.T.);
#245=EDGE_CURVE('',#212,#215,#254,.T.);
#246=EDGE_CURVE('',#217,#217,#255,.T.);
#247=EDGE_CURVE('',#218,#218,#256,.T.);
#248=EDGE_CURVE('',#219,#219,#257,.T.);
#249=CIRCLE('',#288,1.4);
#250=CIRCLE('',#294,1.92255023212159);
#251=CIRCLE('',#295,0.396875000000002);
#252=CIRCLE('',#296,0.396875000000002);
#253=CIRCLE('',#297,0.396875000000002);
#254=CIRCLE('',#298,0.396875000000002);
#255=CIRCLE('',#304,1.88448184298103);
#256=CIRCLE('',#306,1.80474984821024);
#257=CIRCLE('',#307,1.4);
#258=CURVE_STYLE('',#262,POSITIVE_LENGTH_MEASURE(0.18),#261);
#259=CURVE_STYLE('',#263,POSITIVE_LENGTH_MEASURE(0.18),#283);
#260=CURVE_STYLE('',#264,POSITIVE_LENGTH_MEASURE(0.18),#283);
#261=DRAUGHTING_PRE_DEFINED_COLOUR('blue');
#262=DRAUGHTING_PRE_DEFINED_CURVE_FONT('continuous');
#263=DRAUGHTING_PRE_DEFINED_CURVE_FONT('continuous');
#264=DRAUGHTING_PRE_DEFINED_CURVE_FONT('continuous');
#265=B_SPLINE_CURVE_WITH_KNOTS('CUTTING EDGE LINE',5,(#386,#387,#388,#389,#390,#391,
     #392,#393,#394,#395,#396,#397,#398,#399,#400,#401,#402,#403,#404,#405,#406,
     #407,#408,#409,#410,#411,#412,#413,#414,#415,#416,#417,#418,#419,#420,#421,
     #422,#423,#424,#425,#426,#427,#428,#429,#430,#431,#432,#433,#434,#435,#436,
     #437,#438,#439),.UNSPECIFIED.,.T.,.F.,(2,4,1,1,1,4,4,1,1,1,1,1,1,1,4,4,1,1,
     1,4,4,1,1,1,1,1,1,1,4,4,1,1),(-0.225124797,0.0,0.00552782287499998,0.01105564575,
     0.016583468625,0.0221112915,0.2472360885,0.2506909778125,0.254145867125,0.2576007564375,
     0.26105564575,0.2645105350625,0.267965424375,0.2714203136875,0.274875203,0.5,
     0.505527822875,0.51105564575,0.516583468625,0.5221112915,0.7472360885,0.7506909778125,
     0.754145867125,0.7576007564375,0.76105564575,0.7645105350625,0.767965424375,
     0.7714203136875,0.774875203,1.0,1.005527822875,1.01105564575),.UNSPECIFIED.);
#266=PRESENTATION_LAYER_ASSIGNMENT('1','Layer 1',(#265,#286,#287,#31));
#269=STYLED_ITEM('',(#275),#265);
#270=STYLED_ITEM('',(#276),#286);
#271=STYLED_ITEM('',(#277),#287);
#272=STYLED_ITEM('',(#278),#31);
#273=PRESENTATION_STYLE_ASSIGNMENT((#279));
#274=PRESENTATION_STYLE_ASSIGNMENT((#280));
#275=PRESENTATION_STYLE_ASSIGNMENT((#258));
#276=PRESENTATION_STYLE_ASSIGNMENT((#259));
#277=PRESENTATION_STYLE_ASSIGNMENT((#260));
#278=PRESENTATION_STYLE_ASSIGNMENT((#26));
#279=POINT_STYLE('',#281,POSITIVE_LENGTH_MEASURE(3.0),#283);
#280=POINT_STYLE('',#282,POSITIVE_LENGTH_MEASURE(3.0),#283);
#281=PRE_DEFINED_POINT_MARKER_SYMBOL('plus');
#282=PRE_DEFINED_POINT_MARKER_SYMBOL('plus');
#283=COLOUR_RGB('Medium Maroon',0.6,0.4,0.4);
#284=COLOUR_RGB('IsoInsertColor',0.8,0.8,0.8);
#285=AXIS2_PLACEMENT_3D('',#383,#311,#312);
#286=AXIS2_PLACEMENT_3D('PCS',#440,#313,#314);
#287=AXIS2_PLACEMENT_3D('MCS',#441,#315,#316);
#288=AXIS2_PLACEMENT_3D('',#442,#317,#318);
#289=AXIS2_PLACEMENT_3D('',#452,#323,#324);
#290=AXIS2_PLACEMENT_3D('',#462,#330,#331);
#291=AXIS2_PLACEMENT_3D('',#470,#336,#337);
#292=AXIS2_PLACEMENT_3D('',#478,#342,#343);
#293=AXIS2_PLACEMENT_3D('',#484,#347,#348);
#294=AXIS2_PLACEMENT_3D('',#485,#349,#350);
#295=AXIS2_PLACEMENT_3D('',#487,#351,#352);
#296=AXIS2_PLACEMENT_3D('',#488,#353,#354);
#297=AXIS2_PLACEMENT_3D('',#489,#355,#356);
#298=AXIS2_PLACEMENT_3D('',#490,#357,#358);
#299=AXIS2_PLACEMENT_3D('',#491,#359,#360);
#300=AXIS2_PLACEMENT_3D('',#492,#361,#362);
#301=AXIS2_PLACEMENT_3D('',#493,#363,#364);
#302=AXIS2_PLACEMENT_3D('',#494,#365,#366);
#303=AXIS2_PLACEMENT_3D('',#495,#367,#368);
#304=AXIS2_PLACEMENT_3D('',#496,#369,#370);
#305=AXIS2_PLACEMENT_3D('',#498,#371,#372);
#306=AXIS2_PLACEMENT_3D('',#499,#373,#374);
#307=AXIS2_PLACEMENT_3D('',#501,#375,#376);
#308=AXIS2_PLACEMENT_3D('',#503,#377,#378);
#309=AXIS2_PLACEMENT_3D('',#504,#379,#380);
#310=AXIS2_PLACEMENT_3D('',#505,#381,#382);
#311=DIRECTION('',(0.0,0.0,1.0));
#312=DIRECTION('',(1.0,0.0,0.0));
#313=DIRECTION('',(0.0,0.0,1.0));
#314=DIRECTION('',(1.0,0.0,0.0));
#315=DIRECTION('',(0.0,0.0,1.0));
#316=DIRECTION('',(1.0,0.0,0.0));
#317=DIRECTION('',(0.0,0.0,1.0));
#318=DIRECTION('',(-0.766044443118978,-0.642787609686539,0.0));
#319=DIRECTION('',(1.0,3.88578058618805E-16,0.0));
#320=DIRECTION('',(-0.173648177666929,-0.984807753012208,0.0));
#321=DIRECTION('',(-1.0,9.99200722162641E-16,0.0));
#322=DIRECTION('',(0.173648177666931,0.984807753012208,0.0));
#323=DIRECTION('',(0.0,0.0,1.0));
#324=DIRECTION('',(-0.766044443118978,-0.642787609686539,0.0));
#325=DIRECTION('',(-1.0,-4.9960036108132E-16,-1.99095921005007E-16));
#326=DIRECTION('',(2.91433543964104E-16,-0.190808995376546,-0.981627183447664));
#327=DIRECTION('',(0.2217366128508,0.186059110061607,0.957191141875298));
#328=DIRECTION('',(-0.158094246810827,0.188409386605279,0.969282266506687));
#329=DIRECTION('',(-2.91433543964104E-16,0.190808995376546,0.981627183447664));
#330=DIRECTION('',(3.88578058618805E-16,-0.981627183447664,0.190808995376546));
#331=DIRECTION('',(1.0,3.88578058618805E-16,0.0));
#332=DIRECTION('',(-0.221736612850801,-0.186059110061605,0.957191141875298));
#333=DIRECTION('',(-0.187910177991292,0.0331336343295956,0.981627183447664));
#334=DIRECTION('',(-0.173648177666931,-0.984807753012208,7.31280463572094E-16));
#335=DIRECTION('',(0.187910177991292,-0.0331336343295956,-0.981627183447664));
#336=DIRECTION('',(0.966714060826797,-0.170457771554009,0.190808995376545));
#337=DIRECTION('',(0.173648177666931,0.984807753012208,0.0));
#338=DIRECTION('',(0.158094246810827,-0.188409386605278,0.969282266506687));
#339=DIRECTION('',(-3.88578058618805E-16,-0.190808995376544,0.981627183447664));
#340=DIRECTION('',(1.0,-9.99200722162641E-16,1.99095921005008E-16));
#341=DIRECTION('',(3.88578058618805E-16,0.190808995376544,-0.981627183447664));
#342=DIRECTION('',(9.99200722162641E-16,0.981627183447664,0.190808995376544));
#343=DIRECTION('',(-1.0,9.99200722162641E-16,0.0));
#344=DIRECTION('',(0.187910177991292,-0.0331336343295937,0.981627183447664));
#345=DIRECTION('',(0.173648177666929,0.984807753012208,-7.31280463572095E-16));
#346=DIRECTION('',(-0.187910177991292,0.0331336343295937,-0.981627183447664));
#347=DIRECTION('',(-0.966714060826797,0.170457771554007,0.190808995376544));
#348=DIRECTION('',(-0.173648177666929,-0.984807753012208,0.0));
#349=DIRECTION('',(0.0,0.0,1.0));
#350=DIRECTION('',(-0.766044443118978,-0.642787609686539,0.0));
#351=DIRECTION('',(-2.06618502467438E-16,7.72938635790478E-16,1.0));
#352=DIRECTION('',(-0.64278760968654,0.766044443118978,-7.24917160137316E-16));
#353=DIRECTION('',(-2.06618502467438E-16,7.72938635790478E-16,1.0));
#354=DIRECTION('',(-0.642787609686539,0.766044443118978,-7.24917160137316E-16));
#355=DIRECTION('',(-2.06618502467438E-16,7.72938635790478E-16,1.0));
#356=DIRECTION('',(-0.642787609686539,0.766044443118978,-7.24917160137316E-16));
#357=DIRECTION('',(-2.06618502467438E-16,7.72938635790478E-16,1.0));
#358=DIRECTION('',(-0.64278760968654,0.766044443118978,-7.24917160137316E-16));
#359=DIRECTION('',(-2.06618502467438E-16,7.72938635790478E-16,1.0));
#360=DIRECTION('',(-0.642787609686539,0.766044443118978,-7.24917160137316E-16));
#361=DIRECTION('',(-2.06618502467438E-16,7.72938635790478E-16,1.0));
#362=DIRECTION('',(-0.642787609686539,0.766044443118978,-5.47730958555911E-16));
#363=DIRECTION('',(-2.06618502467438E-16,7.72938635790478E-16,1.0));
#364=DIRECTION('',(-0.642787609686539,0.766044443118978,-5.67769896064054E-16));
#365=DIRECTION('',(-2.06618502467438E-16,7.72938635790478E-16,1.0));
#366=DIRECTION('',(-0.642787609686539,0.766044443118978,-5.61090250228006E-16));
#367=DIRECTION('',(-2.06618502467438E-16,7.72938635790478E-16,1.0));
#368=DIRECTION('',(-0.642787609686539,0.766044443118978,-5.41051312719863E-16));
#369=DIRECTION('',(0.0,0.0,-1.0));
#370=DIRECTION('',(0.766044443118978,0.642787609686539,0.0));
#371=DIRECTION('',(0.0,0.0,1.0));
#372=DIRECTION('',(-0.766044443118978,-0.642787609686539,-9.6639537541671E-17));
#373=DIRECTION('',(0.0,0.0,1.0));
#374=DIRECTION('',(0.766044443118978,0.642787609686539,0.0));
#375=DIRECTION('',(0.0,0.0,-1.0));
#376=DIRECTION('',(-0.766044443118978,-0.642787609686539,0.0));
#377=DIRECTION('',(0.0,0.0,1.0));
#378=DIRECTION('',(-0.766044443118978,-0.642787609686539,0.0));
#379=DIRECTION('',(0.0,0.0,1.0));
#380=DIRECTION('',(-0.766044443118978,-0.642787609686539,0.0));
#381=DIRECTION('',(0.0,0.0,-1.0));
#382=DIRECTION('',(0.766044443118978,0.642787609686539,0.0));
#383=CARTESIAN_POINT('',(0.0,0.0,0.0));
#386=CARTESIAN_POINT('',(4.98654849689294,1.59872115546023E-14,0.0));
#387=CARTESIAN_POINT('',(6.1404519526104,1.4210854715202E-14,3.12030989920408E-16));
#388=CARTESIAN_POINT('',(6.19147321912927,0.00409947974362179,3.18566629781728E-16));
#389=CARTESIAN_POINT('',(6.27613019734868,0.023725740839736,3.16878175245601E-16));
#390=CARTESIAN_POINT('',(6.37811570336567,0.0832359823715807,2.79792704892131E-16));
#391=CARTESIAN_POINT('',(6.45443144787838,0.173338254397748,2.07506718800388E-16));
#392=CARTESIAN_POINT('',(6.48846007196298,0.253301038420887,1.363924468022E-16));
#393=CARTESIAN_POINT('',(6.50135702135106,0.302835310070312,9.06488465572692E-17));
#394=CARTESIAN_POINT('',(6.70173025363997,1.43920837948845,4.02072739357348E-17));
#395=CARTESIAN_POINT('',(6.89767361095225,2.55045837948844,2.68048492904899E-17));
#396=CARTESIAN_POINT('',(7.09361696826453,3.66170837948843,2.680484929049E-17));
#397=CARTESIAN_POINT('',(7.28956032557681,4.77295837948843,4.02072739357352E-17));
#398=CARTESIAN_POINT('',(7.48814334259816,5.89917863360645,5.81401660923387E-17));
#399=CARTESIAN_POINT('',(7.4919891770189,5.929371903924,4.04203744214636E-17));
#400=CARTESIAN_POINT('',(7.49378106911677,5.97947605569159,1.15554107185638E-17));
#401=CARTESIAN_POINT('',(7.48516295565445,6.04715268173447,-2.61341716501592E-17));
#402=CARTESIAN_POINT('',(7.45434243241374,6.13340816457712,-7.18363280544078E-17));
#403=CARTESIAN_POINT('',(7.40284124503484,6.21172135837271,-1.10562913049169E-16));
#404=CARTESIAN_POINT('',(7.33466089195784,6.27603907038268,-1.39323007262865E-16));
#405=CARTESIAN_POINT('',(7.2550677514099,6.32136946803141,-1.55881509268701E-16));
#406=CARTESIAN_POINT('',(7.18991580508342,6.34160857576844,-1.59789790206538E-16));
#407=CARTESIAN_POINT('',(7.14026168916679,6.34854440118589,-1.579136380841E-16));
#408=CARTESIAN_POINT('',(7.1098593003305,6.34999999999999,-1.55168701030705E-16));
#409=CARTESIAN_POINT('',(5.96626528345434,6.34999999999999,-9.20280063238042E-17));
#410=CARTESIAN_POINT('',(4.83787246099631,6.34999999999998,-6.13520042158694E-17));
#411=CARTESIAN_POINT('',(3.70947963853829,6.34999999999998,-6.13520042158694E-17));
#412=CARTESIAN_POINT('',(2.58108681608026,6.34999999999998,-9.20280063238041E-17));
#413=CARTESIAN_POINT('',(1.4271833603628,6.34999999999998,-1.70400569856679E-16));
#414=CARTESIAN_POINT('',(1.37616209384393,6.34590052025638,-2.00102463678379E-16));
#415=CARTESIAN_POINT('',(1.29150511562452,6.32627425916026,-2.35811110187228E-16));
#416=CARTESIAN_POINT('',(1.18951960960754,6.26676401762842,-2.40864790095857E-16));
#417=CARTESIAN_POINT('',(1.11320386509483,6.17666174560225,-1.96410632810067E-16));
#418=CARTESIAN_POINT('',(1.07917524101022,6.09669896157911,-1.34475196670455E-16));
#419=CARTESIAN_POINT('',(1.06627829162214,6.04716468992969,-9.06488465572694E-17));
#420=CARTESIAN_POINT('',(0.865905059333232,4.91079162051155,-4.02072739357349E-17));
#421=CARTESIAN_POINT('',(0.669961702020952,3.79954162051156,-2.68048492904901E-17));
#422=CARTESIAN_POINT('',(0.474018344708671,2.68829162051157,-2.68048492904903E-17));
#423=CARTESIAN_POINT('',(0.278074987396391,1.57704162051158,-4.02072739357357E-17));
#424=CARTESIAN_POINT('',(0.079491970375039,0.450821366393558,-5.81401660923396E-17));
#425=CARTESIAN_POINT('',(0.0756461359542979,0.420628096076012,-4.04203744214645E-17));
#426=CARTESIAN_POINT('',(0.0738542438564247,0.370523944308418,-1.15554107185648E-17));
#427=CARTESIAN_POINT('',(0.0824723573187409,0.302847318265538,2.61341716501581E-17));
#428=CARTESIAN_POINT('',(0.113292880559457,0.216591835422894,7.18363280544069E-17));
#429=CARTESIAN_POINT('',(0.164794067938345,0.138278641627294,1.10562913049168E-16));
#430=CARTESIAN_POINT('',(0.232974421015358,0.0739609296173298,1.39323007262864E-16));
#431=CARTESIAN_POINT('',(0.312567561563288,0.0286305319685951,1.55881509268701E-16));
#432=CARTESIAN_POINT('',(0.377719507889773,0.00839142423156414,1.59789790206537E-16));
#433=CARTESIAN_POINT('',(0.427373623806404,0.00145559881412005,1.579136380841E-16));
#434=CARTESIAN_POINT('',(0.457776012642688,2.1316282072803E-14,1.55168701030705E-16));
#435=CARTESIAN_POINT('',(1.60137002951886,1.95399252334028E-14,9.20280063238042E-17));
#436=CARTESIAN_POINT('',(2.72976285197689,1.86517468137026E-14,4.60140031619021E-17));
#437=CARTESIAN_POINT('',(3.85815567443491,1.73194791841524E-14,1.53380010539674E-17));
#438=CARTESIAN_POINT('',(4.98654849689294,1.59872115546023E-14,0.0));
#439=CARTESIAN_POINT('',(6.1404519526104,1.4210854715202E-14,3.12030989920408E-16));
#440=CARTESIAN_POINT('',(0.0,0.0,0.0));
#441=CARTESIAN_POINT('',(3.78381765648661,3.175,0.0));
#442=CARTESIAN_POINT('',(3.78381765648661,3.175,-2.38125000000001));
#443=CARTESIAN_POINT('',(2.71135543612004,2.27509734643884,-2.38125000000001));
#444=CARTESIAN_POINT('',(3.7838176564866,5.88713188886579,-2.38125));
#445=CARTESIAN_POINT('',(1.50806878883517,5.88713188886579,-2.38125));
#446=CARTESIAN_POINT('',(7.01601057863172,5.88713188886579,-2.38125));
#447=CARTESIAN_POINT('',(6.45474616783328,2.70404323990609,-2.38125));
#448=CARTESIAN_POINT('',(6.05956652413803,0.462868111134204,-2.38125));
#449=CARTESIAN_POINT('',(3.7838176564866,0.462868111134207,-2.38125));
#450=CARTESIAN_POINT('',(0.551624734341471,0.46286811113421,-2.38125));
#451=CARTESIAN_POINT('',(1.11288914513992,3.64595676009391,-2.38125));
#452=CARTESIAN_POINT('',(3.73759634394945,2.64668798019793,-2.38125));
#453=CARTESIAN_POINT('',(3.78381765648661,6.34999999999998,-5.38749756651153E-15));
#454=CARTESIAN_POINT('',(7.09465810591236,6.34999999999999,-4.70341667094256E-15));
#455=CARTESIAN_POINT('',(1.45269399362224,6.34999999999998,-5.86915084679897E-15));
#456=CARTESIAN_POINT('',(7.09465810591236,6.34999999999999,-4.50882800960593E-15));
#457=CARTESIAN_POINT('',(7.09465810591236,5.95312499999998,-2.04174487508823));
#458=CARTESIAN_POINT('',(7.38159587546878,6.1938943766056,-0.803093811749122));
#459=CARTESIAN_POINT('',(1.18626331873607,6.27064471397287,-0.408247555419281));
#460=CARTESIAN_POINT('',(1.45269399362224,5.95312499999998,-2.04174487508825));
#461=CARTESIAN_POINT('',(1.45269399362224,6.34999999999998,-5.98284514509706E-15));
#462=CARTESIAN_POINT('',(3.7838176564866,6.34999999999998,-5.38749756651153E-15));
#463=CARTESIAN_POINT('',(0.186039437504415,0.156105623394402,-0.803093811749119));
#464=CARTESIAN_POINT('',(0.472977207060835,0.396875000000024,-2.04174487508824));
#465=CARTESIAN_POINT('',(0.0821316300841104,0.465791620511589,-1.65785830304558E-15));
#466=CARTESIAN_POINT('',(0.0821316300841104,0.465791620511589,-1.6042023923428E-15));
#467=CARTESIAN_POINT('',(0.657053040672855,3.7263329640925,-4.00561136949637E-15));
#468=CARTESIAN_POINT('',(1.06184841664551,6.02204162051155,-5.69641507217208E-15));
#469=CARTESIAN_POINT('',(1.06184841664551,6.02204162051155,-5.5743756052082E-15));
#470=CARTESIAN_POINT('',(0.657053040672855,3.7263329640925,-4.00561136949637E-15));
#471=CARTESIAN_POINT('',(6.38137199423713,0.0793552860271309,-0.408247555419277));
#472=CARTESIAN_POINT('',(6.11494131935097,0.396875000000016,-2.04174487508823));
#473=CARTESIAN_POINT('',(6.11494131935097,1.43114686768087E-14,5.88147288522325E-17));
#474=CARTESIAN_POINT('',(6.11494131935097,1.43114686768087E-14,2.31605104542344E-18));
#475=CARTESIAN_POINT('',(3.78381765648661,1.73472347597681E-14,-4.79337229242021E-16));
#476=CARTESIAN_POINT('',(0.47297720706083,1.99493199737333E-14,-1.163418124811E-15));
#477=CARTESIAN_POINT('',(0.47297720706083,1.99493199737333E-14,-1.42846406613232E-15));
#478=CARTESIAN_POINT('',(3.7838176564866,1.69135538907739E-14,-4.79337229242024E-16));
#479=CARTESIAN_POINT('',(7.48550368288908,5.88420837948842,-4.37251660655095E-15));
#480=CARTESIAN_POINT('',(7.48550368288908,5.88420837948842,-4.26263240341077E-15));
#481=CARTESIAN_POINT('',(6.91058227230034,2.6236670359075,-1.86122342625719E-15));
#482=CARTESIAN_POINT('',(6.50578689632769,0.327958379488454,-1.70419723581475E-16));
#483=CARTESIAN_POINT('',(6.50578689632769,0.327958379488454,-4.29392246266703E-16));
#484=CARTESIAN_POINT('',(6.91058227230034,2.6236670359075,-1.86122342625719E-15));
#485=CARTESIAN_POINT('',(3.78381765648661,3.175,0.0));
#486=CARTESIAN_POINT('',(2.31105873455277,1.93920853179226,0.0));
#487=CARTESIAN_POINT('',(7.09465810591236,5.95312499999998,-4.39665664986322E-15));
#488=CARTESIAN_POINT('',(1.45269399362223,5.95312499999998,-5.56239082571963E-15));
#489=CARTESIAN_POINT('',(0.47297720706083,0.396875000000023,-1.47017814589035E-15));
#490=CARTESIAN_POINT('',(6.11494131935097,0.396875000000017,-3.04443970033924E-16));
#491=CARTESIAN_POINT('',(3.78381765648661,3.175,-2.93341739787677E-15));
#492=CARTESIAN_POINT('',(7.09465810591236,5.95312499999998,-4.33680868994202E-15));
#493=CARTESIAN_POINT('',(6.11494131935097,0.396875000000017,-4.33680868994202E-16));
#494=CARTESIAN_POINT('',(0.47297720706083,0.396875000000023,-1.73472347597681E-15));
#495=CARTESIAN_POINT('',(1.45269399362223,5.95312499999998,-5.63785129692462E-15));
#496=CARTESIAN_POINT('',(3.78381765648661,3.175,-0.54440332778528));
#497=CARTESIAN_POINT('',(5.22741450046084,4.38632157934746,-0.54440332778528));
#498=CARTESIAN_POINT('',(3.78381765648661,3.175,-0.680000000032648));
#499=CARTESIAN_POINT('',(3.78381765648661,3.175,-0.782283357604644));
#500=CARTESIAN_POINT('',(5.16633624892788,4.3350708410132,-0.782283357604644));
#501=CARTESIAN_POINT('',(3.78381765648661,3.175,-2.14607469113957));
#502=CARTESIAN_POINT('',(2.71135543612004,2.27509734643884,-2.14607469113957));
#503=CARTESIAN_POINT('',(3.78381765648661,3.175,-2.14607469113957));
#504=CARTESIAN_POINT('',(3.78381765648661,3.175,-33.3676978394524));
#505=CARTESIAN_POINT('',(3.78381765648661,3.175,-0.509525090897633));
#506=MECHANICAL_DESIGN_GEOMETRIC_PRESENTATION_REPRESENTATION('',(#269,#270,#271,
     #272),#507);
#507=(GEOMETRIC_REPRESENTATION_CONTEXT(3)GLOBAL_UNCERTAINTY_ASSIGNED_CONTEXT((#508))
     GLOBAL_UNIT_ASSIGNED_CONTEXT((#514,#510,#509))REPRESENTATION_CONTEXT('CPMT060204',
     'TOP_LEVEL_ASSEMBLY_PART'));
#508=UNCERTAINTY_MEASURE_WITH_UNIT(LENGTH_MEASURE(2.0E-5),#514,'DISTANCE_ACCURACY_VALUE',
     'Maximum Tolerance applied to model');
#509=(NAMED_UNIT(*)SI_UNIT($,.STERADIAN.)SOLID_ANGLE_UNIT());
#510=(CONVERSION_BASED_UNIT('DEGREE',#512)NAMED_UNIT(#511)PLANE_ANGLE_UNIT());
#511=DIMENSIONAL_EXPONENTS(0.0,0.0,0.0,0.0,0.0,0.0,0.0);
#512=PLANE_ANGLE_MEASURE_WITH_UNIT(PLANE_ANGLE_MEASURE(0.0174532925),#513);
#513=(NAMED_UNIT(*)PLANE_ANGLE_UNIT()SI_UNIT($,.RADIAN.));
#514=(LENGTH_UNIT()NAMED_UNIT(*)SI_UNIT(.MILLI.,.METRE.));
#515=CONSTRUCTIVE_GEOMETRY_REPRESENTATION('supplemental geometry',(#286,#287),#507);
#516=CONSTRUCTIVE_GEOMETRY_REPRESENTATION_RELATIONSHIP('supplemental geometry','contains PCS and MCS coordinate systems',
     #24,#515);
ENDSEC;
END-ISO-10303-21;
