ISO-10303-21;
HEADER;
FILE_DESCRIPTION(
/* description */ (''),
/* implementation_level */ '2;1');
FILE_NAME(
/* name */ 'CPMT060202.stp',
/* time_stamp */ '2017-03-21T10:54:00',
/* author */ ('Sandvik Coromant R&D'),
/* organization */ ('Sandvik Machining Solutions'),
/* preprocessor_version */ 'ST-DEVELOPER v15',
/* originating_system */ 'SIEMENS PLM Software NX v8.5.3.3(64 bits)',
/* authorization */ '');
FILE_SCHEMA(('AUTOMOTIVE_DESIGN'));
ENDSEC;
DATA;
#10=GEOMETRICALLY_BOUNDED_WIREFRAME_SHAPE_REPRESENTATION('IsoTurningInsert-None',
     (#25),#499);
#11=SHAPE_REPRESENTATION_RELATIONSHIP('None','relationship between IsoTurningInsert-None and IsoTurningInsert-None',
     #24,#13);
#12=SHAPE_REPRESENTATION_RELATIONSHIP('None','relationship between IsoTurningInsert-None and IsoTurningInsert-None',
     #24,#10);
#13=ADVANCED_BREP_SHAPE_REPRESENTATION('IsoTurningInsert-None',(#31),#499);
#14=SHAPE_DEFINITION_REPRESENTATION(#15,#24);
#15=PRODUCT_DEFINITION_SHAPE('','',#16);
#16=PRODUCT_DEFINITION(' ','',#18,#17);
#17=PRODUCT_DEFINITION_CONTEXT('part definition',#23,'design');
#18=PRODUCT_DEFINITION_FORMATION_WITH_SPECIFIED_SOURCE(' ',' ',#20,.NOT_KNOWN.);
#19=PRODUCT_RELATED_PRODUCT_CATEGORY('part','',(#20));
#20=PRODUCT('IsoTurningInsert','IsoTurningInsert',' ',(#21));
#21=PRODUCT_CONTEXT(' ',#23,'mechanical');
#22=APPLICATION_PROTOCOL_DEFINITION('international standard','automotive_design',
     2010,#23);
#23=APPLICATION_CONTEXT('core data for automotive mechanical design processes');
#24=SHAPE_REPRESENTATION('IsoTurningInsert-None',(#285),#499);
#25=GEOMETRIC_CURVE_SET('geometric curve set',(#265));
#26=SURFACE_STYLE_USAGE(.BOTH.,#27);
#27=SURFACE_SIDE_STYLE('',(#28));
#28=SURFACE_STYLE_FILL_AREA(#29);
#29=FILL_AREA_STYLE('',(#30));
#30=FILL_AREA_STYLE_COLOUR('',#284);
#31=MANIFOLD_SOLID_BREP('CUT',#32);
#32=CLOSED_SHELL('',(#49,#50,#51,#52,#53,#54,#55,#56,#57,#58,#59,#60,#61,#62));
#33=CYLINDRICAL_SURFACE('',#309,1.4);
#34=TOROIDAL_SURFACE('',#308,3.9,2.5);
#35=TOROIDAL_SURFACE('',#310,1.38569981785224,0.5);
#36=CONICAL_SURFACE('',#300,0.198437500000002,11.0);
#37=CONICAL_SURFACE('',#301,0.198437500000002,11.0);
#38=CONICAL_SURFACE('',#302,0.198437500000002,11.0);
#39=CONICAL_SURFACE('',#303,0.198437500000002,11.0);
#40=CONICAL_SURFACE('',#305,1.87499999997636,4.00000000179076);
#41=FACE_OUTER_BOUND('',#123,.T.);
#42=FACE_OUTER_BOUND('',#124,.T.);
#43=FACE_OUTER_BOUND('',#125,.T.);
#44=FACE_OUTER_BOUND('',#126,.T.);
#45=FACE_OUTER_BOUND('',#129,.T.);
#46=FACE_OUTER_BOUND('',#130,.T.);
#47=FACE_OUTER_BOUND('',#131,.T.);
#48=FACE_OUTER_BOUND('',#132,.T.);
#49=ADVANCED_FACE('',(#109,#110),#63,.F.);
#50=ADVANCED_FACE('',(#41),#64,.F.);
#51=ADVANCED_FACE('',(#42),#65,.F.);
#52=ADVANCED_FACE('',(#43),#66,.F.);
#53=ADVANCED_FACE('',(#44),#67,.F.);
#54=ADVANCED_FACE('',(#111,#112),#68,.T.);
#55=ADVANCED_FACE('',(#45),#36,.T.);
#56=ADVANCED_FACE('',(#46),#37,.T.);
#57=ADVANCED_FACE('',(#47),#38,.T.);
#58=ADVANCED_FACE('',(#48),#39,.T.);
#59=ADVANCED_FACE('',(#113,#114),#40,.F.);
#60=ADVANCED_FACE('',(#115,#116),#34,.T.);
#61=ADVANCED_FACE('',(#117,#118),#33,.F.);
#62=ADVANCED_FACE('',(#119,#120),#35,.F.);
#63=PLANE('',#289);
#64=PLANE('',#290);
#65=PLANE('',#291);
#66=PLANE('',#292);
#67=PLANE('',#293);
#68=PLANE('',#299);
#69=LINE('',#436,#89);
#70=LINE('',#439,#90);
#71=LINE('',#441,#91);
#72=LINE('',#443,#92);
#73=LINE('',#445,#93);
#74=LINE('',#448,#94);
#75=LINE('',#450,#95);
#76=LINE('',#451,#96);
#77=LINE('',#453,#97);
#78=LINE('',#455,#98);
#79=LINE('',#457,#99);
#80=LINE('',#459,#100);
#81=LINE('',#461,#101);
#82=LINE('',#463,#102);
#83=LINE('',#465,#103);
#84=LINE('',#467,#104);
#85=LINE('',#469,#105);
#86=LINE('',#471,#106);
#87=LINE('',#473,#107);
#88=LINE('',#475,#108);
#89=VECTOR('',#319,1.0);
#90=VECTOR('',#320,1.0);
#91=VECTOR('',#321,1.0);
#92=VECTOR('',#322,1.0);
#93=VECTOR('',#325,1.0);
#94=VECTOR('',#326,1.0);
#95=VECTOR('',#327,1.0);
#96=VECTOR('',#328,1.0);
#97=VECTOR('',#329,1.0);
#98=VECTOR('',#332,1.0);
#99=VECTOR('',#333,1.0);
#100=VECTOR('',#334,1.0);
#101=VECTOR('',#335,1.0);
#102=VECTOR('',#338,1.0);
#103=VECTOR('',#339,1.0);
#104=VECTOR('',#340,1.0);
#105=VECTOR('',#341,1.0);
#106=VECTOR('',#344,1.0);
#107=VECTOR('',#345,1.0);
#108=VECTOR('',#346,1.0);
#109=FACE_BOUND('',#121,.T.);
#110=FACE_BOUND('',#122,.T.);
#111=FACE_BOUND('',#127,.T.);
#112=FACE_BOUND('',#128,.T.);
#113=FACE_BOUND('',#133,.T.);
#114=FACE_BOUND('',#134,.T.);
#115=FACE_BOUND('',#135,.T.);
#116=FACE_BOUND('',#136,.T.);
#117=FACE_BOUND('',#137,.T.);
#118=FACE_BOUND('',#138,.T.);
#119=FACE_BOUND('',#139,.T.);
#120=FACE_BOUND('',#140,.T.);
#121=EDGE_LOOP('',(#141));
#122=EDGE_LOOP('',(#142,#143,#144,#145));
#123=EDGE_LOOP('',(#146,#147,#148,#149,#150,#151));
#124=EDGE_LOOP('',(#152,#153,#154,#155,#156,#157));
#125=EDGE_LOOP('',(#158,#159,#160,#161,#162,#163));
#126=EDGE_LOOP('',(#164,#165,#166,#167,#168,#169));
#127=EDGE_LOOP('',(#170));
#128=EDGE_LOOP('',(#171,#172,#173,#174,#175,#176,#177,#178));
#129=EDGE_LOOP('',(#179,#180,#181));
#130=EDGE_LOOP('',(#182,#183,#184));
#131=EDGE_LOOP('',(#185,#186,#187));
#132=EDGE_LOOP('',(#188,#189,#190));
#133=EDGE_LOOP('',(#191));
#134=EDGE_LOOP('',(#192));
#135=EDGE_LOOP('',(#193));
#136=EDGE_LOOP('',(#194));
#137=EDGE_LOOP('',(#195));
#138=EDGE_LOOP('',(#196));
#139=EDGE_LOOP('',(#197));
#140=EDGE_LOOP('',(#198));
#141=ORIENTED_EDGE('',*,*,#220,.T.);
#142=ORIENTED_EDGE('',*,*,#221,.T.);
#143=ORIENTED_EDGE('',*,*,#222,.T.);
#144=ORIENTED_EDGE('',*,*,#223,.T.);
#145=ORIENTED_EDGE('',*,*,#224,.T.);
#146=ORIENTED_EDGE('',*,*,#225,.F.);
#147=ORIENTED_EDGE('',*,*,#226,.T.);
#148=ORIENTED_EDGE('',*,*,#227,.F.);
#149=ORIENTED_EDGE('',*,*,#221,.F.);
#150=ORIENTED_EDGE('',*,*,#228,.T.);
#151=ORIENTED_EDGE('',*,*,#229,.T.);
#152=ORIENTED_EDGE('',*,*,#224,.F.);
#153=ORIENTED_EDGE('',*,*,#230,.T.);
#154=ORIENTED_EDGE('',*,*,#231,.T.);
#155=ORIENTED_EDGE('',*,*,#232,.F.);
#156=ORIENTED_EDGE('',*,*,#233,.T.);
#157=ORIENTED_EDGE('',*,*,#228,.F.);
#158=ORIENTED_EDGE('',*,*,#223,.F.);
#159=ORIENTED_EDGE('',*,*,#234,.T.);
#160=ORIENTED_EDGE('',*,*,#235,.T.);
#161=ORIENTED_EDGE('',*,*,#236,.F.);
#162=ORIENTED_EDGE('',*,*,#237,.T.);
#163=ORIENTED_EDGE('',*,*,#230,.F.);
#164=ORIENTED_EDGE('',*,*,#222,.F.);
#165=ORIENTED_EDGE('',*,*,#227,.T.);
#166=ORIENTED_EDGE('',*,*,#238,.T.);
#167=ORIENTED_EDGE('',*,*,#239,.F.);
#168=ORIENTED_EDGE('',*,*,#240,.T.);
#169=ORIENTED_EDGE('',*,*,#234,.F.);
#170=ORIENTED_EDGE('',*,*,#241,.F.);
#171=ORIENTED_EDGE('',*,*,#239,.T.);
#172=ORIENTED_EDGE('',*,*,#242,.T.);
#173=ORIENTED_EDGE('',*,*,#225,.T.);
#174=ORIENTED_EDGE('',*,*,#243,.T.);
#175=ORIENTED_EDGE('',*,*,#232,.T.);
#176=ORIENTED_EDGE('',*,*,#244,.T.);
#177=ORIENTED_EDGE('',*,*,#236,.T.);
#178=ORIENTED_EDGE('',*,*,#245,.T.);
#179=ORIENTED_EDGE('',*,*,#238,.F.);
#180=ORIENTED_EDGE('',*,*,#226,.F.);
#181=ORIENTED_EDGE('',*,*,#242,.F.);
#182=ORIENTED_EDGE('',*,*,#235,.F.);
#183=ORIENTED_EDGE('',*,*,#240,.F.);
#184=ORIENTED_EDGE('',*,*,#245,.F.);
#185=ORIENTED_EDGE('',*,*,#231,.F.);
#186=ORIENTED_EDGE('',*,*,#237,.F.);
#187=ORIENTED_EDGE('',*,*,#244,.F.);
#188=ORIENTED_EDGE('',*,*,#229,.F.);
#189=ORIENTED_EDGE('',*,*,#233,.F.);
#190=ORIENTED_EDGE('',*,*,#243,.F.);
#191=ORIENTED_EDGE('',*,*,#246,.T.);
#192=ORIENTED_EDGE('',*,*,#241,.T.);
#193=ORIENTED_EDGE('',*,*,#247,.T.);
#194=ORIENTED_EDGE('',*,*,#248,.T.);
#195=ORIENTED_EDGE('',*,*,#248,.F.);
#196=ORIENTED_EDGE('',*,*,#220,.F.);
#197=ORIENTED_EDGE('',*,*,#247,.F.);
#198=ORIENTED_EDGE('',*,*,#246,.F.);
#199=VERTEX_POINT('',#435);
#200=VERTEX_POINT('',#437);
#201=VERTEX_POINT('',#438);
#202=VERTEX_POINT('',#440);
#203=VERTEX_POINT('',#442);
#204=VERTEX_POINT('',#446);
#205=VERTEX_POINT('',#447);
#206=VERTEX_POINT('',#449);
#207=VERTEX_POINT('',#452);
#208=VERTEX_POINT('',#456);
#209=VERTEX_POINT('',#458);
#210=VERTEX_POINT('',#460);
#211=VERTEX_POINT('',#464);
#212=VERTEX_POINT('',#466);
#213=VERTEX_POINT('',#468);
#214=VERTEX_POINT('',#472);
#215=VERTEX_POINT('',#474);
#216=VERTEX_POINT('',#478);
#217=VERTEX_POINT('',#489);
#218=VERTEX_POINT('',#492);
#219=VERTEX_POINT('',#494);
#220=EDGE_CURVE('',#199,#199,#249,.T.);
#221=EDGE_CURVE('',#200,#201,#69,.T.);
#222=EDGE_CURVE('',#201,#202,#70,.T.);
#223=EDGE_CURVE('',#202,#203,#71,.T.);
#224=EDGE_CURVE('',#203,#200,#72,.T.);
#225=EDGE_CURVE('',#204,#205,#73,.T.);
#226=EDGE_CURVE('',#204,#206,#74,.T.);
#227=EDGE_CURVE('INSERT_CORNER_EDGE3',#201,#206,#75,.T.);
#228=EDGE_CURVE('INSERT_CORNER_EDGE4',#200,#207,#76,.T.);
#229=EDGE_CURVE('',#207,#205,#77,.T.);
#230=EDGE_CURVE('INSERT_CORNER_EDGE1',#203,#208,#78,.T.);
#231=EDGE_CURVE('',#208,#209,#79,.T.);
#232=EDGE_CURVE('',#210,#209,#80,.T.);
#233=EDGE_CURVE('',#210,#207,#81,.T.);
#234=EDGE_CURVE('INSERT_CORNER_EDGE2',#202,#211,#82,.T.);
#235=EDGE_CURVE('',#211,#212,#83,.T.);
#236=EDGE_CURVE('',#213,#212,#84,.T.);
#237=EDGE_CURVE('',#213,#208,#85,.T.);
#238=EDGE_CURVE('',#206,#214,#86,.T.);
#239=EDGE_CURVE('',#215,#214,#87,.T.);
#240=EDGE_CURVE('',#215,#211,#88,.T.);
#241=EDGE_CURVE('',#216,#216,#250,.T.);
#242=EDGE_CURVE('',#214,#204,#251,.T.);
#243=EDGE_CURVE('',#205,#210,#252,.T.);
#244=EDGE_CURVE('',#209,#213,#253,.T.);
#245=EDGE_CURVE('',#212,#215,#254,.T.);
#246=EDGE_CURVE('',#217,#217,#255,.T.);
#247=EDGE_CURVE('',#218,#218,#256,.T.);
#248=EDGE_CURVE('',#219,#219,#257,.T.);
#249=CIRCLE('',#288,1.4);
#250=CIRCLE('',#294,1.92255023212158);
#251=CIRCLE('',#295,0.198437500000002);
#252=CIRCLE('',#296,0.198437500000002);
#253=CIRCLE('',#297,0.198437500000002);
#254=CIRCLE('',#298,0.198437500000002);
#255=CIRCLE('',#304,1.88448184298102);
#256=CIRCLE('',#306,1.80474984821023);
#257=CIRCLE('',#307,1.4);
#258=CURVE_STYLE('',#262,POSITIVE_LENGTH_MEASURE(0.18),#261);
#259=CURVE_STYLE('',#263,POSITIVE_LENGTH_MEASURE(0.18),#283);
#260=CURVE_STYLE('',#264,POSITIVE_LENGTH_MEASURE(0.18),#283);
#261=DRAUGHTING_PRE_DEFINED_COLOUR('blue');
#262=DRAUGHTING_PRE_DEFINED_CURVE_FONT('continuous');
#263=DRAUGHTING_PRE_DEFINED_CURVE_FONT('continuous');
#264=DRAUGHTING_PRE_DEFINED_CURVE_FONT('continuous');
#265=B_SPLINE_CURVE_WITH_KNOTS('CUTTING EDGE LINE',5,(#386,#387,#388,#389,#390,#391,
     #392,#393,#394,#395,#396,#397,#398,#399,#400,#401,#402,#403,#404,#405,#406,
     #407,#408,#409,#410,#411,#412,#413,#414,#415,#416,#417,#418,#419,#420,#421,
     #422,#423,#424,#425,#426,#427,#428,#429,#430,#431),.UNSPECIFIED.,.T.,.F.,(2,
     4,1,1,1,4,4,1,1,1,4,4,1,1,1,4,4,1,1,1,4,4,1,1),(-0.2377410236,0.0,0.00272421697500003,
     0.00544843395000005,0.00817265092499997,0.0108968679,0.2486378915,0.252043162725,
     0.25544843395,0.258853705175,0.2622589764,0.5,0.502724216975,0.50544843395,
     0.508172650925,0.5108968679,0.7486378915,0.752043162725,0.75544843395,0.758853705175,
     0.7622589764,1.0,1.002724216975,1.00544843395),.UNSPECIFIED.);
#266=PRESENTATION_LAYER_ASSIGNMENT('1','Layer 1',(#265,#286,#287,#31));
#269=STYLED_ITEM('',(#275),#265);
#270=STYLED_ITEM('',(#276),#286);
#271=STYLED_ITEM('',(#277),#287);
#272=STYLED_ITEM('',(#278),#31);
#273=PRESENTATION_STYLE_ASSIGNMENT((#279));
#274=PRESENTATION_STYLE_ASSIGNMENT((#280));
#275=PRESENTATION_STYLE_ASSIGNMENT((#258));
#276=PRESENTATION_STYLE_ASSIGNMENT((#259));
#277=PRESENTATION_STYLE_ASSIGNMENT((#260));
#278=PRESENTATION_STYLE_ASSIGNMENT((#26));
#279=POINT_STYLE('',#281,POSITIVE_LENGTH_MEASURE(3.0),#283);
#280=POINT_STYLE('',#282,POSITIVE_LENGTH_MEASURE(3.0),#283);
#281=PRE_DEFINED_POINT_MARKER_SYMBOL('plus');
#282=PRE_DEFINED_POINT_MARKER_SYMBOL('plus');
#283=COLOUR_RGB('Medium Maroon',0.6,0.4,0.4);
#284=COLOUR_RGB('IsoInsertColor',0.8,0.8,0.8);
#285=AXIS2_PLACEMENT_3D('',#383,#311,#312);
#286=AXIS2_PLACEMENT_3D('PCS',#432,#313,#314);
#287=AXIS2_PLACEMENT_3D('MCS',#433,#315,#316);
#288=AXIS2_PLACEMENT_3D('',#434,#317,#318);
#289=AXIS2_PLACEMENT_3D('',#444,#323,#324);
#290=AXIS2_PLACEMENT_3D('',#454,#330,#331);
#291=AXIS2_PLACEMENT_3D('',#462,#336,#337);
#292=AXIS2_PLACEMENT_3D('',#470,#342,#343);
#293=AXIS2_PLACEMENT_3D('',#476,#347,#348);
#294=AXIS2_PLACEMENT_3D('',#477,#349,#350);
#295=AXIS2_PLACEMENT_3D('',#479,#351,#352);
#296=AXIS2_PLACEMENT_3D('',#480,#353,#354);
#297=AXIS2_PLACEMENT_3D('',#481,#355,#356);
#298=AXIS2_PLACEMENT_3D('',#482,#357,#358);
#299=AXIS2_PLACEMENT_3D('',#483,#359,#360);
#300=AXIS2_PLACEMENT_3D('',#484,#361,#362);
#301=AXIS2_PLACEMENT_3D('',#485,#363,#364);
#302=AXIS2_PLACEMENT_3D('',#486,#365,#366);
#303=AXIS2_PLACEMENT_3D('',#487,#367,#368);
#304=AXIS2_PLACEMENT_3D('',#488,#369,#370);
#305=AXIS2_PLACEMENT_3D('',#490,#371,#372);
#306=AXIS2_PLACEMENT_3D('',#491,#373,#374);
#307=AXIS2_PLACEMENT_3D('',#493,#375,#376);
#308=AXIS2_PLACEMENT_3D('',#495,#377,#378);
#309=AXIS2_PLACEMENT_3D('',#496,#379,#380);
#310=AXIS2_PLACEMENT_3D('',#497,#381,#382);
#311=DIRECTION('',(0.0,0.0,1.0));
#312=DIRECTION('',(1.0,0.0,0.0));
#313=DIRECTION('',(0.0,0.0,1.0));
#314=DIRECTION('',(1.0,0.0,0.0));
#315=DIRECTION('',(0.0,0.0,1.0));
#316=DIRECTION('',(1.0,0.0,0.0));
#317=DIRECTION('',(0.0,0.0,1.0));
#318=DIRECTION('',(-0.766044443118978,-0.642787609686539,0.0));
#319=DIRECTION('',(1.0,3.88578058618805E-16,0.0));
#320=DIRECTION('',(-0.173648177666929,-0.984807753012208,0.0));
#321=DIRECTION('',(-1.0,9.99200722162641E-16,0.0));
#322=DIRECTION('',(0.173648177666931,0.984807753012208,0.0));
#323=DIRECTION('',(0.0,0.0,1.0));
#324=DIRECTION('',(-0.766044443118978,-0.642787609686539,0.0));
#325=DIRECTION('',(-1.0,-4.9960036108132E-16,-1.99095921005007E-16));
#326=DIRECTION('',(2.91433543964104E-16,-0.190808995376546,-0.981627183447664));
#327=DIRECTION('',(0.2217366128508,0.186059110061607,0.957191141875298));
#328=DIRECTION('',(-0.158094246810827,0.188409386605279,0.969282266506687));
#329=DIRECTION('',(-2.91433543964104E-16,0.190808995376546,0.981627183447664));
#330=DIRECTION('',(3.88578058618805E-16,-0.981627183447664,0.190808995376546));
#331=DIRECTION('',(1.0,3.88578058618805E-16,0.0));
#332=DIRECTION('',(-0.221736612850801,-0.186059110061605,0.957191141875298));
#333=DIRECTION('',(-0.187910177991292,0.0331336343295956,0.981627183447664));
#334=DIRECTION('',(-0.173648177666931,-0.984807753012208,7.31280463572094E-16));
#335=DIRECTION('',(0.187910177991292,-0.0331336343295956,-0.981627183447664));
#336=DIRECTION('',(0.966714060826797,-0.170457771554009,0.190808995376545));
#337=DIRECTION('',(0.173648177666931,0.984807753012208,0.0));
#338=DIRECTION('',(0.158094246810827,-0.188409386605278,0.969282266506687));
#339=DIRECTION('',(-3.88578058618805E-16,-0.190808995376544,0.981627183447664));
#340=DIRECTION('',(1.0,-9.99200722162641E-16,1.99095921005008E-16));
#341=DIRECTION('',(3.88578058618805E-16,0.190808995376544,-0.981627183447664));
#342=DIRECTION('',(9.99200722162641E-16,0.981627183447664,0.190808995376544));
#343=DIRECTION('',(-1.0,9.99200722162641E-16,0.0));
#344=DIRECTION('',(0.187910177991292,-0.0331336343295937,0.981627183447664));
#345=DIRECTION('',(0.173648177666929,0.984807753012208,-7.31280463572095E-16));
#346=DIRECTION('',(-0.187910177991292,0.0331336343295937,-0.981627183447664));
#347=DIRECTION('',(-0.966714060826797,0.170457771554007,0.190808995376544));
#348=DIRECTION('',(-0.173648177666929,-0.984807753012208,0.0));
#349=DIRECTION('',(0.0,0.0,1.0));
#350=DIRECTION('',(-0.766044443118978,-0.642787609686539,0.0));
#351=DIRECTION('',(-2.06618502467438E-16,7.72938635790478E-16,1.0));
#352=DIRECTION('',(-0.642787609686538,0.766044443118977,-7.24917160137318E-16));
#353=DIRECTION('',(-2.06618502467438E-16,7.72938635790478E-16,1.0));
#354=DIRECTION('',(-0.64278760968654,0.766044443118978,-7.24917160137314E-16));
#355=DIRECTION('',(-2.06618502467438E-16,7.72938635790478E-16,1.0));
#356=DIRECTION('',(-0.642787609686539,0.766044443118978,-7.24917160137316E-16));
#357=DIRECTION('',(-2.06618502467438E-16,7.72938635790478E-16,1.0));
#358=DIRECTION('',(-0.642787609686538,0.766044443118978,-7.24917160137316E-16));
#359=DIRECTION('',(-2.06618502467438E-16,7.72938635790478E-16,1.0));
#360=DIRECTION('',(-0.642787609686539,0.766044443118978,-7.24917160137316E-16));
#361=DIRECTION('',(-2.06618502467438E-16,7.72938635790478E-16,1.0));
#362=DIRECTION('',(-0.642787609686539,0.766044443118978,-5.46060732426277E-16));
#363=DIRECTION('',(-2.06618502467438E-16,7.72938635790478E-16,1.0));
#364=DIRECTION('',(-0.642787609686539,0.766044443118978,-5.68348925586533E-16));
#365=DIRECTION('',(-2.06618502467438E-16,7.72938635790478E-16,1.0));
#366=DIRECTION('',(-0.642787609686539,0.766044443118978,-5.63891286954482E-16));
#367=DIRECTION('',(-2.06618502467438E-16,7.72938635790478E-16,1.0));
#368=DIRECTION('',(-0.642787609686539,0.766044443118978,-5.41603093794225E-16));
#369=DIRECTION('',(0.0,0.0,-1.0));
#370=DIRECTION('',(0.766044443118978,0.64278760968654,0.0));
#371=DIRECTION('',(0.0,0.0,1.0));
#372=DIRECTION('',(-0.766044443118978,-0.642787609686539,-9.66395375416632E-17));
#373=DIRECTION('',(0.0,0.0,1.0));
#374=DIRECTION('',(0.766044443118978,0.64278760968654,0.0));
#375=DIRECTION('',(0.0,0.0,-1.0));
#376=DIRECTION('',(-0.766044443118978,-0.642787609686539,0.0));
#377=DIRECTION('',(0.0,0.0,1.0));
#378=DIRECTION('',(-0.766044443118978,-0.642787609686539,0.0));
#379=DIRECTION('',(0.0,0.0,1.0));
#380=DIRECTION('',(-0.766044443118978,-0.64278760968654,0.0));
#381=DIRECTION('',(0.0,0.0,-1.0));
#382=DIRECTION('',(0.766044443118978,0.642787609686539,0.0));
#383=CARTESIAN_POINT('',(0.0,0.0,0.0));
#386=CARTESIAN_POINT('',(5.07245784263625,1.59872115546023E-14,0.0));
#387=CARTESIAN_POINT('',(6.29420546904243,1.33226762955019E-14,1.56015494960205E-16));
#388=CARTESIAN_POINT('',(6.31971610230186,0.002049739871818,1.59283314890865E-16));
#389=CARTESIAN_POINT('',(6.36204459141157,0.0118628704198769,1.58439087622802E-16));
#390=CARTESIAN_POINT('',(6.41303734442006,0.0416179911857926,1.39896352446067E-16));
#391=CARTESIAN_POINT('',(6.45119521667641,0.0866691271988866,1.03753359400195E-16));
#392=CARTESIAN_POINT('',(6.46820952871872,0.126650519210451,6.81962234011007E-17));
#393=CARTESIAN_POINT('',(6.47465800341276,0.151417655035164,4.53244232786349E-17));
#394=CARTESIAN_POINT('',(6.68681225230708,1.35460418974423,2.01036369678675E-17));
#395=CARTESIAN_POINT('',(6.8967515637131,2.54522918974422,1.34024246452451E-17));
#396=CARTESIAN_POINT('',(7.10669087511911,3.73585418974422,1.34024246452452E-17));
#397=CARTESIAN_POINT('',(7.31663018652512,4.92647918974421,2.0103636967868E-17));
#398=CARTESIAN_POINT('',(7.52920915764021,6.13207444386223,2.46341044792266E-17));
#399=CARTESIAN_POINT('',(7.53162150706355,6.16252047626127,6.9384354052496E-18));
#400=CARTESIAN_POINT('',(7.52670362086538,6.21750168413812,-2.39261484386652E-17));
#401=CARTESIAN_POINT('',(7.49115639903001,6.28582657151733,-5.8817777809892E-17));
#402=CARTESIAN_POINT('',(7.43004223050788,6.33269824336171,-7.8432099966705E-17));
#403=CARTESIAN_POINT('',(7.3767502926972,6.34708880237179,-8.03911888855956E-17));
#404=CARTESIAN_POINT('',(7.34634790386092,6.34999999999999,-7.8478695760869E-17));
#405=CARTESIAN_POINT('',(6.12215439966632,6.34999999999999,-4.60140031619024E-17));
#406=CARTESIAN_POINT('',(4.91316208988986,6.34999999999999,-3.06760021079349E-17));
#407=CARTESIAN_POINT('',(3.70416978011341,6.34999999999999,-3.06760021079349E-17));
#408=CARTESIAN_POINT('',(2.49517747033695,6.34999999999998,-4.60140031619024E-17));
#409=CARTESIAN_POINT('',(1.27342984393078,6.34999999999998,-8.520028492834E-17));
#410=CARTESIAN_POINT('',(1.24791921067134,6.34795026012818,-1.0005123183919E-16));
#411=CARTESIAN_POINT('',(1.20559072156164,6.33813712958012,-1.17905555093615E-16));
#412=CARTESIAN_POINT('',(1.15459796855314,6.3083820088142,-1.20432395047929E-16));
#413=CARTESIAN_POINT('',(1.11644009629679,6.26333087280112,-9.82053164050342E-17));
#414=CARTESIAN_POINT('',(1.09942578425449,6.22334948078955,-6.72375983352278E-17));
#415=CARTESIAN_POINT('',(1.09297730956045,6.19858234496483,-4.53244232786349E-17));
#416=CARTESIAN_POINT('',(0.880823060666116,4.99539581025577,-2.01036369678675E-17));
#417=CARTESIAN_POINT('',(0.670883749260102,3.80477081025578,-1.34024246452451E-17));
#418=CARTESIAN_POINT('',(0.460944437854087,2.61414581025579,-1.34024246452452E-17));
#419=CARTESIAN_POINT('',(0.251005126448072,1.4235208102558,-2.01036369678678E-17));
#420=CARTESIAN_POINT('',(0.038426155332985,0.217925556137775,-2.46341044792264E-17));
#421=CARTESIAN_POINT('',(0.0360138059096418,0.187479523738745,-6.93843540524927E-18));
#422=CARTESIAN_POINT('',(0.0409316921078142,0.132498315861888,2.39261484386656E-17));
#423=CARTESIAN_POINT('',(0.0764789139431752,0.064173428482678,5.88177778098925E-17));
#424=CARTESIAN_POINT('',(0.137593082465316,0.0173017566383029,7.84320999667053E-17));
#425=CARTESIAN_POINT('',(0.190885020275992,0.00291119762821923,8.03911888855959E-17));
#426=CARTESIAN_POINT('',(0.221287409112275,2.08721928629529E-14,7.84786957608691E-17));
#427=CARTESIAN_POINT('',(1.44548091330688,1.99840144432528E-14,4.60140031619024E-17));
#428=CARTESIAN_POINT('',(2.65447322308334,1.86517468137026E-14,2.30070015809512E-17));
#429=CARTESIAN_POINT('',(3.86346553285979,1.73194791841524E-14,7.66900052698374E-18));
#430=CARTESIAN_POINT('',(5.07245784263625,1.59872115546023E-14,0.0));
#431=CARTESIAN_POINT('',(6.29420546904243,1.33226762955019E-14,1.56015494960205E-16));
#432=CARTESIAN_POINT('',(0.0,0.0,0.0));
#433=CARTESIAN_POINT('',(3.78381765648661,3.175,0.0));
#434=CARTESIAN_POINT('',(3.78381765648661,3.175,-2.38125000000001));
#435=CARTESIAN_POINT('',(2.71135543612005,2.27509734643885,-2.38125000000001));
#436=CARTESIAN_POINT('',(3.7838176564866,5.88713188886579,-2.38125));
#437=CARTESIAN_POINT('',(1.50806878883517,5.88713188886579,-2.38125));
#438=CARTESIAN_POINT('',(7.01601057863172,5.88713188886579,-2.38125));
#439=CARTESIAN_POINT('',(6.45474616783328,2.70404323990609,-2.38125));
#440=CARTESIAN_POINT('',(6.05956652413803,0.462868111134205,-2.38125));
#441=CARTESIAN_POINT('',(3.7838176564866,0.462868111134207,-2.38125));
#442=CARTESIAN_POINT('',(0.551624734341471,0.462868111134211,-2.38125));
#443=CARTESIAN_POINT('',(1.11288914513992,3.64595676009391,-2.38125));
#444=CARTESIAN_POINT('',(3.73759634394945,2.64668798019793,-2.38125));
#445=CARTESIAN_POINT('',(3.78381765648661,6.34999999999999,-5.38749756651153E-15));
#446=CARTESIAN_POINT('',(7.33114670944278,6.34999999999999,-4.65455374983049E-15));
#447=CARTESIAN_POINT('',(1.28618516056049,6.34999999999998,-5.90355465253379E-15));
#448=CARTESIAN_POINT('',(7.33114670944278,6.34999999999999,-4.588565444836E-15));
#449=CARTESIAN_POINT('',(7.33114670944277,6.15156249999998,-1.02087243754413));
#450=CARTESIAN_POINT('',(7.38159587546878,6.1938943766056,-0.803093811749122));
#451=CARTESIAN_POINT('',(1.18626331873607,6.27064471397287,-0.408247555419281));
#452=CARTESIAN_POINT('',(1.28618516056049,6.15156249999998,-1.02087243754413));
#453=CARTESIAN_POINT('',(1.28618516056049,6.34999999999998,-5.98284514509706E-15));
#454=CARTESIAN_POINT('',(3.7838176564866,6.34999999999998,-5.38749756651153E-15));
#455=CARTESIAN_POINT('',(0.186039437504415,0.156105623394402,-0.803093811749118));
#456=CARTESIAN_POINT('',(0.23648860353042,0.198437500000024,-1.02087243754413));
#457=CARTESIAN_POINT('',(0.0410658150420563,0.232895810255806,-1.59129878817414E-15));
#458=CARTESIAN_POINT('',(0.0410658150420563,0.232895810255806,-1.43267317968897E-15));
#459=CARTESIAN_POINT('',(0.657053040672855,3.7263329640925,-4.00561136949637E-15));
#460=CARTESIAN_POINT('',(1.09076237207213,6.18602081025576,-5.81718676522034E-15));
#461=CARTESIAN_POINT('',(1.09076237207213,6.18602081025576,-6.05678980490818E-15));
#462=CARTESIAN_POINT('',(0.657053040672855,3.7263329640925,-4.00561136949637E-15));
#463=CARTESIAN_POINT('',(6.38137199423713,0.0793552860271309,-0.408247555419277));
#464=CARTESIAN_POINT('',(6.28145015241271,0.198437500000016,-1.02087243754412));
#465=CARTESIAN_POINT('',(6.28145015241271,1.47451495458029E-14,9.86834464672688E-17));
#466=CARTESIAN_POINT('',(6.28145015241271,1.47451495458029E-14,3.67198567802409E-17));
#467=CARTESIAN_POINT('',(3.78381765648661,1.73472347597681E-14,-4.79337229242021E-16));
#468=CARTESIAN_POINT('',(0.236488603530417,2.12503625807159E-14,-1.21228104592307E-15));
#469=CARTESIAN_POINT('',(0.236488603530417,2.12503625807159E-14,-1.42846406613232E-15));
#470=CARTESIAN_POINT('',(3.7838176564866,1.73472347597681E-14,-4.79337229242024E-16));
#471=CARTESIAN_POINT('',(7.52656949793114,6.1171041897442,-4.33264788893591E-15));
#472=CARTESIAN_POINT('',(7.52656949793114,6.1171041897442,-4.43416161606459E-15));
#473=CARTESIAN_POINT('',(6.91058227230034,2.6236670359075,-1.86122342625719E-15));
#474=CARTESIAN_POINT('',(6.47687294090107,0.163979189744235,-4.96480305332089E-17));
#475=CARTESIAN_POINT('',(6.47687294090107,0.163979189744235,6.63673520614801E-17));
#476=CARTESIAN_POINT('',(6.91058227230034,2.6236670359075,-1.86122342625719E-15));
#477=CARTESIAN_POINT('',(3.78381765648661,3.175,-6.93889390390723E-15));
#478=CARTESIAN_POINT('',(2.31105873455277,1.93920853179226,-6.93889390390723E-15));
#479=CARTESIAN_POINT('',(7.33114670944278,6.15156249999998,-4.50117373929082E-15));
#480=CARTESIAN_POINT('',(1.28618516056049,6.15156249999998,-5.75017464199412E-15));
#481=CARTESIAN_POINT('',(0.236488603530417,0.198437500000025,-1.36566105646274E-15));
#482=CARTESIAN_POINT('',(6.28145015241271,0.198437500000016,-1.16660153759433E-16));
#483=CARTESIAN_POINT('',(3.78381765648661,3.175,-2.93341739787677E-15));
#484=CARTESIAN_POINT('',(7.33114670944278,6.15156249999998,-4.77048955893622E-15));
#485=CARTESIAN_POINT('',(6.28145015241271,0.198437500000016,-4.33680868994202E-16));
#486=CARTESIAN_POINT('',(0.236488603530417,0.198437500000025,-1.30104260698261E-15));
#487=CARTESIAN_POINT('',(1.28618516056049,6.15156249999998,-5.63785129692462E-15));
#488=CARTESIAN_POINT('',(3.78381765648661,3.175,-0.544403327785287));
#489=CARTESIAN_POINT('',(5.22741450046084,4.38632157934745,-0.544403327785287));
#490=CARTESIAN_POINT('',(3.78381765648661,3.175,-0.680000000032648));
#491=CARTESIAN_POINT('',(3.78381765648661,3.175,-0.782283357604643));
#492=CARTESIAN_POINT('',(5.16633624892788,4.3350708410132,-0.782283357604643));
#493=CARTESIAN_POINT('',(3.78381765648661,3.175,-2.14607469113957));
#494=CARTESIAN_POINT('',(2.71135543612005,2.27509734643885,-2.14607469113957));
#495=CARTESIAN_POINT('',(3.78381765648661,3.175,-2.14607469113957));
#496=CARTESIAN_POINT('',(3.78381765648661,3.175,-33.3676978394524));
#497=CARTESIAN_POINT('',(3.78381765648661,3.175,-0.509525090897634));
#498=MECHANICAL_DESIGN_GEOMETRIC_PRESENTATION_REPRESENTATION('',(#269,#270,#271,
     #272),#499);
#499=(GEOMETRIC_REPRESENTATION_CONTEXT(3)GLOBAL_UNCERTAINTY_ASSIGNED_CONTEXT((#500))
     GLOBAL_UNIT_ASSIGNED_CONTEXT((#506,#502,#501))REPRESENTATION_CONTEXT('CPMT060202',
     'TOP_LEVEL_ASSEMBLY_PART'));
#500=UNCERTAINTY_MEASURE_WITH_UNIT(LENGTH_MEASURE(2.0E-5),#506,'DISTANCE_ACCURACY_VALUE',
     'Maximum Tolerance applied to model');
#501=(NAMED_UNIT(*)SI_UNIT($,.STERADIAN.)SOLID_ANGLE_UNIT());
#502=(CONVERSION_BASED_UNIT('DEGREE',#504)NAMED_UNIT(#503)PLANE_ANGLE_UNIT());
#503=DIMENSIONAL_EXPONENTS(0.0,0.0,0.0,0.0,0.0,0.0,0.0);
#504=PLANE_ANGLE_MEASURE_WITH_UNIT(PLANE_ANGLE_MEASURE(0.0174532925),#505);
#505=(NAMED_UNIT(*)PLANE_ANGLE_UNIT()SI_UNIT($,.RADIAN.));
#506=(LENGTH_UNIT()NAMED_UNIT(*)SI_UNIT(.MILLI.,.METRE.));
#507=CONSTRUCTIVE_GEOMETRY_REPRESENTATION('supplemental geometry',(#286,#287),#499);
#508=CONSTRUCTIVE_GEOMETRY_REPRESENTATION_RELATIONSHIP('supplemental geometry','contains PCS and MCS coordinate systems',
     #24,#507);
ENDSEC;
END-ISO-10303-21;
