ISO-10303-21;
HEADER;
FILE_DESCRIPTION(
/* description */ (''),
/* implementation_level */ '2;1');
FILE_NAME(
/* name */ 'CCGT09T301.stp',
/* time_stamp */ '2017-03-21T10:53:50',
/* author */ ('Sandvik Coromant R&D'),
/* organization */ ('Sandvik Machining Solutions'),
/* preprocessor_version */ 'ST-DEVELOPER v15',
/* originating_system */ 'SIEMENS PLM Software NX v8.5.3.3(64 bits)',
/* authorization */ '');
FILE_SCHEMA(('AUTOMOTIVE_DESIGN'));
ENDSEC;
DATA;
#10=GEOMETRICALLY_BOUNDED_WIREFRAME_SHAPE_REPRESENTATION('IsoTurningInsert-None',
     (#25),#495);
#11=SHAPE_REPRESENTATION_RELATIONSHIP('None','relationship between IsoTurningInsert-None and IsoTurningInsert-None',
     #24,#13);
#12=SHAPE_REPRESENTATION_RELATIONSHIP('None','relationship between IsoTurningInsert-None and IsoTurningInsert-None',
     #24,#10);
#13=ADVANCED_BREP_SHAPE_REPRESENTATION('IsoTurningInsert-None',(#31),#495);
#14=SHAPE_DEFINITION_REPRESENTATION(#15,#24);
#15=PRODUCT_DEFINITION_SHAPE('','',#16);
#16=PRODUCT_DEFINITION(' ','',#18,#17);
#17=PRODUCT_DEFINITION_CONTEXT('part definition',#23,'design');
#18=PRODUCT_DEFINITION_FORMATION_WITH_SPECIFIED_SOURCE(' ',' ',#20,.NOT_KNOWN.);
#19=PRODUCT_RELATED_PRODUCT_CATEGORY('part','',(#20));
#20=PRODUCT('IsoTurningInsert','IsoTurningInsert',' ',(#21));
#21=PRODUCT_CONTEXT(' ',#23,'mechanical');
#22=APPLICATION_PROTOCOL_DEFINITION('international standard','automotive_design',
     2010,#23);
#23=APPLICATION_CONTEXT('core data for automotive mechanical design processes');
#24=SHAPE_REPRESENTATION('IsoTurningInsert-None',(#285),#495);
#25=GEOMETRIC_CURVE_SET('geometric curve set',(#265));
#26=SURFACE_STYLE_USAGE(.BOTH.,#27);
#27=SURFACE_SIDE_STYLE('',(#28));
#28=SURFACE_STYLE_FILL_AREA(#29);
#29=FILL_AREA_STYLE('',(#30));
#30=FILL_AREA_STYLE_COLOUR('',#284);
#31=MANIFOLD_SOLID_BREP('CUT',#32);
#32=CLOSED_SHELL('',(#49,#50,#51,#52,#53,#54,#55,#56,#57,#58,#59,#60,#61,#62));
#33=CYLINDRICAL_SURFACE('',#309,2.2);
#34=TOROIDAL_SURFACE('',#308,6.2,4.0);
#35=TOROIDAL_SURFACE('',#310,2.70678285826048,0.3);
#36=CONICAL_SURFACE('',#300,0.0992187500000009,7.0);
#37=CONICAL_SURFACE('',#301,0.0992187500000009,7.0);
#38=CONICAL_SURFACE('',#302,0.0992187500000009,7.0);
#39=CONICAL_SURFACE('',#303,0.0992187500000009,7.0);
#40=CONICAL_SURFACE('',#305,2.99999999999613,4.00000000019623);
#41=FACE_OUTER_BOUND('',#123,.T.);
#42=FACE_OUTER_BOUND('',#124,.T.);
#43=FACE_OUTER_BOUND('',#125,.T.);
#44=FACE_OUTER_BOUND('',#126,.T.);
#45=FACE_OUTER_BOUND('',#129,.T.);
#46=FACE_OUTER_BOUND('',#130,.T.);
#47=FACE_OUTER_BOUND('',#131,.T.);
#48=FACE_OUTER_BOUND('',#132,.T.);
#49=ADVANCED_FACE('',(#109,#110),#63,.F.);
#50=ADVANCED_FACE('',(#41),#64,.F.);
#51=ADVANCED_FACE('',(#42),#65,.F.);
#52=ADVANCED_FACE('',(#43),#66,.F.);
#53=ADVANCED_FACE('',(#44),#67,.F.);
#54=ADVANCED_FACE('',(#111,#112),#68,.T.);
#55=ADVANCED_FACE('',(#45),#36,.T.);
#56=ADVANCED_FACE('',(#46),#37,.T.);
#57=ADVANCED_FACE('',(#47),#38,.T.);
#58=ADVANCED_FACE('',(#48),#39,.T.);
#59=ADVANCED_FACE('',(#113,#114),#40,.F.);
#60=ADVANCED_FACE('',(#115,#116),#34,.T.);
#61=ADVANCED_FACE('',(#117,#118),#33,.F.);
#62=ADVANCED_FACE('',(#119,#120),#35,.F.);
#63=PLANE('',#289);
#64=PLANE('',#290);
#65=PLANE('',#291);
#66=PLANE('',#292);
#67=PLANE('',#293);
#68=PLANE('',#299);
#69=LINE('',#432,#89);
#70=LINE('',#435,#90);
#71=LINE('',#437,#91);
#72=LINE('',#439,#92);
#73=LINE('',#441,#93);
#74=LINE('',#444,#94);
#75=LINE('',#446,#95);
#76=LINE('',#447,#96);
#77=LINE('',#449,#97);
#78=LINE('',#451,#98);
#79=LINE('',#453,#99);
#80=LINE('',#455,#100);
#81=LINE('',#457,#101);
#82=LINE('',#459,#102);
#83=LINE('',#461,#103);
#84=LINE('',#463,#104);
#85=LINE('',#465,#105);
#86=LINE('',#467,#106);
#87=LINE('',#469,#107);
#88=LINE('',#471,#108);
#89=VECTOR('',#319,1.0);
#90=VECTOR('',#320,1.0);
#91=VECTOR('',#321,1.0);
#92=VECTOR('',#322,1.0);
#93=VECTOR('',#325,1.0);
#94=VECTOR('',#326,1.0);
#95=VECTOR('',#327,1.0);
#96=VECTOR('',#328,1.0);
#97=VECTOR('',#329,1.0);
#98=VECTOR('',#332,1.0);
#99=VECTOR('',#333,1.0);
#100=VECTOR('',#334,1.0);
#101=VECTOR('',#335,1.0);
#102=VECTOR('',#338,1.0);
#103=VECTOR('',#339,1.0);
#104=VECTOR('',#340,1.0);
#105=VECTOR('',#341,1.0);
#106=VECTOR('',#344,1.0);
#107=VECTOR('',#345,1.0);
#108=VECTOR('',#346,1.0);
#109=FACE_BOUND('',#121,.T.);
#110=FACE_BOUND('',#122,.T.);
#111=FACE_BOUND('',#127,.T.);
#112=FACE_BOUND('',#128,.T.);
#113=FACE_BOUND('',#133,.T.);
#114=FACE_BOUND('',#134,.T.);
#115=FACE_BOUND('',#135,.T.);
#116=FACE_BOUND('',#136,.T.);
#117=FACE_BOUND('',#137,.T.);
#118=FACE_BOUND('',#138,.T.);
#119=FACE_BOUND('',#139,.T.);
#120=FACE_BOUND('',#140,.T.);
#121=EDGE_LOOP('',(#141));
#122=EDGE_LOOP('',(#142,#143,#144,#145));
#123=EDGE_LOOP('',(#146,#147,#148,#149,#150,#151));
#124=EDGE_LOOP('',(#152,#153,#154,#155,#156,#157));
#125=EDGE_LOOP('',(#158,#159,#160,#161,#162,#163));
#126=EDGE_LOOP('',(#164,#165,#166,#167,#168,#169));
#127=EDGE_LOOP('',(#170));
#128=EDGE_LOOP('',(#171,#172,#173,#174,#175,#176,#177,#178));
#129=EDGE_LOOP('',(#179,#180,#181));
#130=EDGE_LOOP('',(#182,#183,#184));
#131=EDGE_LOOP('',(#185,#186,#187));
#132=EDGE_LOOP('',(#188,#189,#190));
#133=EDGE_LOOP('',(#191));
#134=EDGE_LOOP('',(#192));
#135=EDGE_LOOP('',(#193));
#136=EDGE_LOOP('',(#194));
#137=EDGE_LOOP('',(#195));
#138=EDGE_LOOP('',(#196));
#139=EDGE_LOOP('',(#197));
#140=EDGE_LOOP('',(#198));
#141=ORIENTED_EDGE('',*,*,#220,.T.);
#142=ORIENTED_EDGE('',*,*,#221,.T.);
#143=ORIENTED_EDGE('',*,*,#222,.T.);
#144=ORIENTED_EDGE('',*,*,#223,.T.);
#145=ORIENTED_EDGE('',*,*,#224,.T.);
#146=ORIENTED_EDGE('',*,*,#225,.F.);
#147=ORIENTED_EDGE('',*,*,#226,.T.);
#148=ORIENTED_EDGE('',*,*,#227,.F.);
#149=ORIENTED_EDGE('',*,*,#221,.F.);
#150=ORIENTED_EDGE('',*,*,#228,.T.);
#151=ORIENTED_EDGE('',*,*,#229,.T.);
#152=ORIENTED_EDGE('',*,*,#224,.F.);
#153=ORIENTED_EDGE('',*,*,#230,.T.);
#154=ORIENTED_EDGE('',*,*,#231,.T.);
#155=ORIENTED_EDGE('',*,*,#232,.F.);
#156=ORIENTED_EDGE('',*,*,#233,.T.);
#157=ORIENTED_EDGE('',*,*,#228,.F.);
#158=ORIENTED_EDGE('',*,*,#223,.F.);
#159=ORIENTED_EDGE('',*,*,#234,.T.);
#160=ORIENTED_EDGE('',*,*,#235,.T.);
#161=ORIENTED_EDGE('',*,*,#236,.F.);
#162=ORIENTED_EDGE('',*,*,#237,.T.);
#163=ORIENTED_EDGE('',*,*,#230,.F.);
#164=ORIENTED_EDGE('',*,*,#222,.F.);
#165=ORIENTED_EDGE('',*,*,#227,.T.);
#166=ORIENTED_EDGE('',*,*,#238,.T.);
#167=ORIENTED_EDGE('',*,*,#239,.F.);
#168=ORIENTED_EDGE('',*,*,#240,.T.);
#169=ORIENTED_EDGE('',*,*,#234,.F.);
#170=ORIENTED_EDGE('',*,*,#241,.F.);
#171=ORIENTED_EDGE('',*,*,#239,.T.);
#172=ORIENTED_EDGE('',*,*,#242,.T.);
#173=ORIENTED_EDGE('',*,*,#225,.T.);
#174=ORIENTED_EDGE('',*,*,#243,.T.);
#175=ORIENTED_EDGE('',*,*,#232,.T.);
#176=ORIENTED_EDGE('',*,*,#244,.T.);
#177=ORIENTED_EDGE('',*,*,#236,.T.);
#178=ORIENTED_EDGE('',*,*,#245,.T.);
#179=ORIENTED_EDGE('',*,*,#238,.F.);
#180=ORIENTED_EDGE('',*,*,#226,.F.);
#181=ORIENTED_EDGE('',*,*,#242,.F.);
#182=ORIENTED_EDGE('',*,*,#235,.F.);
#183=ORIENTED_EDGE('',*,*,#240,.F.);
#184=ORIENTED_EDGE('',*,*,#245,.F.);
#185=ORIENTED_EDGE('',*,*,#231,.F.);
#186=ORIENTED_EDGE('',*,*,#237,.F.);
#187=ORIENTED_EDGE('',*,*,#244,.F.);
#188=ORIENTED_EDGE('',*,*,#229,.F.);
#189=ORIENTED_EDGE('',*,*,#233,.F.);
#190=ORIENTED_EDGE('',*,*,#243,.F.);
#191=ORIENTED_EDGE('',*,*,#246,.T.);
#192=ORIENTED_EDGE('',*,*,#241,.T.);
#193=ORIENTED_EDGE('',*,*,#247,.T.);
#194=ORIENTED_EDGE('',*,*,#248,.T.);
#195=ORIENTED_EDGE('',*,*,#248,.F.);
#196=ORIENTED_EDGE('',*,*,#220,.F.);
#197=ORIENTED_EDGE('',*,*,#247,.F.);
#198=ORIENTED_EDGE('',*,*,#246,.F.);
#199=VERTEX_POINT('',#431);
#200=VERTEX_POINT('',#433);
#201=VERTEX_POINT('',#434);
#202=VERTEX_POINT('',#436);
#203=VERTEX_POINT('',#438);
#204=VERTEX_POINT('',#442);
#205=VERTEX_POINT('',#443);
#206=VERTEX_POINT('',#445);
#207=VERTEX_POINT('',#448);
#208=VERTEX_POINT('',#452);
#209=VERTEX_POINT('',#454);
#210=VERTEX_POINT('',#456);
#211=VERTEX_POINT('',#460);
#212=VERTEX_POINT('',#462);
#213=VERTEX_POINT('',#464);
#214=VERTEX_POINT('',#468);
#215=VERTEX_POINT('',#470);
#216=VERTEX_POINT('',#474);
#217=VERTEX_POINT('',#485);
#218=VERTEX_POINT('',#488);
#219=VERTEX_POINT('',#490);
#220=EDGE_CURVE('',#199,#199,#249,.T.);
#221=EDGE_CURVE('',#200,#201,#69,.T.);
#222=EDGE_CURVE('',#201,#202,#70,.T.);
#223=EDGE_CURVE('',#202,#203,#71,.T.);
#224=EDGE_CURVE('',#203,#200,#72,.T.);
#225=EDGE_CURVE('',#204,#205,#73,.T.);
#226=EDGE_CURVE('',#204,#206,#74,.T.);
#227=EDGE_CURVE('INSERT_CORNER_EDGE3',#201,#206,#75,.T.);
#228=EDGE_CURVE('INSERT_CORNER_EDGE4',#200,#207,#76,.T.);
#229=EDGE_CURVE('',#207,#205,#77,.T.);
#230=EDGE_CURVE('INSERT_CORNER_EDGE1',#203,#208,#78,.T.);
#231=EDGE_CURVE('',#208,#209,#79,.T.);
#232=EDGE_CURVE('',#210,#209,#80,.T.);
#233=EDGE_CURVE('',#210,#207,#81,.T.);
#234=EDGE_CURVE('INSERT_CORNER_EDGE2',#202,#211,#82,.T.);
#235=EDGE_CURVE('',#211,#212,#83,.T.);
#236=EDGE_CURVE('',#213,#212,#84,.T.);
#237=EDGE_CURVE('',#213,#208,#85,.T.);
#238=EDGE_CURVE('',#206,#214,#86,.T.);
#239=EDGE_CURVE('',#215,#214,#87,.T.);
#240=EDGE_CURVE('',#215,#211,#88,.T.);
#241=EDGE_CURVE('',#216,#216,#250,.T.);
#242=EDGE_CURVE('',#214,#204,#251,.T.);
#243=EDGE_CURVE('',#205,#210,#252,.T.);
#244=EDGE_CURVE('',#209,#213,#253,.T.);
#245=EDGE_CURVE('',#212,#215,#254,.T.);
#246=EDGE_CURVE('',#217,#217,#255,.T.);
#247=EDGE_CURVE('',#218,#218,#256,.T.);
#248=EDGE_CURVE('',#219,#219,#257,.T.);
#249=CIRCLE('',#288,2.2);
#250=CIRCLE('',#294,3.07132534818238);
#251=CIRCLE('',#295,0.0992187500000009);
#252=CIRCLE('',#296,0.0992187500000008);
#253=CIRCLE('',#297,0.0992187500000009);
#254=CIRCLE('',#298,0.0992187500000009);
#255=CIRCLE('',#304,3.00605207333836);
#256=CIRCLE('',#306,2.95049568210277);
#257=CIRCLE('',#307,2.2);
#258=CURVE_STYLE('',#262,POSITIVE_LENGTH_MEASURE(0.18),#261);
#259=CURVE_STYLE('',#263,POSITIVE_LENGTH_MEASURE(0.18),#283);
#260=CURVE_STYLE('',#264,POSITIVE_LENGTH_MEASURE(0.18),#283);
#261=DRAUGHTING_PRE_DEFINED_COLOUR('blue');
#262=DRAUGHTING_PRE_DEFINED_CURVE_FONT('continuous');
#263=DRAUGHTING_PRE_DEFINED_CURVE_FONT('continuous');
#264=DRAUGHTING_PRE_DEFINED_CURVE_FONT('continuous');
#265=B_SPLINE_CURVE_WITH_KNOTS('CUTTING EDGE LINE',5,(#386,#387,#388,#389,#390,#391,
     #392,#393,#394,#395,#396,#397,#398,#399,#400,#401,#402,#403,#404,#405,#406,
     #407,#408,#409,#410,#411,#412,#413,#414,#415,#416,#417,#418,#419,#420,#421,
     #422,#423,#424,#425,#426,#427),.UNSPECIFIED.,.T.,.F.,(2,4,1,4,4,1,1,1,4,4,1,
     4,4,1,1,1,4,4,1,1),(-0.2459524279,0.0,0.0017989209,0.0035978418,0.2495502697,
     0.2506745953,0.2517989209,0.2529232465,0.2540475721,0.5,0.5017989209,0.5035978418,
     0.7495502697,0.7506745953,0.7517989209,0.7529232465,0.7540475721,1.0,1.0017989209,
     1.0035978418),.UNSPECIFIED.);
#266=PRESENTATION_LAYER_ASSIGNMENT('1','Layer 1',(#265,#286,#287,#31));
#269=STYLED_ITEM('',(#275),#265);
#270=STYLED_ITEM('',(#276),#286);
#271=STYLED_ITEM('',(#277),#287);
#272=STYLED_ITEM('',(#278),#31);
#273=PRESENTATION_STYLE_ASSIGNMENT((#279));
#274=PRESENTATION_STYLE_ASSIGNMENT((#280));
#275=PRESENTATION_STYLE_ASSIGNMENT((#258));
#276=PRESENTATION_STYLE_ASSIGNMENT((#259));
#277=PRESENTATION_STYLE_ASSIGNMENT((#260));
#278=PRESENTATION_STYLE_ASSIGNMENT((#26));
#279=POINT_STYLE('',#281,POSITIVE_LENGTH_MEASURE(3.0),#283);
#280=POINT_STYLE('',#282,POSITIVE_LENGTH_MEASURE(3.0),#283);
#281=PRE_DEFINED_POINT_MARKER_SYMBOL('plus');
#282=PRE_DEFINED_POINT_MARKER_SYMBOL('plus');
#283=COLOUR_RGB('Medium Maroon',0.6,0.4,0.4);
#284=COLOUR_RGB('IsoInsertColor',0.8,0.8,0.8);
#285=AXIS2_PLACEMENT_3D('',#383,#311,#312);
#286=AXIS2_PLACEMENT_3D('PCS',#428,#313,#314);
#287=AXIS2_PLACEMENT_3D('MCS',#429,#315,#316);
#288=AXIS2_PLACEMENT_3D('',#430,#317,#318);
#289=AXIS2_PLACEMENT_3D('',#440,#323,#324);
#290=AXIS2_PLACEMENT_3D('',#450,#330,#331);
#291=AXIS2_PLACEMENT_3D('',#458,#336,#337);
#292=AXIS2_PLACEMENT_3D('',#466,#342,#343);
#293=AXIS2_PLACEMENT_3D('',#472,#347,#348);
#294=AXIS2_PLACEMENT_3D('',#473,#349,#350);
#295=AXIS2_PLACEMENT_3D('',#475,#351,#352);
#296=AXIS2_PLACEMENT_3D('',#476,#353,#354);
#297=AXIS2_PLACEMENT_3D('',#477,#355,#356);
#298=AXIS2_PLACEMENT_3D('',#478,#357,#358);
#299=AXIS2_PLACEMENT_3D('',#479,#359,#360);
#300=AXIS2_PLACEMENT_3D('',#480,#361,#362);
#301=AXIS2_PLACEMENT_3D('',#481,#363,#364);
#302=AXIS2_PLACEMENT_3D('',#482,#365,#366);
#303=AXIS2_PLACEMENT_3D('',#483,#367,#368);
#304=AXIS2_PLACEMENT_3D('',#484,#369,#370);
#305=AXIS2_PLACEMENT_3D('',#486,#371,#372);
#306=AXIS2_PLACEMENT_3D('',#487,#373,#374);
#307=AXIS2_PLACEMENT_3D('',#489,#375,#376);
#308=AXIS2_PLACEMENT_3D('',#491,#377,#378);
#309=AXIS2_PLACEMENT_3D('',#492,#379,#380);
#310=AXIS2_PLACEMENT_3D('',#493,#381,#382);
#311=DIRECTION('',(0.0,0.0,1.0));
#312=DIRECTION('',(1.0,0.0,0.0));
#313=DIRECTION('',(0.0,0.0,1.0));
#314=DIRECTION('',(1.0,0.0,0.0));
#315=DIRECTION('',(0.0,0.0,1.0));
#316=DIRECTION('',(1.0,0.0,0.0));
#317=DIRECTION('',(0.0,0.0,1.0));
#318=DIRECTION('',(-0.766044443118978,-0.642787609686539,0.0));
#319=DIRECTION('',(1.0,6.66133814775094E-16,0.0));
#320=DIRECTION('',(-0.173648177666929,-0.984807753012208,0.0));
#321=DIRECTION('',(-1.0,1.27675647831893E-15,0.0));
#322=DIRECTION('',(0.17364817766693,0.984807753012208,0.0));
#323=DIRECTION('',(0.0,0.0,1.0));
#324=DIRECTION('',(-0.766044443118978,-0.642787609686539,0.0));
#325=DIRECTION('',(-1.0,-5.55111512312578E-16,-1.49331675452002E-16));
#326=DIRECTION('',(2.22044604925031E-16,-0.121869343405148,-0.992546151641322));
#327=DIRECTION('',(0.143730206185748,0.120603962999497,0.982240455254526));
#328=DIRECTION('',(-0.101729998253829,0.121237090893603,0.987396868157344));
#329=DIRECTION('',(-2.22044604925031E-16,0.121869343405148,0.992546151641322));
#330=DIRECTION('',(6.10622663543836E-16,-0.992546151641322,0.121869343405148));
#331=DIRECTION('',(1.0,6.66133814775094E-16,0.0));
#332=DIRECTION('',(-0.143730206185749,-0.120603962999495,0.982240455254526));
#333=DIRECTION('',(-0.120017874239897,0.0211623893957697,0.992546151641322));
#334=DIRECTION('',(-0.17364817766693,-0.984807753012208,4.8999484254872E-16));
#335=DIRECTION('',(0.120017874239897,-0.0211623893957697,-0.992546151641322));
#336=DIRECTION('',(0.977467145358805,-0.17235383048284,0.121869343405148));
#337=DIRECTION('',(0.17364817766693,0.984807753012208,0.0));
#338=DIRECTION('',(0.101729998253828,-0.121237090893602,0.987396868157345));
#339=DIRECTION('',(-3.05311331771918E-16,-0.121869343405147,0.992546151641322));
#340=DIRECTION('',(1.0,-1.27675647831893E-15,1.42515763122859E-16));
#341=DIRECTION('',(3.05311331771918E-16,0.121869343405147,-0.992546151641322));
#342=DIRECTION('',(1.22124532708767E-15,0.992546151641322,0.121869343405147));
#343=DIRECTION('',(-1.0,1.27675647831893E-15,0.0));
#344=DIRECTION('',(0.120017874239896,-0.0211623893957685,0.992546151641322));
#345=DIRECTION('',(0.173648177666929,0.984807753012208,-4.83178930219575E-16));
#346=DIRECTION('',(-0.120017874239896,0.0211623893957685,-0.992546151641322));
#347=DIRECTION('',(-0.977467145358805,0.172353830482839,0.121869343405147));
#348=DIRECTION('',(-0.173648177666929,-0.984807753012208,0.0));
#349=DIRECTION('',(0.0,0.0,1.0));
#350=DIRECTION('',(-0.766044443118978,-0.642787609686539,0.0));
#351=DIRECTION('',(-1.37745668311625E-16,5.15292423860319E-16,1.0));
#352=DIRECTION('',(-0.642787609686535,0.766044443118983,-4.8327810675821E-16));
#353=DIRECTION('',(-1.37745668311625E-16,5.15292423860319E-16,1.0));
#354=DIRECTION('',(-0.64278760968654,0.766044443118983,-4.8327810675821E-16));
#355=DIRECTION('',(-1.37745668311625E-16,5.15292423860319E-16,1.0));
#356=DIRECTION('',(-0.642787609686539,0.766044443118978,-4.8327810675821E-16));
#357=DIRECTION('',(-1.37745668311625E-16,5.15292423860319E-16,1.0));
#358=DIRECTION('',(-0.642787609686535,0.766044443118978,-4.83278106758211E-16));
#359=DIRECTION('',(-1.37745668311625E-16,5.15292423860319E-16,1.0));
#360=DIRECTION('',(-0.642787609686539,0.766044443118978,-4.83278106758211E-16));
#361=DIRECTION('',(-1.37745668311625E-16,5.15292423860319E-16,1.0));
#362=DIRECTION('',(-0.642787609686539,0.766044443118978,-8.68182066615429E-16));
#363=DIRECTION('',(-1.37745668311625E-16,5.15292423860319E-16,1.0));
#364=DIRECTION('',(-0.642787609686539,0.766044443118978,-9.03474020542886E-16));
#365=DIRECTION('',(-1.37745668311625E-16,5.15292423860319E-16,1.0));
#366=DIRECTION('',(-0.642787609686539,0.766044443118978,-8.96415629757394E-16));
#367=DIRECTION('',(-1.37745668311625E-16,5.15292423860319E-16,1.0));
#368=DIRECTION('',(-0.642787609686539,0.766044443118978,-8.61123675829938E-16));
#369=DIRECTION('',(0.0,0.0,-1.0));
#370=DIRECTION('',(0.766044443118978,0.642787609686539,0.0));
#371=DIRECTION('',(0.0,0.0,1.0));
#372=DIRECTION('',(-0.766044443118978,-0.642787609686539,4.75743674970671E-16));
#373=DIRECTION('',(0.0,0.0,1.0));
#374=DIRECTION('',(0.766044443118978,0.642787609686539,0.0));
#375=DIRECTION('',(0.0,0.0,-1.0));
#376=DIRECTION('',(-0.766044443118978,-0.642787609686539,0.0));
#377=DIRECTION('',(0.0,0.0,1.0));
#378=DIRECTION('',(-0.766044443118978,-0.642787609686539,0.0));
#379=DIRECTION('',(0.0,0.0,1.0));
#380=DIRECTION('',(-0.766044443118978,-0.642787609686539,0.0));
#381=DIRECTION('',(0.0,0.0,-1.0));
#382=DIRECTION('',(0.766044443118978,0.642787609686539,0.0));
#383=CARTESIAN_POINT('',(0.0,0.0,0.0));
#386=CARTESIAN_POINT('',(7.69459610969769,3.64153152077051E-14,0.0));
#387=CARTESIAN_POINT('',(9.60143937831053,3.37507799486048E-14,5.2883659793578E-17));
#388=CARTESIAN_POINT('',(9.62695001156996,0.00409947974363778,5.37267738070845E-17));
#389=CARTESIAN_POINT('',(9.65718276635718,0.0175851726141518,4.91050977467028E-17));
#390=CARTESIAN_POINT('',(9.67571344402522,0.0450168579317918,3.37855129239767E-17));
#391=CARTESIAN_POINT('',(9.68418051843667,0.069428060163073,1.90475949813855E-17));
#392=CARTESIAN_POINT('',(10.0153003771277,1.94730209487214,6.70121232262239E-18));
#393=CARTESIAN_POINT('',(10.3442052983305,3.81261459487213,4.46747488174825E-18));
#394=CARTESIAN_POINT('',(10.6731102195333,5.67792709487212,4.46747488174822E-18));
#395=CARTESIAN_POINT('',(11.002015140736,7.54323959487211,6.7012123226223E-18));
#396=CARTESIAN_POINT('',(11.3322398917933,9.41603722193112,8.21136815974161E-18));
#397=CARTESIAN_POINT('',(11.333446066505,9.43126023813063,2.31281180174926E-18));
#398=CARTESIAN_POINT('',(11.3309871234059,9.4587508420691,-7.97538281290099E-18));
#399=CARTESIAN_POINT('',(11.3132135124883,9.49291328575853,-1.96059259365894E-17));
#400=CARTESIAN_POINT('',(11.2826564282271,9.51634912168089,-2.61440333222471E-17));
#401=CARTESIAN_POINT('',(11.2560104593218,9.52354440118589,-2.67970629618652E-17));
#402=CARTESIAN_POINT('',(11.2408092649037,9.52499999999999,-2.61595652536229E-17));
#403=CARTESIAN_POINT('',(9.33912071571146,9.52499999999999,-1.53380010539674E-17));
#404=CARTESIAN_POINT('',(7.44503276372835,9.52499999999999,-1.02253340359783E-17));
#405=CARTESIAN_POINT('',(5.55094481174523,9.52499999999999,-1.02253340359783E-17));
#406=CARTESIAN_POINT('',(3.65685685976211,9.52499999999998,-1.53380010539674E-17));
#407=CARTESIAN_POINT('',(1.75001359114928,9.52499999999998,-3.12368548622807E-17));
#408=CARTESIAN_POINT('',(1.72450295788984,9.52090052025638,-3.96910778654107E-17));
#409=CARTESIAN_POINT('',(1.69427020310274,9.50741482738596,-4.36222598226438E-17));
#410=CARTESIAN_POINT('',(1.67573952543458,9.47998314206823,-3.25073461694796E-17));
#411=CARTESIAN_POINT('',(1.66727245102313,9.45557193983695,-1.90475949813857E-17));
#412=CARTESIAN_POINT('',(1.33615259233206,7.57769790512789,-6.70121232262248E-18));
#413=CARTESIAN_POINT('',(1.0072476711293,5.7123854051279,-4.46747488174831E-18));
#414=CARTESIAN_POINT('',(0.678342749926545,3.84707290512791,-4.4674748817483E-18));
#415=CARTESIAN_POINT('',(0.349437828723788,1.98176040512793,-6.70121232262244E-18));
#416=CARTESIAN_POINT('',(0.019213077666496,0.10896277806892,-8.21136815974182E-18));
#417=CARTESIAN_POINT('',(0.0180069029548244,0.0937397618694051,-2.3128118017494E-18));
#418=CARTESIAN_POINT('',(0.0204658460539111,0.0662491579309776,7.97538281288896E-18));
#419=CARTESIAN_POINT('',(0.0382394569715929,0.0320867142413732,1.96059259366312E-17));
#420=CARTESIAN_POINT('',(0.068796541232663,0.00865087831918654,2.61440333222354E-17));
#421=CARTESIAN_POINT('',(0.0954425101380005,0.00145559881414403,2.67970629618654E-17));
#422=CARTESIAN_POINT('',(0.110643704556143,4.61852778244065E-14,2.61595652536231E-17));
#423=CARTESIAN_POINT('',(2.01233225374833,4.35207425653061E-14,1.53380010539675E-17));
#424=CARTESIAN_POINT('',(3.90642020573145,4.17443857259059E-14,7.66900052698373E-18));
#425=CARTESIAN_POINT('',(5.80050815771457,3.99680288865056E-14,2.55633350899458E-18));
#426=CARTESIAN_POINT('',(7.69459610969769,3.64153152077051E-14,0.0));
#427=CARTESIAN_POINT('',(9.60143937831053,3.37507799486048E-14,5.2883659793578E-17));
#428=CARTESIAN_POINT('',(0.0,0.0,0.0));
#429=CARTESIAN_POINT('',(5.67572648472992,4.7625,0.0));
#430=CARTESIAN_POINT('',(5.67572648472992,4.7625,-3.96875));
#431=CARTESIAN_POINT('',(3.99042870986817,3.34836725868961,-3.96875));
#432=CARTESIAN_POINT('',(5.6757264847299,9.03769877391658,-3.96875));
#433=CARTESIAN_POINT('',(2.08840877032694,9.03769877391658,-3.96875));
#434=CARTESIAN_POINT('',(10.7707099825993,9.03769877391659,-3.96875));
#435=CARTESIAN_POINT('',(9.88597538295123,4.02011952374551,-3.96875));
#436=CARTESIAN_POINT('',(9.26304419913286,0.487301226083433,-3.96875));
#437=CARTESIAN_POINT('',(5.6757264847299,0.487301226083438,-3.96875));
#438=CARTESIAN_POINT('',(0.580742986860464,0.487301226083444,-3.96875));
#439=CARTESIAN_POINT('',(1.46547758650857,5.50488047625452,-3.96875));
#440=CARTESIAN_POINT('',(5.62950517219276,4.23418798019793,-3.96875));
#441=CARTESIAN_POINT('',(5.67572648472992,9.52499999999999,-5.38749756651153E-15));
#442=CARTESIAN_POINT('',(11.2332086676946,9.52499999999999,-4.62197846908911E-15));
#443=CARTESIAN_POINT('',(1.76276890777899,9.52499999999998,-5.92649052302367E-15));
#444=CARTESIAN_POINT('',(11.2332086676946,9.52499999999999,-4.36778687270606E-15));
#445=CARTESIAN_POINT('',(11.2332086676946,9.42578124999999,-0.808071872150598));
#446=CARTESIAN_POINT('',(11.234201699402,9.42661450253942,-0.801285574807471));
#447=CARTESIAN_POINT('',(1.7208712593758,9.47571292300574,-0.401411029463414));
#448=CARTESIAN_POINT('',(1.76276890777899,9.42578124999998,-0.808071872150619));
#449=CARTESIAN_POINT('',(1.76276890777899,9.52499999999998,-5.26164301967384E-15));
#450=CARTESIAN_POINT('',(5.6757264847299,9.52499999999999,-5.38749756651153E-15));
#451=CARTESIAN_POINT('',(0.117251270057804,0.0983854974606112,-0.801285574807467));
#452=CARTESIAN_POINT('',(0.118244301765214,0.0992187500000472,-0.808071872150617));
#453=CARTESIAN_POINT('',(0.0205329075210316,0.116447905127937,-9.58150307157346E-16));
#454=CARTESIAN_POINT('',(0.0205329075210316,0.116447905127937,-1.31832037125308E-15));
#455=CARTESIAN_POINT('',(0.985579561009281,5.58949944613875,-4.00561136949636E-15));
#456=CARTESIAN_POINT('',(1.66505751353481,9.44301040512787,-5.89770122725252E-15));
#457=CARTESIAN_POINT('',(1.66505751353481,9.44301040512787,-5.24867223740742E-15));
#458=CARTESIAN_POINT('',(0.985579561009283,5.58949944613876,-4.00561136949636E-15));
#459=CARTESIAN_POINT('',(9.630581710084,0.049287076994281,-0.40141102946341));
#460=CARTESIAN_POINT('',(9.58868406168081,0.0992187500000342,-0.808071872150617));
#461=CARTESIAN_POINT('',(9.58868406168081,3.38271077815477E-14,3.88041039676688E-17));
#462=CARTESIAN_POINT('',(9.58868406168081,3.38271077815477E-14,5.96557272701217E-17));
#463=CARTESIAN_POINT('',(5.67572648472992,3.90312782094782E-14,-4.7933722924202E-16));
#464=CARTESIAN_POINT('',(0.118244301765214,4.5102810375397E-14,-1.24485632666445E-15));
#465=CARTESIAN_POINT('',(0.118244301765214,4.5102810375397E-14,-9.61794810859005E-16));
#466=CARTESIAN_POINT('',(5.6757264847299,3.81639164714898E-14,-4.79337229242023E-16));
#467=CARTESIAN_POINT('',(11.3309200619388,9.4085520948721,-4.42349880804027E-15));
#468=CARTESIAN_POINT('',(11.3309200619388,9.4085520948721,-4.54851442450048E-15));
#469=CARTESIAN_POINT('',(10.3658734084505,3.93550055386126,-1.86122342625719E-15));
#470=CARTESIAN_POINT('',(9.68639545592499,0.0819895948721439,3.08664314989719E-17));
#471=CARTESIAN_POINT('',(9.68639545592499,0.0819895948721439,4.92591329237071E-17));
#472=CARTESIAN_POINT('',(10.3658734084505,3.93550055386127,-1.86122342625719E-15));
#473=CARTESIAN_POINT('',(5.67572648472992,4.7625,0.0));
#474=CARTESIAN_POINT('',(3.32295476874435,2.78829012087217,0.0));
#475=CARTESIAN_POINT('',(11.2332086676946,9.42578124999999,-4.57085179890922E-15));
#476=CARTESIAN_POINT('',(1.76276890777899,9.42578124999998,-5.87536385284378E-15));
#477=CARTESIAN_POINT('',(0.118244301765214,0.0992187500000472,-1.29598299684434E-15));
#478=CARTESIAN_POINT('',(9.58868406168081,0.0992187500000342,8.52905709023088E-18));
#479=CARTESIAN_POINT('',(5.67572648472992,4.7625,-2.93341739787677E-15));
#480=CARTESIAN_POINT('',(11.2332086676946,9.42578124999999,-4.33680868994202E-15));
#481=CARTESIAN_POINT('',(9.58868406168081,0.0992187500000342,0.0));
#482=CARTESIAN_POINT('',(0.118244301765214,0.0992187500000472,-8.67361737988404E-16));
#483=CARTESIAN_POINT('',(1.76276890777899,9.42578124999998,-5.20417042793042E-15));
#484=CARTESIAN_POINT('',(5.67572648472992,4.7625,-0.933451318981107));
#485=CARTESIAN_POINT('',(7.97849597123705,6.69475302681442,-0.933451318981107));
#486=CARTESIAN_POINT('',(5.67572648472992,4.7625,-1.02000000000516));
#487=CARTESIAN_POINT('',(5.67572648472992,4.7625,-1.08746453661102));
#488=CARTESIAN_POINT('',(7.93593730645129,6.65904206688929,-1.08746453661102));
#489=CARTESIAN_POINT('',(5.67572648472992,4.7625,-3.42000000000001));
#490=CARTESIAN_POINT('',(3.99042870986817,3.34836725868961,-3.42000000000001));
#491=CARTESIAN_POINT('',(5.67572648472992,4.7625,-3.42));
#492=CARTESIAN_POINT('',(5.67572648472992,4.7625,-33.3676978394524));
#493=CARTESIAN_POINT('',(5.67572648472992,4.7625,-0.912524376856842));
#494=MECHANICAL_DESIGN_GEOMETRIC_PRESENTATION_REPRESENTATION('',(#269,#270,#271,
     #272),#495);
#495=(GEOMETRIC_REPRESENTATION_CONTEXT(3)GLOBAL_UNCERTAINTY_ASSIGNED_CONTEXT((#496))
     GLOBAL_UNIT_ASSIGNED_CONTEXT((#502,#498,#497))REPRESENTATION_CONTEXT('CCGT09T301',
     'TOP_LEVEL_ASSEMBLY_PART'));
#496=UNCERTAINTY_MEASURE_WITH_UNIT(LENGTH_MEASURE(2.0E-5),#502,'DISTANCE_ACCURACY_VALUE',
     'Maximum Tolerance applied to model');
#497=(NAMED_UNIT(*)SI_UNIT($,.STERADIAN.)SOLID_ANGLE_UNIT());
#498=(CONVERSION_BASED_UNIT('DEGREE',#500)NAMED_UNIT(#499)PLANE_ANGLE_UNIT());
#499=DIMENSIONAL_EXPONENTS(0.0,0.0,0.0,0.0,0.0,0.0,0.0);
#500=PLANE_ANGLE_MEASURE_WITH_UNIT(PLANE_ANGLE_MEASURE(0.0174532925),#501);
#501=(NAMED_UNIT(*)PLANE_ANGLE_UNIT()SI_UNIT($,.RADIAN.));
#502=(LENGTH_UNIT()NAMED_UNIT(*)SI_UNIT(.MILLI.,.METRE.));
#503=CONSTRUCTIVE_GEOMETRY_REPRESENTATION('supplemental geometry',(#286,#287),#495);
#504=CONSTRUCTIVE_GEOMETRY_REPRESENTATION_RELATIONSHIP('supplemental geometry','contains PCS and MCS coordinate systems',
     #24,#503);
ENDSEC;
END-ISO-10303-21;
