ISO-10303-21;
HEADER;
FILE_DESCRIPTION(
/* description */ (''),
/* implementation_level */ '2;1');
FILE_NAME(
/* name */ 'RCMT120400.stp',
/* time_stamp */ '2017-03-21T10:54:12',
/* author */ ('Sandvik Coromant R&D'),
/* organization */ ('Sandvik Machining Solutions'),
/* preprocessor_version */ 'ST-DEVELOPER v15',
/* originating_system */ 'SIEMENS PLM Software NX v8.5.3.3(64 bits)',
/* authorization */ '');
FILE_SCHEMA(('AUTOMOTIVE_DESIGN'));
ENDSEC;
DATA;
#10=GEOMETRICALLY_BOUNDED_WIREFRAME_SHAPE_REPRESENTATION('IsoTurningInsert-None',
     (#25),#284);
#11=SHAPE_REPRESENTATION_RELATIONSHIP('None','relationship between IsoTurningInsert-None and IsoTurningInsert-None',
     #24,#13);
#12=SHAPE_REPRESENTATION_RELATIONSHIP('None','relationship between IsoTurningInsert-None and IsoTurningInsert-None',
     #24,#10);
#13=ADVANCED_BREP_SHAPE_REPRESENTATION('IsoTurningInsert-None',(#31),#284);
#14=SHAPE_DEFINITION_REPRESENTATION(#15,#24);
#15=PRODUCT_DEFINITION_SHAPE('','',#16);
#16=PRODUCT_DEFINITION(' ','',#18,#17);
#17=PRODUCT_DEFINITION_CONTEXT('part definition',#23,'design');
#18=PRODUCT_DEFINITION_FORMATION_WITH_SPECIFIED_SOURCE(' ',' ',#20,.NOT_KNOWN.);
#19=PRODUCT_RELATED_PRODUCT_CATEGORY('part','',(#20));
#20=PRODUCT('IsoTurningInsert','IsoTurningInsert',' ',(#21));
#21=PRODUCT_CONTEXT(' ',#23,'mechanical');
#22=APPLICATION_PROTOCOL_DEFINITION('international standard','automotive_design',
     2010,#23);
#23=APPLICATION_CONTEXT('core data for automotive mechanical design processes');
#24=SHAPE_REPRESENTATION('IsoTurningInsert-None',(#137),#284);
#25=GEOMETRIC_CURVE_SET('geometric curve set',(#117));
#26=SURFACE_STYLE_USAGE(.BOTH.,#27);
#27=SURFACE_SIDE_STYLE('',(#28));
#28=SURFACE_STYLE_FILL_AREA(#29);
#29=FILL_AREA_STYLE('',(#30));
#30=FILL_AREA_STYLE_COLOUR('',#136);
#31=MANIFOLD_SOLID_BREP('CUT',#32);
#32=CLOSED_SHELL('',(#38,#39,#40,#41,#42,#43,#44));
#33=CYLINDRICAL_SURFACE('',#152,2.2);
#34=TOROIDAL_SURFACE('',#151,6.2,4.0);
#35=TOROIDAL_SURFACE('',#153,2.51117873496444,0.5);
#36=CONICAL_SURFACE('',#146,6.34999999999999,6.99999999999999);
#37=CONICAL_SURFACE('',#148,2.99999999999613,4.00000000019815);
#38=ADVANCED_FACE('',(#47,#48),#45,.F.);
#39=ADVANCED_FACE('',(#49,#50),#46,.F.);
#40=ADVANCED_FACE('',(#51,#52),#36,.T.);
#41=ADVANCED_FACE('',(#53,#54),#37,.F.);
#42=ADVANCED_FACE('',(#55,#56),#34,.T.);
#43=ADVANCED_FACE('',(#57,#58),#33,.F.);
#44=ADVANCED_FACE('',(#59,#60),#35,.F.);
#45=PLANE('',#142);
#46=PLANE('',#145);
#47=FACE_BOUND('',#61,.T.);
#48=FACE_BOUND('',#62,.T.);
#49=FACE_BOUND('',#63,.T.);
#50=FACE_BOUND('',#64,.T.);
#51=FACE_BOUND('',#65,.T.);
#52=FACE_BOUND('',#66,.T.);
#53=FACE_BOUND('',#67,.T.);
#54=FACE_BOUND('',#68,.T.);
#55=FACE_BOUND('',#69,.T.);
#56=FACE_BOUND('',#70,.T.);
#57=FACE_BOUND('',#71,.T.);
#58=FACE_BOUND('',#72,.T.);
#59=FACE_BOUND('',#73,.T.);
#60=FACE_BOUND('',#74,.T.);
#61=EDGE_LOOP('',(#75));
#62=EDGE_LOOP('',(#76));
#63=EDGE_LOOP('',(#77));
#64=EDGE_LOOP('',(#78));
#65=EDGE_LOOP('',(#79));
#66=EDGE_LOOP('',(#80));
#67=EDGE_LOOP('',(#81));
#68=EDGE_LOOP('',(#82));
#69=EDGE_LOOP('',(#83));
#70=EDGE_LOOP('',(#84));
#71=EDGE_LOOP('',(#85));
#72=EDGE_LOOP('',(#86));
#73=EDGE_LOOP('',(#87));
#74=EDGE_LOOP('',(#88));
#75=ORIENTED_EDGE('',*,*,#96,.F.);
#76=ORIENTED_EDGE('',*,*,#97,.F.);
#77=ORIENTED_EDGE('',*,*,#98,.T.);
#78=ORIENTED_EDGE('',*,*,#99,.F.);
#79=ORIENTED_EDGE('',*,*,#99,.T.);
#80=ORIENTED_EDGE('',*,*,#96,.T.);
#81=ORIENTED_EDGE('',*,*,#100,.T.);
#82=ORIENTED_EDGE('',*,*,#97,.T.);
#83=ORIENTED_EDGE('',*,*,#101,.T.);
#84=ORIENTED_EDGE('',*,*,#102,.T.);
#85=ORIENTED_EDGE('',*,*,#102,.F.);
#86=ORIENTED_EDGE('',*,*,#98,.F.);
#87=ORIENTED_EDGE('',*,*,#101,.F.);
#88=ORIENTED_EDGE('',*,*,#100,.F.);
#89=VERTEX_POINT('',#263);
#90=VERTEX_POINT('',#265);
#91=VERTEX_POINT('',#268);
#92=VERTEX_POINT('',#270);
#93=VERTEX_POINT('',#274);
#94=VERTEX_POINT('',#277);
#95=VERTEX_POINT('',#279);
#96=EDGE_CURVE('',#89,#89,#103,.T.);
#97=EDGE_CURVE('',#90,#90,#104,.T.);
#98=EDGE_CURVE('',#91,#91,#105,.T.);
#99=EDGE_CURVE('',#92,#92,#106,.T.);
#100=EDGE_CURVE('',#93,#93,#107,.T.);
#101=EDGE_CURVE('',#94,#94,#108,.T.);
#102=EDGE_CURVE('',#95,#95,#109,.T.);
#103=CIRCLE('',#140,6.34999999999999);
#104=CIRCLE('',#141,3.07062608006294);
#105=CIRCLE('',#143,2.2);
#106=CIRCLE('',#144,5.76523852869991);
#107=CIRCLE('',#147,3.00996076009423);
#108=CIRCLE('',#149,2.92104776441283);
#109=CIRCLE('',#150,2.2);
#110=CURVE_STYLE('',#114,POSITIVE_LENGTH_MEASURE(0.18),#113);
#111=CURVE_STYLE('',#115,POSITIVE_LENGTH_MEASURE(0.18),#135);
#112=CURVE_STYLE('',#116,POSITIVE_LENGTH_MEASURE(0.18),#135);
#113=DRAUGHTING_PRE_DEFINED_COLOUR('blue');
#114=DRAUGHTING_PRE_DEFINED_CURVE_FONT('continuous');
#115=DRAUGHTING_PRE_DEFINED_CURVE_FONT('continuous');
#116=DRAUGHTING_PRE_DEFINED_CURVE_FONT('continuous');
#117=B_SPLINE_CURVE_WITH_KNOTS('CUTTING EDGE LINE',5,(#191,#192,#193,#194,#195,#196,
     #197,#198,#199,#200,#201,#202,#203,#204,#205,#206,#207,#208,#209,#210,#211,
     #212,#213,#214,#215,#216,#217,#218,#219,#220,#221,#222,#223,#224,#225,#226,
     #227,#228,#229,#230,#231,#232,#233,#234,#235,#236,#237,#238,#239,#240,#241,
     #242,#243,#244,#245,#246,#247,#248,#249,#250,#251,#252,#253,#254,#255,#256,
     #257,#258,#259),.UNSPECIFIED.,.T.,.F.,(1,1,1,1,1,1,1,1,1,1,1,1,1,1,1,1,1,1,
     1,1,1,1,1,1,1,1,1,1,1,1,1,1,1,1,1,1,1,1,1,1,1,1,1,1,1,1,1,1,1,1,1,1,1,1,1,1,
     1,1,1,1,1,1,1,1,1,1,1,1,1,1,1,1,1,1,1),(-0.078125,-0.0625,-0.046875,-0.03125,
     -0.015625,0.0,0.015625,0.03125,0.046875,0.0625,0.078125,0.09375,0.109375,0.125,
     0.140625,0.15625,0.171875,0.1875,0.203125,0.21875,0.234375,0.25,0.265625,0.28125,
     0.296875,0.3125,0.328125,0.34375,0.359375,0.375,0.390625,0.40625,0.421875,0.4375,
     0.453125,0.46875,0.484375,0.5,0.515625,0.53125,0.546875,0.5625,0.578125,0.59375,
     0.609375,0.625,0.640625,0.65625,0.671875,0.6875,0.703125,0.71875,0.734375,0.75,
     0.765625,0.78125,0.796875,0.8125,0.828125,0.84375,0.859375,0.875,0.890625,0.90625,
     0.921875,0.9375,0.953125,0.96875,0.984375,1.0,1.015625,1.03125,1.046875,1.0625,
     1.078125),.UNSPECIFIED.);
#118=PRESENTATION_LAYER_ASSIGNMENT('1','Layer 1',(#117,#138,#139,#31));
#121=STYLED_ITEM('',(#127),#117);
#122=STYLED_ITEM('',(#128),#138);
#123=STYLED_ITEM('',(#129),#139);
#124=STYLED_ITEM('',(#130),#31);
#125=PRESENTATION_STYLE_ASSIGNMENT((#131));
#126=PRESENTATION_STYLE_ASSIGNMENT((#132));
#127=PRESENTATION_STYLE_ASSIGNMENT((#110));
#128=PRESENTATION_STYLE_ASSIGNMENT((#111));
#129=PRESENTATION_STYLE_ASSIGNMENT((#112));
#130=PRESENTATION_STYLE_ASSIGNMENT((#26));
#131=POINT_STYLE('',#133,POSITIVE_LENGTH_MEASURE(3.0),#135);
#132=POINT_STYLE('',#134,POSITIVE_LENGTH_MEASURE(3.0),#135);
#133=PRE_DEFINED_POINT_MARKER_SYMBOL('plus');
#134=PRE_DEFINED_POINT_MARKER_SYMBOL('plus');
#135=COLOUR_RGB('Medium Maroon',0.6,0.4,0.4);
#136=COLOUR_RGB('IsoInsertColor',0.8,0.8,0.8);
#137=AXIS2_PLACEMENT_3D('',#188,#154,#155);
#138=AXIS2_PLACEMENT_3D('PCS',#260,#156,#157);
#139=AXIS2_PLACEMENT_3D('MCS',#261,#158,#159);
#140=AXIS2_PLACEMENT_3D('',#262,#160,#161);
#141=AXIS2_PLACEMENT_3D('',#264,#162,#163);
#142=AXIS2_PLACEMENT_3D('',#266,#164,#165);
#143=AXIS2_PLACEMENT_3D('',#267,#166,#167);
#144=AXIS2_PLACEMENT_3D('',#269,#168,#169);
#145=AXIS2_PLACEMENT_3D('',#271,#170,#171);
#146=AXIS2_PLACEMENT_3D('',#272,#172,#173);
#147=AXIS2_PLACEMENT_3D('',#273,#174,#175);
#148=AXIS2_PLACEMENT_3D('',#275,#176,#177);
#149=AXIS2_PLACEMENT_3D('',#276,#178,#179);
#150=AXIS2_PLACEMENT_3D('',#278,#180,#181);
#151=AXIS2_PLACEMENT_3D('',#280,#182,#183);
#152=AXIS2_PLACEMENT_3D('',#281,#184,#185);
#153=AXIS2_PLACEMENT_3D('',#282,#186,#187);
#154=DIRECTION('',(0.0,0.0,1.0));
#155=DIRECTION('',(1.0,0.0,0.0));
#156=DIRECTION('',(0.0,0.0,1.0));
#157=DIRECTION('',(1.0,0.0,0.0));
#158=DIRECTION('',(0.0,0.0,1.0));
#159=DIRECTION('',(1.0,0.0,0.0));
#160=DIRECTION('',(0.0,0.0,-1.0));
#161=DIRECTION('',(-0.882015164970351,-0.471221019015837,0.0));
#162=DIRECTION('',(0.0,0.0,1.0));
#163=DIRECTION('',(-0.707106781186548,-0.707106781186548,0.0));
#164=DIRECTION('',(0.0,0.0,-1.0));
#165=DIRECTION('',(0.707106781186548,0.707106781186547,0.0));
#166=DIRECTION('',(0.0,0.0,1.0));
#167=DIRECTION('',(-0.707106781186548,-0.707106781186548,0.0));
#168=DIRECTION('',(0.0,0.0,1.0));
#169=DIRECTION('',(-0.707106781186548,-0.707106781186547,0.0));
#170=DIRECTION('',(0.0,0.0,1.0));
#171=DIRECTION('',(-0.707106781186548,-0.707106781186547,0.0));
#172=DIRECTION('',(0.0,0.0,1.0));
#173=DIRECTION('',(-0.707106781186548,-0.707106781186547,-3.35836406583892E-17));
#174=DIRECTION('',(0.0,0.0,-1.0));
#175=DIRECTION('',(0.707106781186548,0.707106781186548,0.0));
#176=DIRECTION('',(0.0,0.0,1.0));
#177=DIRECTION('',(-0.707106781186548,-0.707106781186547,-4.75743674970452E-17));
#178=DIRECTION('',(0.0,0.0,1.0));
#179=DIRECTION('',(0.707106781186548,0.707106781186547,0.0));
#180=DIRECTION('',(0.0,0.0,-1.0));
#181=DIRECTION('',(-0.707106781186548,-0.707106781186548,0.0));
#182=DIRECTION('',(0.0,0.0,1.0));
#183=DIRECTION('',(-0.707106781186548,-0.707106781186547,0.0));
#184=DIRECTION('',(0.0,0.0,1.0));
#185=DIRECTION('',(-0.707106781186548,-0.707106781186548,0.0));
#186=DIRECTION('',(0.0,0.0,-1.0));
#187=DIRECTION('',(0.707106781186548,0.707106781186548,0.0));
#188=CARTESIAN_POINT('',(0.0,0.0,0.0));
#191=CARTESIAN_POINT('',(1.37365631146672,2.38262824615489,0.0));
#192=CARTESIAN_POINT('',(1.02590904431313,2.86500695889458,0.0));
#193=CARTESIAN_POINT('',(0.738515920076839,3.35203652800599,0.0));
#194=CARTESIAN_POINT('',(0.493435751765667,3.86167200568905,0.0));
#195=CARTESIAN_POINT('',(0.285772558005014,4.4188913362062,0.0));
#196=CARTESIAN_POINT('',(0.128307184971243,5.0071851738088,0.0));
#197=CARTESIAN_POINT('',(0.0257512984502206,5.62448247373737,0.0));
#198=CARTESIAN_POINT('',(-0.0156702219847453,6.26165196901506,0.0));
#199=CARTESIAN_POINT('',(0.00794334777594585,6.91005094082914,0.0));
#200=CARTESIAN_POINT('',(0.0989309715549567,7.55948382515632,0.0));
#201=CARTESIAN_POINT('',(0.257434677670344,8.19948510679484,0.0));
#202=CARTESIAN_POINT('',(0.481456436128581,8.81959744910806,0.0));
#203=CARTESIAN_POINT('',(0.766843856554974,9.41001750227998,0.0));
#204=CARTESIAN_POINT('',(1.10766108254996,9.9621247797134,0.0));
#205=CARTESIAN_POINT('',(1.49629612534474,10.4687444709705,0.0));
#206=CARTESIAN_POINT('',(1.92470201482563,10.9248607502726,0.0));
#207=CARTESIAN_POINT('',(2.38262824621233,11.3263436885685,0.0));
#208=CARTESIAN_POINT('',(2.86500695906733,11.6740909557907,0.0));
#209=CARTESIAN_POINT('',(3.35203652796768,11.9614840798974,0.0));
#210=CARTESIAN_POINT('',(3.86167200570547,12.2065642482448,0.0));
#211=CARTESIAN_POINT('',(4.41889133620065,12.4142274419914,0.0));
#212=CARTESIAN_POINT('',(5.00718517381061,12.5716928150299,0.0));
#213=CARTESIAN_POINT('',(5.62448247373676,12.6742487015494,0.0));
#214=CARTESIAN_POINT('',(6.2616519690153,12.7156702219848,0.0));
#215=CARTESIAN_POINT('',(6.91005094082899,12.6920566522241,0.0));
#216=CARTESIAN_POINT('',(7.5594838251565,12.6010690284448,0.0));
#217=CARTESIAN_POINT('',(8.19948510679452,12.4425653223301,0.0));
#218=CARTESIAN_POINT('',(8.81959744910876,12.2185435638703,0.0));
#219=CARTESIAN_POINT('',(9.41001750227826,11.9331561434478,0.0));
#220=CARTESIAN_POINT('',(9.96212477971807,11.5923389174424,0.0));
#221=CARTESIAN_POINT('',(10.4687444709569,11.2037038746774,0.0));
#222=CARTESIAN_POINT('',(10.924860750313,10.7752979851082,0.0));
#223=CARTESIAN_POINT('',(11.3263436884857,10.3173717539223,0.0));
#224=CARTESIAN_POINT('',(11.6740909556514,9.83499304116681,0.0));
#225=CARTESIAN_POINT('',(11.9614840799537,9.34796347193964,0.0));
#226=CARTESIAN_POINT('',(12.2065642482258,8.83832799432501,0.0));
#227=CARTESIAN_POINT('',(12.4142274419977,8.28110866378922,0.0));
#228=CARTESIAN_POINT('',(12.5716928150278,7.69281482619263,0.0));
#229=CARTESIAN_POINT('',(12.6742487015501,7.07551752626215,0.0));
#230=CARTESIAN_POINT('',(12.7156702219846,6.43834803098505,0.0));
#231=CARTESIAN_POINT('',(12.6920566522241,5.78994905917081,0.0));
#232=CARTESIAN_POINT('',(12.6010690284449,5.14051617484361,0.0));
#233=CARTESIAN_POINT('',(12.4425653223299,4.50051489320527,0.0));
#234=CARTESIAN_POINT('',(12.2185435638709,3.88040255089158,0.0));
#235=CARTESIAN_POINT('',(11.9331561434464,3.28998249772082,0.0));
#236=CARTESIAN_POINT('',(11.5923389174463,2.73787522028431,0.0));
#237=CARTESIAN_POINT('',(11.2037038746661,2.2312555290361,0.0));
#238=CARTESIAN_POINT('',(10.77529798514,1.77513924970641,0.0));
#239=CARTESIAN_POINT('',(10.3173717539449,1.37365631152729,0.0));
#240=CARTESIAN_POINT('',(9.83499304103198,1.02590904426855,0.0));
#241=CARTESIAN_POINT('',(9.34796347201409,0.738515920089656,0.0));
#242=CARTESIAN_POINT('',(8.8383279942947,0.4934357517568,0.0));
#243=CARTESIAN_POINT('',(8.28110866379942,0.285772558008082,0.0));
#244=CARTESIAN_POINT('',(7.69281482618933,0.128307184970232,0.0));
#245=CARTESIAN_POINT('',(7.07551752626324,0.0257512984505688,0.0));
#246=CARTESIAN_POINT('',(6.4383480309847,-0.0156702219848874,0.0));
#247=CARTESIAN_POINT('',(5.7899490591709,0.00794334777601868,0.0));
#248=CARTESIAN_POINT('',(5.14051617484366,0.0989309715548767,0.0));
#249=CARTESIAN_POINT('',(4.50051489320507,0.257434677670481,0.0));
#250=CARTESIAN_POINT('',(3.88040255089209,0.481456436128265,0.0));
#251=CARTESIAN_POINT('',(3.28998249771954,0.766843856555739,0.0));
#252=CARTESIAN_POINT('',(2.73787522028781,1.10766108254788,0.0));
#253=CARTESIAN_POINT('',(2.2312555290259,1.4962961253507,0.0));
#254=CARTESIAN_POINT('',(1.77513924973677,1.92470201481002,0.0));
#255=CARTESIAN_POINT('',(1.37365631146672,2.38262824615489,0.0));
#256=CARTESIAN_POINT('',(1.02590904431313,2.86500695889458,0.0));
#257=CARTESIAN_POINT('',(0.738515920076839,3.35203652800599,0.0));
#258=CARTESIAN_POINT('',(0.493435751765667,3.86167200568905,0.0));
#259=CARTESIAN_POINT('',(0.285772558005014,4.4188913362062,0.0));
#260=CARTESIAN_POINT('',(0.0,0.0,0.0));
#261=CARTESIAN_POINT('',(6.35,6.35,0.0));
#262=CARTESIAN_POINT('',(6.34999999999999,6.34999999999999,4.26685108753951E-15));
#263=CARTESIAN_POINT('',(0.749203702438264,3.35774652924942,4.26685108753951E-15));
#264=CARTESIAN_POINT('',(6.35,6.35,-3.46944695195361E-15));
#265=CARTESIAN_POINT('',(4.17873947629923,4.17873947629923,-3.46944695195361E-15));
#266=CARTESIAN_POINT('',(6.34999999999999,6.34999999999999,4.26685108753951E-15));
#267=CARTESIAN_POINT('',(6.35,6.35,-4.7625));
#268=CARTESIAN_POINT('',(4.7943650813896,4.79436508138959,-4.7625));
#269=CARTESIAN_POINT('',(6.34999999999999,6.34999999999999,-4.7625));
#270=CARTESIAN_POINT('',(2.27336074119833,2.27336074119833,-4.7625));
#271=CARTESIAN_POINT('',(6.35,5.81966991411009,-4.7625));
#272=CARTESIAN_POINT('',(6.34999999999999,6.34999999999999,4.33680868994202E-15));
#273=CARTESIAN_POINT('',(6.35,6.35,-0.867554494186143));
#274=CARTESIAN_POINT('',(8.47836366456804,8.47836366456804,-0.867554494186143));
#275=CARTESIAN_POINT('',(6.35,6.35,-1.01000000000517));
#276=CARTESIAN_POINT('',(6.35,6.35,-1.11904556205543));
#277=CARTESIAN_POINT('',(8.41549268238612,8.41549268238612,-1.11904556205543));
#278=CARTESIAN_POINT('',(6.35,6.35,-3.41));
#279=CARTESIAN_POINT('',(4.7943650813896,4.79436508138959,-3.41));
#280=CARTESIAN_POINT('',(6.35,6.35,-3.41));
#281=CARTESIAN_POINT('',(6.35,6.35,-29.1328042564319));
#282=CARTESIAN_POINT('',(6.35,6.35,-0.832676257312361));
#283=MECHANICAL_DESIGN_GEOMETRIC_PRESENTATION_REPRESENTATION('',(#121,#122,#123,
     #124),#284);
#284=(GEOMETRIC_REPRESENTATION_CONTEXT(3)GLOBAL_UNCERTAINTY_ASSIGNED_CONTEXT((#285))
     GLOBAL_UNIT_ASSIGNED_CONTEXT((#291,#287,#286))REPRESENTATION_CONTEXT('RCMT120400',
     'TOP_LEVEL_ASSEMBLY_PART'));
#285=UNCERTAINTY_MEASURE_WITH_UNIT(LENGTH_MEASURE(2.0E-5),#291,'DISTANCE_ACCURACY_VALUE',
     'Maximum Tolerance applied to model');
#286=(NAMED_UNIT(*)SI_UNIT($,.STERADIAN.)SOLID_ANGLE_UNIT());
#287=(CONVERSION_BASED_UNIT('DEGREE',#289)NAMED_UNIT(#288)PLANE_ANGLE_UNIT());
#288=DIMENSIONAL_EXPONENTS(0.0,0.0,0.0,0.0,0.0,0.0,0.0);
#289=PLANE_ANGLE_MEASURE_WITH_UNIT(PLANE_ANGLE_MEASURE(0.0174532925),#290);
#290=(NAMED_UNIT(*)PLANE_ANGLE_UNIT()SI_UNIT($,.RADIAN.));
#291=(LENGTH_UNIT()NAMED_UNIT(*)SI_UNIT(.MILLI.,.METRE.));
#292=CONSTRUCTIVE_GEOMETRY_REPRESENTATION('supplemental geometry',(#138,#139),#284);
#293=CONSTRUCTIVE_GEOMETRY_REPRESENTATION_RELATIONSHIP('supplemental geometry','contains PCS and MCS coordinate systems',
     #24,#292);
ENDSEC;
END-ISO-10303-21;
