ISO-10303-21;
HEADER;
FILE_DESCRIPTION(
/* description */ (''),
/* implementation_level */ '2;1');
FILE_NAME(
/* name */ 'TCGT16T304.stp',
/* time_stamp */ '2017-03-21T10:54:34',
/* author */ ('Sandvik Coromant R&D'),
/* organization */ ('Sandvik Machining Solutions'),
/* preprocessor_version */ 'ST-DEVELOPER v15',
/* originating_system */ 'SIEMENS PLM Software NX v8.5.3.3(64 bits)',
/* authorization */ '');
FILE_SCHEMA(('AUTOMOTIVE_DESIGN'));
ENDSEC;
DATA;
#10=GEOMETRICALLY_BOUNDED_WIREFRAME_SHAPE_REPRESENTATION('IsoTurningInsert-None',
     (#25),#406);
#11=SHAPE_REPRESENTATION_RELATIONSHIP('None','relationship between IsoTurningInsert-None and IsoTurningInsert-None',
     #24,#13);
#12=SHAPE_REPRESENTATION_RELATIONSHIP('None','relationship between IsoTurningInsert-None and IsoTurningInsert-None',
     #24,#10);
#13=ADVANCED_BREP_SHAPE_REPRESENTATION('IsoTurningInsert-None',(#31),#406);
#14=SHAPE_DEFINITION_REPRESENTATION(#15,#24);
#15=PRODUCT_DEFINITION_SHAPE('','',#16);
#16=PRODUCT_DEFINITION(' ','',#18,#17);
#17=PRODUCT_DEFINITION_CONTEXT('part definition',#23,'design');
#18=PRODUCT_DEFINITION_FORMATION_WITH_SPECIFIED_SOURCE(' ',' ',#20,.NOT_KNOWN.);
#19=PRODUCT_RELATED_PRODUCT_CATEGORY('part','',(#20));
#20=PRODUCT('IsoTurningInsert','IsoTurningInsert',' ',(#21));
#21=PRODUCT_CONTEXT(' ',#23,'mechanical');
#22=APPLICATION_PROTOCOL_DEFINITION('international standard','automotive_design',
     2010,#23);
#23=APPLICATION_CONTEXT('core data for automotive mechanical design processes');
#24=SHAPE_REPRESENTATION('IsoTurningInsert-None',(#245),#406);
#25=GEOMETRIC_CURVE_SET('geometric curve set',(#224));
#26=SURFACE_STYLE_USAGE(.BOTH.,#27);
#27=SURFACE_SIDE_STYLE('',(#28));
#28=SURFACE_STYLE_FILL_AREA(#29);
#29=FILL_AREA_STYLE('',(#30));
#30=FILL_AREA_STYLE_COLOUR('',#244);
#31=MANIFOLD_SOLID_BREP('CUT',#32);
#32=CLOSED_SHELL('',(#46,#47,#48,#49,#50,#51,#52,#53,#54,#55,#56,#57));
#33=CYLINDRICAL_SURFACE('',#266,2.2);
#34=TOROIDAL_SURFACE('',#265,6.2,4.0);
#35=TOROIDAL_SURFACE('',#267,2.70678285826053,0.3);
#36=CONICAL_SURFACE('',#258,0.396874999999997,7.0);
#37=CONICAL_SURFACE('',#259,0.396874999999997,7.0);
#38=CONICAL_SURFACE('',#260,0.396874999999997,7.0);
#39=CONICAL_SURFACE('',#262,2.99999999999613,4.0000000002223);
#40=FACE_OUTER_BOUND('',#107,.T.);
#41=FACE_OUTER_BOUND('',#108,.T.);
#42=FACE_OUTER_BOUND('',#109,.T.);
#43=FACE_OUTER_BOUND('',#112,.T.);
#44=FACE_OUTER_BOUND('',#113,.T.);
#45=FACE_OUTER_BOUND('',#114,.T.);
#46=ADVANCED_FACE('',(#93,#94),#58,.F.);
#47=ADVANCED_FACE('',(#40),#59,.F.);
#48=ADVANCED_FACE('',(#41),#60,.F.);
#49=ADVANCED_FACE('',(#42),#61,.F.);
#50=ADVANCED_FACE('',(#95,#96),#62,.T.);
#51=ADVANCED_FACE('',(#43),#36,.T.);
#52=ADVANCED_FACE('',(#44),#37,.T.);
#53=ADVANCED_FACE('',(#45),#38,.T.);
#54=ADVANCED_FACE('',(#97,#98),#39,.F.);
#55=ADVANCED_FACE('',(#99,#100),#34,.T.);
#56=ADVANCED_FACE('',(#101,#102),#33,.F.);
#57=ADVANCED_FACE('',(#103,#104),#35,.F.);
#58=PLANE('',#249);
#59=PLANE('',#250);
#60=PLANE('',#251);
#61=PLANE('',#252);
#62=PLANE('',#257);
#63=LINE('',#355,#78);
#64=LINE('',#358,#79);
#65=LINE('',#360,#80);
#66=LINE('',#362,#81);
#67=LINE('',#364,#82);
#68=LINE('',#366,#83);
#69=LINE('',#368,#84);
#70=LINE('',#370,#85);
#71=LINE('',#372,#86);
#72=LINE('',#374,#87);
#73=LINE('',#376,#88);
#74=LINE('',#378,#89);
#75=LINE('',#380,#90);
#76=LINE('',#383,#91);
#77=LINE('',#384,#92);
#78=VECTOR('',#276,1.0);
#79=VECTOR('',#277,1.0);
#80=VECTOR('',#278,1.0);
#81=VECTOR('',#281,1.0);
#82=VECTOR('',#282,1.0);
#83=VECTOR('',#283,1.0);
#84=VECTOR('',#284,1.0);
#85=VECTOR('',#285,1.0);
#86=VECTOR('',#288,1.0);
#87=VECTOR('',#289,1.0);
#88=VECTOR('',#290,1.0);
#89=VECTOR('',#291,1.0);
#90=VECTOR('',#294,1.0);
#91=VECTOR('',#295,1.0);
#92=VECTOR('',#296,1.0);
#93=FACE_BOUND('',#105,.T.);
#94=FACE_BOUND('',#106,.T.);
#95=FACE_BOUND('',#110,.T.);
#96=FACE_BOUND('',#111,.T.);
#97=FACE_BOUND('',#115,.T.);
#98=FACE_BOUND('',#116,.T.);
#99=FACE_BOUND('',#117,.T.);
#100=FACE_BOUND('',#118,.T.);
#101=FACE_BOUND('',#119,.T.);
#102=FACE_BOUND('',#120,.T.);
#103=FACE_BOUND('',#121,.T.);
#104=FACE_BOUND('',#122,.T.);
#105=EDGE_LOOP('',(#123));
#106=EDGE_LOOP('',(#124,#125,#126));
#107=EDGE_LOOP('',(#127,#128,#129,#130,#131,#132));
#108=EDGE_LOOP('',(#133,#134,#135,#136,#137,#138));
#109=EDGE_LOOP('',(#139,#140,#141,#142,#143,#144));
#110=EDGE_LOOP('',(#145));
#111=EDGE_LOOP('',(#146,#147,#148,#149,#150,#151));
#112=EDGE_LOOP('',(#152,#153,#154));
#113=EDGE_LOOP('',(#155,#156,#157));
#114=EDGE_LOOP('',(#158,#159,#160));
#115=EDGE_LOOP('',(#161));
#116=EDGE_LOOP('',(#162));
#117=EDGE_LOOP('',(#163));
#118=EDGE_LOOP('',(#164));
#119=EDGE_LOOP('',(#165));
#120=EDGE_LOOP('',(#166));
#121=EDGE_LOOP('',(#167));
#122=EDGE_LOOP('',(#168));
#123=ORIENTED_EDGE('',*,*,#186,.T.);
#124=ORIENTED_EDGE('',*,*,#187,.T.);
#125=ORIENTED_EDGE('',*,*,#188,.T.);
#126=ORIENTED_EDGE('',*,*,#189,.T.);
#127=ORIENTED_EDGE('',*,*,#189,.F.);
#128=ORIENTED_EDGE('',*,*,#190,.T.);
#129=ORIENTED_EDGE('',*,*,#191,.T.);
#130=ORIENTED_EDGE('',*,*,#192,.F.);
#131=ORIENTED_EDGE('',*,*,#193,.T.);
#132=ORIENTED_EDGE('',*,*,#194,.F.);
#133=ORIENTED_EDGE('',*,*,#188,.F.);
#134=ORIENTED_EDGE('',*,*,#195,.T.);
#135=ORIENTED_EDGE('',*,*,#196,.T.);
#136=ORIENTED_EDGE('',*,*,#197,.F.);
#137=ORIENTED_EDGE('',*,*,#198,.T.);
#138=ORIENTED_EDGE('',*,*,#190,.F.);
#139=ORIENTED_EDGE('',*,*,#199,.F.);
#140=ORIENTED_EDGE('',*,*,#200,.T.);
#141=ORIENTED_EDGE('',*,*,#195,.F.);
#142=ORIENTED_EDGE('',*,*,#187,.F.);
#143=ORIENTED_EDGE('',*,*,#194,.T.);
#144=ORIENTED_EDGE('',*,*,#201,.T.);
#145=ORIENTED_EDGE('',*,*,#202,.F.);
#146=ORIENTED_EDGE('',*,*,#197,.T.);
#147=ORIENTED_EDGE('',*,*,#203,.T.);
#148=ORIENTED_EDGE('',*,*,#199,.T.);
#149=ORIENTED_EDGE('',*,*,#204,.T.);
#150=ORIENTED_EDGE('',*,*,#192,.T.);
#151=ORIENTED_EDGE('',*,*,#205,.T.);
#152=ORIENTED_EDGE('',*,*,#196,.F.);
#153=ORIENTED_EDGE('',*,*,#200,.F.);
#154=ORIENTED_EDGE('',*,*,#203,.F.);
#155=ORIENTED_EDGE('',*,*,#191,.F.);
#156=ORIENTED_EDGE('',*,*,#198,.F.);
#157=ORIENTED_EDGE('',*,*,#205,.F.);
#158=ORIENTED_EDGE('',*,*,#201,.F.);
#159=ORIENTED_EDGE('',*,*,#193,.F.);
#160=ORIENTED_EDGE('',*,*,#204,.F.);
#161=ORIENTED_EDGE('',*,*,#206,.T.);
#162=ORIENTED_EDGE('',*,*,#202,.T.);
#163=ORIENTED_EDGE('',*,*,#207,.T.);
#164=ORIENTED_EDGE('',*,*,#208,.T.);
#165=ORIENTED_EDGE('',*,*,#208,.F.);
#166=ORIENTED_EDGE('',*,*,#186,.F.);
#167=ORIENTED_EDGE('',*,*,#207,.F.);
#168=ORIENTED_EDGE('',*,*,#206,.F.);
#169=VERTEX_POINT('',#354);
#170=VERTEX_POINT('',#356);
#171=VERTEX_POINT('',#357);
#172=VERTEX_POINT('',#359);
#173=VERTEX_POINT('',#363);
#174=VERTEX_POINT('',#365);
#175=VERTEX_POINT('',#367);
#176=VERTEX_POINT('',#369);
#177=VERTEX_POINT('',#373);
#178=VERTEX_POINT('',#375);
#179=VERTEX_POINT('',#377);
#180=VERTEX_POINT('',#381);
#181=VERTEX_POINT('',#382);
#182=VERTEX_POINT('',#387);
#183=VERTEX_POINT('',#396);
#184=VERTEX_POINT('',#399);
#185=VERTEX_POINT('',#401);
#186=EDGE_CURVE('',#169,#169,#209,.T.);
#187=EDGE_CURVE('',#170,#171,#63,.T.);
#188=EDGE_CURVE('',#171,#172,#64,.T.);
#189=EDGE_CURVE('',#172,#170,#65,.T.);
#190=EDGE_CURVE('INSERT_CORNER_EDGE1',#172,#173,#66,.T.);
#191=EDGE_CURVE('',#173,#174,#67,.T.);
#192=EDGE_CURVE('',#175,#174,#68,.T.);
#193=EDGE_CURVE('',#175,#176,#69,.T.);
#194=EDGE_CURVE('INSERT_CORNER_EDGE3',#170,#176,#70,.T.);
#195=EDGE_CURVE('INSERT_CORNER_EDGE2',#171,#177,#71,.T.);
#196=EDGE_CURVE('',#177,#178,#72,.T.);
#197=EDGE_CURVE('',#179,#178,#73,.T.);
#198=EDGE_CURVE('',#179,#173,#74,.T.);
#199=EDGE_CURVE('',#180,#181,#75,.T.);
#200=EDGE_CURVE('',#180,#177,#76,.T.);
#201=EDGE_CURVE('',#176,#181,#77,.T.);
#202=EDGE_CURVE('',#182,#182,#210,.T.);
#203=EDGE_CURVE('',#178,#180,#211,.T.);
#204=EDGE_CURVE('',#181,#175,#212,.T.);
#205=EDGE_CURVE('',#174,#179,#213,.T.);
#206=EDGE_CURVE('',#183,#183,#214,.T.);
#207=EDGE_CURVE('',#184,#184,#215,.T.);
#208=EDGE_CURVE('',#185,#185,#216,.T.);
#209=CIRCLE('',#248,2.2);
#210=CIRCLE('',#253,3.06293413074916);
#211=CIRCLE('',#254,0.396874999999997);
#212=CIRCLE('',#255,0.396874999999997);
#213=CIRCLE('',#256,0.396874999999997);
#214=CIRCLE('',#261,3.00605207333839);
#215=CIRCLE('',#263,2.95049568210282);
#216=CIRCLE('',#264,2.2);
#217=CURVE_STYLE('',#221,POSITIVE_LENGTH_MEASURE(0.18),#220);
#218=CURVE_STYLE('',#222,POSITIVE_LENGTH_MEASURE(0.18),#243);
#219=CURVE_STYLE('',#223,POSITIVE_LENGTH_MEASURE(0.18),#243);
#220=DRAUGHTING_PRE_DEFINED_COLOUR('blue');
#221=DRAUGHTING_PRE_DEFINED_CURVE_FONT('continuous');
#222=DRAUGHTING_PRE_DEFINED_CURVE_FONT('continuous');
#223=DRAUGHTING_PRE_DEFINED_CURVE_FONT('continuous');
#224=TRIMMED_CURVE('CUTTING EDGE LINE',#225,(PARAMETER_VALUE(0.0)),(PARAMETER_VALUE(
     1.0)),.T.,.PARAMETER.);
#225=(BOUNDED_CURVE()B_SPLINE_CURVE(3,(#332,#333,#334,#335,#336,#337,#338,#339,#340,
     #341,#342,#343,#344,#345,#346,#347,#348,#349,#350),.UNSPECIFIED.,.T.,.F.)
     B_SPLINE_CURVE_WITH_KNOTS((1,3,3,3,3,3,3,3,1),(-0.01736667066162,0.0,0.315966662671713,
     0.333333333333333,0.649299996005047,0.666666666666667,0.98263332933838,1.0,
     1.31596666267171),.UNSPECIFIED.)CURVE()GEOMETRIC_REPRESENTATION_ITEM()
     RATIONAL_B_SPLINE_CURVE((0.666666666666667,0.666666666666667,0.666666666666667,
     0.666666666666667,0.444444444444444,0.444444444444444,0.666666666666667,0.666666666666667,
     0.666666666666667,0.666666666666667,0.444444444444444,0.444444444444444,0.666666666666667,
     0.666666666666667,0.666666666666667,0.666666666666667,0.444444444444444,0.444444444444444,
     0.666666666666667))REPRESENTATION_ITEM('CUTTING EDGE LINE'));
#226=PRESENTATION_LAYER_ASSIGNMENT('1','Layer 1',(#224,#246,#247,#31));
#229=STYLED_ITEM('',(#235),#224);
#230=STYLED_ITEM('',(#236),#246);
#231=STYLED_ITEM('',(#237),#247);
#232=STYLED_ITEM('',(#238),#31);
#233=PRESENTATION_STYLE_ASSIGNMENT((#239));
#234=PRESENTATION_STYLE_ASSIGNMENT((#240));
#235=PRESENTATION_STYLE_ASSIGNMENT((#217));
#236=PRESENTATION_STYLE_ASSIGNMENT((#218));
#237=PRESENTATION_STYLE_ASSIGNMENT((#219));
#238=PRESENTATION_STYLE_ASSIGNMENT((#26));
#239=POINT_STYLE('',#241,POSITIVE_LENGTH_MEASURE(3.0),#243);
#240=POINT_STYLE('',#242,POSITIVE_LENGTH_MEASURE(3.0),#243);
#241=PRE_DEFINED_POINT_MARKER_SYMBOL('plus');
#242=PRE_DEFINED_POINT_MARKER_SYMBOL('plus');
#243=COLOUR_RGB('Medium Maroon',0.6,0.4,0.4);
#244=COLOUR_RGB('IsoInsertColor',0.8,0.8,0.8);
#245=AXIS2_PLACEMENT_3D('',#329,#268,#269);
#246=AXIS2_PLACEMENT_3D('PCS',#351,#270,#271);
#247=AXIS2_PLACEMENT_3D('MCS',#352,#272,#273);
#248=AXIS2_PLACEMENT_3D('',#353,#274,#275);
#249=AXIS2_PLACEMENT_3D('',#361,#279,#280);
#250=AXIS2_PLACEMENT_3D('',#371,#286,#287);
#251=AXIS2_PLACEMENT_3D('',#379,#292,#293);
#252=AXIS2_PLACEMENT_3D('',#385,#297,#298);
#253=AXIS2_PLACEMENT_3D('',#386,#299,#300);
#254=AXIS2_PLACEMENT_3D('',#388,#301,#302);
#255=AXIS2_PLACEMENT_3D('',#389,#303,#304);
#256=AXIS2_PLACEMENT_3D('',#390,#305,#306);
#257=AXIS2_PLACEMENT_3D('',#391,#307,#308);
#258=AXIS2_PLACEMENT_3D('',#392,#309,#310);
#259=AXIS2_PLACEMENT_3D('',#393,#311,#312);
#260=AXIS2_PLACEMENT_3D('',#394,#313,#314);
#261=AXIS2_PLACEMENT_3D('',#395,#315,#316);
#262=AXIS2_PLACEMENT_3D('',#397,#317,#318);
#263=AXIS2_PLACEMENT_3D('',#398,#319,#320);
#264=AXIS2_PLACEMENT_3D('',#400,#321,#322);
#265=AXIS2_PLACEMENT_3D('',#402,#323,#324);
#266=AXIS2_PLACEMENT_3D('',#403,#325,#326);
#267=AXIS2_PLACEMENT_3D('',#404,#327,#328);
#268=DIRECTION('',(0.0,0.0,1.0));
#269=DIRECTION('',(1.0,0.0,0.0));
#270=DIRECTION('',(0.0,0.0,1.0));
#271=DIRECTION('',(1.0,0.0,0.0));
#272=DIRECTION('',(0.0,0.0,1.0));
#273=DIRECTION('',(1.0,0.0,0.0));
#274=DIRECTION('',(0.0,0.0,1.0));
#275=DIRECTION('',(-0.866025403784438,-0.5,0.0));
#276=DIRECTION('',(0.500000000000001,-0.866025403784438,0.0));
#277=DIRECTION('',(-1.0,-1.4432899320127E-15,0.0));
#278=DIRECTION('',(0.500000000000001,0.866025403784438,0.0));
#279=DIRECTION('',(0.0,0.0,1.0));
#280=DIRECTION('',(-0.866025403784439,-0.5,0.0));
#281=DIRECTION('',(-0.206532855354804,-0.119241799635598,0.971146524927446));
#282=DIRECTION('',(-0.105541947331387,0.0609346717025741,0.992546151641322));
#283=DIRECTION('',(-0.500000000000001,-0.866025403784438,2.19604848673225E-16));
#284=DIRECTION('',(0.105541947331387,-0.0609346717025741,-0.992546151641322));
#285=DIRECTION('',(-9.71445146547012E-17,0.238483599271196,0.971146524927447));
#286=DIRECTION('',(0.859570181749866,-0.496273075820662,0.121869343405148));
#287=DIRECTION('',(0.500000000000001,0.866025403784438,0.0));
#288=DIRECTION('',(0.206532855354804,-0.119241799635598,0.971146524927447));
#289=DIRECTION('',(4.16333634234434E-17,-0.121869343405147,0.992546151641322));
#290=DIRECTION('',(1.0,1.4432899320127E-15,1.31762909203935E-16));
#291=DIRECTION('',(-4.16333634234434E-17,0.121869343405147,-0.992546151641322));
#292=DIRECTION('',(-1.38777878078145E-15,0.992546151641322,0.121869343405147));
#293=DIRECTION('',(-1.0,-1.4432899320127E-15,0.0));
#294=DIRECTION('',(-0.500000000000001,0.866025403784438,-3.56664995199752E-16));
#295=DIRECTION('',(-0.105541947331387,-0.0609346717025741,-0.992546151641322));
#296=DIRECTION('',(0.105541947331387,0.0609346717025741,0.992546151641322));
#297=DIRECTION('',(-0.859570181749866,-0.496273075820662,0.121869343405147));
#298=DIRECTION('',(-0.105541947331387,-0.0609346717025738,-0.992546151641322));
#299=DIRECTION('',(0.0,0.0,1.0));
#300=DIRECTION('',(-0.866025403784439,-0.5,0.0));
#301=DIRECTION('',(-1.33749373199907E-16,3.34621025357277E-16,1.0));
#302=DIRECTION('',(-0.500000000000001,0.866025403784439,-3.56664995199752E-16));
#303=DIRECTION('',(-1.33749373199907E-16,3.34621025357277E-16,1.0));
#304=DIRECTION('',(-0.500000000000001,0.866025403784437,-3.56664995199753E-16));
#305=DIRECTION('',(-1.33749373199907E-16,3.34621025357277E-16,1.0));
#306=DIRECTION('',(-0.5,0.866025403784439,-3.56664995199753E-16));
#307=DIRECTION('',(-1.33749373199907E-16,3.34621025357277E-16,1.0));
#308=DIRECTION('',(-0.5,0.866025403784439,-3.56664995199752E-16));
#309=DIRECTION('',(-1.33749373199907E-16,3.34621025357277E-16,1.0));
#310=DIRECTION('',(-0.5,0.866025403784439,0.0));
#311=DIRECTION('',(-1.33749373199907E-16,3.34621025357277E-16,1.0));
#312=DIRECTION('',(-0.5,0.866025403784439,2.11240045619882E-17));
#313=DIRECTION('',(-1.33749373199907E-16,3.34621025357277E-16,1.0));
#314=DIRECTION('',(-0.5,0.866025403784439,4.92893439779724E-17));
#315=DIRECTION('',(0.0,0.0,-1.0));
#316=DIRECTION('',(0.866025403784438,0.5,0.0));
#317=DIRECTION('',(0.0,0.0,1.0));
#318=DIRECTION('',(-0.866025403784439,-0.5,6.66041144954763E-16));
#319=DIRECTION('',(0.0,0.0,1.0));
#320=DIRECTION('',(0.866025403784439,0.5,0.0));
#321=DIRECTION('',(0.0,0.0,-1.0));
#322=DIRECTION('',(-0.866025403784439,-0.5,0.0));
#323=DIRECTION('',(0.0,0.0,1.0));
#324=DIRECTION('',(-0.866025403784439,-0.5,0.0));
#325=DIRECTION('',(0.0,0.0,1.0));
#326=DIRECTION('',(-0.866025403784439,-0.5,0.0));
#327=DIRECTION('',(0.0,0.0,-1.0));
#328=DIRECTION('',(0.866025403784439,0.5,0.0));
#329=CARTESIAN_POINT('',(0.0,0.0,0.0));
#332=CARTESIAN_POINT('',(16.1540801099666,0.595312500000006,0.0));
#333=CARTESIAN_POINT('',(13.6335853410356,4.96093749999999,0.0));
#334=CARTESIAN_POINT('',(11.1130905721047,9.32656249999997,1.93755762463085E-15));
#335=CARTESIAN_POINT('',(8.59259580317372,13.6921875,-1.0215593802974E-17));
#336=CARTESIAN_POINT('',(8.42074388711025,13.98984375,-1.43018313241642E-16));
#337=CARTESIAN_POINT('',(8.0770400549833,13.98984375,-6.00166135924754E-17));
#338=CARTESIAN_POINT('',(7.90518813891983,13.6921875,-5.618576591636E-17));
#339=CARTESIAN_POINT('',(5.38469336998887,9.32656249999998,0.0));
#340=CARTESIAN_POINT('',(2.86419860105792,4.96093749999997,-3.55843184136941E-16));
#341=CARTESIAN_POINT('',(0.343703832126941,0.595312499999985,-5.61857659163598E-17));
#342=CARTESIAN_POINT('',(0.171851916063467,0.297656249999988,-3.57545783104111E-17));
#343=CARTESIAN_POINT('',(0.343703832126941,-1.09912079437891E-14,7.09287251547431E-17));
#344=CARTESIAN_POINT('',(0.687407664253887,-1.06581410364015E-14,6.6401359719334E-17));
#345=CARTESIAN_POINT('',(5.72839720211581,-3.33066907387547E-15,0.0));
#346=CARTESIAN_POINT('',(10.7693867399777,2.66453525910038E-14,-1.58171444049393E-15));
#347=CARTESIAN_POINT('',(15.8103762778396,1.06581410364015E-14,6.64013597193339E-17));
#348=CARTESIAN_POINT('',(16.1540801099666,8.99280649946377E-15,1.78772891552054E-16));
#349=CARTESIAN_POINT('',(16.3259320260301,0.297656250000004,1.02155938029746E-16));
#350=CARTESIAN_POINT('',(16.1540801099666,0.595312500000004,-2.04311876059477E-17));
#351=CARTESIAN_POINT('',(0.0,0.0,0.0));
#352=CARTESIAN_POINT('',(8.24889197104677,4.7625,0.0));
#353=CARTESIAN_POINT('',(8.24889197104677,4.7625,-3.96875));
#354=CARTESIAN_POINT('',(6.34363608272101,3.6625,-3.96875));
#355=CARTESIAN_POINT('',(11.9513227154866,6.90009938695829,-3.96875));
#356=CARTESIAN_POINT('',(8.24889197104677,13.3128975478332,-3.96875));
#357=CARTESIAN_POINT('',(15.6537534599265,0.487301226083411,-3.96875));
#358=CARTESIAN_POINT('',(6.32243199197522,0.487301226083398,-3.96875));
#359=CARTESIAN_POINT('',(0.844030482167057,0.48730122608339,-3.96875));
#360=CARTESIAN_POINT('',(3.58323123707115,5.23173610570828,-3.96875));
#361=CARTESIAN_POINT('',(8.11163244462761,4.25024047358083,-3.96875));
#362=CARTESIAN_POINT('',(0.269688523167935,0.155704741448351,-1.26811335483368));
#363=CARTESIAN_POINT('',(0.687407664253887,0.396874999999984,-3.23228748860238));
#364=CARTESIAN_POINT('',(0.343703832126945,0.595312499999985,-2.52045184022412E-15));
#365=CARTESIAN_POINT('',(0.343703832126945,0.595312499999985,-2.10913462620847E-15));
#366=CARTESIAN_POINT('',(4.1244459855234,7.14375,-3.79470760369927E-15));
#367=CARTESIAN_POINT('',(7.90518813891983,13.6921875,-5.48028058119006E-15));
#368=CARTESIAN_POINT('',(7.90518813891983,13.6921875,-6.10283084034539E-15));
#369=CARTESIAN_POINT('',(8.24889197104677,13.49375,-3.23228748860239));
#370=CARTESIAN_POINT('',(8.24889197104677,13.8812033112519,-1.65451049285176));
#371=CARTESIAN_POINT('',(3.16121599598761,5.47538671874999,-3.36526957920673E-15));
#372=CARTESIAN_POINT('',(16.0637459574028,0.250591947299752,-2.04090763086985));
#373=CARTESIAN_POINT('',(15.8103762778396,0.396875000000008,-3.23228748860241));
#374=CARTESIAN_POINT('',(15.8103762778396,1.04083408558608E-14,7.48769381476375E-17));
#375=CARTESIAN_POINT('',(15.8103762778396,1.04083408558608E-14,1.58727198051878E-16));
#376=CARTESIAN_POINT('',(8.24889197104678,0.0,-8.526165884426E-16));
#377=CARTESIAN_POINT('',(0.687407664253886,-1.04083408558608E-14,-1.86396037493708E-15));
#378=CARTESIAN_POINT('',(0.687407664253886,-1.04083408558608E-14,-1.61391630171045E-15));
#379=CARTESIAN_POINT('',(6.32243199197522,-2.60208521396521E-15,-1.11027940313813E-15));
#380=CARTESIAN_POINT('',(12.3733379565701,7.14375,-2.69142347297802E-15));
#381=CARTESIAN_POINT('',(16.1540801099666,0.595312500000005,5.49329100726111E-18));
#382=CARTESIAN_POINT('',(8.59259580317372,13.6921875,-5.3883402369633E-15));
#383=CARTESIAN_POINT('',(16.1540801099666,0.595312500000005,5.22308514012646E-17));
#384=CARTESIAN_POINT('',(8.59259580317372,13.6921875,-6.10345803733347E-15));
#385=CARTESIAN_POINT('',(12.3733379565702,7.14374999999999,-2.69142347297802E-15));
#386=CARTESIAN_POINT('',(8.24889197104677,4.7625,-6.93889390390723E-15));
#387=CARTESIAN_POINT('',(5.59631320369959,3.23103293462542,-6.93889390390723E-15));
#388=CARTESIAN_POINT('',(15.8103762778396,0.396875000000007,2.59244786132093E-17));
#389=CARTESIAN_POINT('',(8.24889197104677,13.49375,-5.36790904935735E-15));
#390=CARTESIAN_POINT('',(0.687407664253887,0.396874999999986,-1.99676309437575E-15));
#391=CARTESIAN_POINT('',(8.24889197104677,4.7625,-2.44624922170663E-15));
#392=CARTESIAN_POINT('',(15.8103762778396,0.396875000000007,0.0));
#393=CARTESIAN_POINT('',(0.687407664253887,0.396874999999986,-2.60208521396521E-15));
#394=CARTESIAN_POINT('',(8.24889197104677,13.49375,-6.07153216591882E-15));
#395=CARTESIAN_POINT('',(8.24889197104677,4.7625,-0.813451318981189));
#396=CARTESIAN_POINT('',(10.8522094316567,6.2655260366692,-0.813451318981189));
#397=CARTESIAN_POINT('',(8.24889197104677,4.7625,-0.900000000005168));
#398=CARTESIAN_POINT('',(8.24889197104677,4.7625,-0.967464536610964));
#399=CARTESIAN_POINT('',(10.8040961855041,6.23774784105141,-0.967464536610964));
#400=CARTESIAN_POINT('',(8.24889197104677,4.7625,-3.30000000000001));
#401=CARTESIAN_POINT('',(6.34363608272101,3.6625,-3.30000000000001));
#402=CARTESIAN_POINT('',(8.24889197104677,4.7625,-3.30000000000001));
#403=CARTESIAN_POINT('',(8.24889197104677,4.7625,-33.3676978394524));
#404=CARTESIAN_POINT('',(8.24889197104677,4.7625,-0.792524376856785));
#405=MECHANICAL_DESIGN_GEOMETRIC_PRESENTATION_REPRESENTATION('',(#229,#230,#231,
     #232),#406);
#406=(GEOMETRIC_REPRESENTATION_CONTEXT(3)GLOBAL_UNCERTAINTY_ASSIGNED_CONTEXT((#407))
     GLOBAL_UNIT_ASSIGNED_CONTEXT((#413,#409,#408))REPRESENTATION_CONTEXT('TCGT16T304',
     'TOP_LEVEL_ASSEMBLY_PART'));
#407=UNCERTAINTY_MEASURE_WITH_UNIT(LENGTH_MEASURE(2.0E-5),#413,'DISTANCE_ACCURACY_VALUE',
     'Maximum Tolerance applied to model');
#408=(NAMED_UNIT(*)SI_UNIT($,.STERADIAN.)SOLID_ANGLE_UNIT());
#409=(CONVERSION_BASED_UNIT('DEGREE',#411)NAMED_UNIT(#410)PLANE_ANGLE_UNIT());
#410=DIMENSIONAL_EXPONENTS(0.0,0.0,0.0,0.0,0.0,0.0,0.0);
#411=PLANE_ANGLE_MEASURE_WITH_UNIT(PLANE_ANGLE_MEASURE(0.0174532925),#412);
#412=(NAMED_UNIT(*)PLANE_ANGLE_UNIT()SI_UNIT($,.RADIAN.));
#413=(LENGTH_UNIT()NAMED_UNIT(*)SI_UNIT(.MILLI.,.METRE.));
#414=CONSTRUCTIVE_GEOMETRY_REPRESENTATION('supplemental geometry',(#246,#247),#406);
#415=CONSTRUCTIVE_GEOMETRY_REPRESENTATION_RELATIONSHIP('supplemental geometry','contains PCS and MCS coordinate systems',
     #24,#414);
ENDSEC;
END-ISO-10303-21;
