ISO-10303-21;
HEADER;
FILE_DESCRIPTION(
/* description */ (''),
/* implementation_level */ '2;1');
FILE_NAME(
/* name */ 'SCMT120408.stp',
/* time_stamp */ '2017-03-21T10:54:17',
/* author */ ('Sandvik Coromant R&D'),
/* organization */ ('Sandvik Machining Solutions'),
/* preprocessor_version */ 'ST-DEVELOPER v15',
/* originating_system */ 'SIEMENS PLM Software NX v8.5.3.3(64 bits)',
/* authorization */ '');
FILE_SCHEMA(('AUTOMOTIVE_DESIGN'));
ENDSEC;
DATA;
#10=GEOMETRICALLY_BOUNDED_WIREFRAME_SHAPE_REPRESENTATION('IsoTurningInsert-None',
     (#25),#519);
#11=SHAPE_REPRESENTATION_RELATIONSHIP('None','relationship between IsoTurningInsert-None and IsoTurningInsert-None',
     #24,#13);
#12=SHAPE_REPRESENTATION_RELATIONSHIP('None','relationship between IsoTurningInsert-None and IsoTurningInsert-None',
     #24,#10);
#13=ADVANCED_BREP_SHAPE_REPRESENTATION('IsoTurningInsert-None',(#31),#519);
#14=SHAPE_DEFINITION_REPRESENTATION(#15,#24);
#15=PRODUCT_DEFINITION_SHAPE('','',#16);
#16=PRODUCT_DEFINITION(' ','',#18,#17);
#17=PRODUCT_DEFINITION_CONTEXT('part definition',#23,'design');
#18=PRODUCT_DEFINITION_FORMATION_WITH_SPECIFIED_SOURCE(' ',' ',#20,.NOT_KNOWN.);
#19=PRODUCT_RELATED_PRODUCT_CATEGORY('part','',(#20));
#20=PRODUCT('IsoTurningInsert','IsoTurningInsert',' ',(#21));
#21=PRODUCT_CONTEXT(' ',#23,'mechanical');
#22=APPLICATION_PROTOCOL_DEFINITION('international standard','automotive_design',
     2010,#23);
#23=APPLICATION_CONTEXT('core data for automotive mechanical design processes');
#24=SHAPE_REPRESENTATION('IsoTurningInsert-None',(#281),#519);
#25=GEOMETRIC_CURVE_SET('geometric curve set',(#261));
#26=SURFACE_STYLE_USAGE(.BOTH.,#27);
#27=SURFACE_SIDE_STYLE('',(#28));
#28=SURFACE_STYLE_FILL_AREA(#29);
#29=FILL_AREA_STYLE('',(#30));
#30=FILL_AREA_STYLE_COLOUR('',#280);
#31=MANIFOLD_SOLID_BREP('CUT',#32);
#32=CLOSED_SHELL('',(#49,#50,#51,#52,#53,#54,#55,#56,#57,#58,#59,#60,#61,#62));
#33=CYLINDRICAL_SURFACE('',#309,2.75);
#34=TOROIDAL_SURFACE('',#308,7.74999999999999,5.0);
#35=TOROIDAL_SURFACE('',#310,3.45392842109238,0.3);
#36=CONICAL_SURFACE('',#300,0.793750000000001,7.0);
#37=CONICAL_SURFACE('',#301,0.793750000000001,7.0);
#38=CONICAL_SURFACE('',#302,0.793750000000001,7.0);
#39=CONICAL_SURFACE('',#303,0.793750000000001,7.0);
#40=CONICAL_SURFACE('',#305,3.74999999999569,2.30000000025909);
#41=FACE_OUTER_BOUND('',#115,.T.);
#42=FACE_OUTER_BOUND('',#116,.T.);
#43=FACE_OUTER_BOUND('',#117,.T.);
#44=FACE_OUTER_BOUND('',#118,.T.);
#45=FACE_OUTER_BOUND('',#121,.T.);
#46=FACE_OUTER_BOUND('',#122,.T.);
#47=FACE_OUTER_BOUND('',#123,.T.);
#48=FACE_OUTER_BOUND('',#124,.T.);
#49=ADVANCED_FACE('',(#101,#102),#63,.F.);
#50=ADVANCED_FACE('',(#41),#64,.F.);
#51=ADVANCED_FACE('',(#42),#65,.F.);
#52=ADVANCED_FACE('',(#43),#66,.F.);
#53=ADVANCED_FACE('',(#44),#67,.F.);
#54=ADVANCED_FACE('',(#103,#104),#68,.T.);
#55=ADVANCED_FACE('',(#45),#36,.T.);
#56=ADVANCED_FACE('',(#46),#37,.T.);
#57=ADVANCED_FACE('',(#47),#38,.T.);
#58=ADVANCED_FACE('',(#48),#39,.T.);
#59=ADVANCED_FACE('',(#105,#106),#40,.F.);
#60=ADVANCED_FACE('',(#107,#108),#34,.T.);
#61=ADVANCED_FACE('',(#109,#110),#33,.F.);
#62=ADVANCED_FACE('',(#111,#112),#35,.F.);
#63=PLANE('',#289);
#64=PLANE('',#290);
#65=PLANE('',#291);
#66=PLANE('',#292);
#67=PLANE('',#293);
#68=PLANE('',#299);
#69=LINE('',#456,#85);
#70=LINE('',#461,#86);
#71=LINE('',#465,#87);
#72=LINE('',#469,#88);
#73=LINE('',#473,#89);
#74=LINE('',#476,#90);
#75=LINE('',#477,#91);
#76=LINE('',#479,#92);
#77=LINE('',#481,#93);
#78=LINE('',#483,#94);
#79=LINE('',#485,#95);
#80=LINE('',#487,#96);
#81=LINE('',#489,#97);
#82=LINE('',#491,#98);
#83=LINE('',#493,#99);
#84=LINE('',#495,#100);
#85=VECTOR('',#319,1.0);
#86=VECTOR('',#322,1.0);
#87=VECTOR('',#325,1.0);
#88=VECTOR('',#328,1.0);
#89=VECTOR('',#333,1.0);
#90=VECTOR('',#334,1.0);
#91=VECTOR('',#335,1.0);
#92=VECTOR('',#338,1.0);
#93=VECTOR('',#339,1.0);
#94=VECTOR('',#340,1.0);
#95=VECTOR('',#343,1.0);
#96=VECTOR('',#344,1.0);
#97=VECTOR('',#345,1.0);
#98=VECTOR('',#348,1.0);
#99=VECTOR('',#349,1.0);
#100=VECTOR('',#350,1.0);
#101=FACE_BOUND('',#113,.T.);
#102=FACE_BOUND('',#114,.T.);
#103=FACE_BOUND('',#119,.T.);
#104=FACE_BOUND('',#120,.T.);
#105=FACE_BOUND('',#125,.T.);
#106=FACE_BOUND('',#126,.T.);
#107=FACE_BOUND('',#127,.T.);
#108=FACE_BOUND('',#128,.T.);
#109=FACE_BOUND('',#129,.T.);
#110=FACE_BOUND('',#130,.T.);
#111=FACE_BOUND('',#131,.T.);
#112=FACE_BOUND('',#132,.T.);
#113=EDGE_LOOP('',(#133));
#114=EDGE_LOOP('',(#134,#135,#136,#137,#138,#139,#140,#141));
#115=EDGE_LOOP('',(#142,#143,#144,#145));
#116=EDGE_LOOP('',(#146,#147,#148,#149));
#117=EDGE_LOOP('',(#150,#151,#152,#153));
#118=EDGE_LOOP('',(#154,#155,#156,#157));
#119=EDGE_LOOP('',(#158));
#120=EDGE_LOOP('',(#159,#160,#161,#162,#163,#164,#165,#166));
#121=EDGE_LOOP('',(#167,#168,#169,#170));
#122=EDGE_LOOP('',(#171,#172,#173,#174));
#123=EDGE_LOOP('',(#175,#176,#177,#178));
#124=EDGE_LOOP('',(#179,#180,#181,#182));
#125=EDGE_LOOP('',(#183));
#126=EDGE_LOOP('',(#184));
#127=EDGE_LOOP('',(#185));
#128=EDGE_LOOP('',(#186));
#129=EDGE_LOOP('',(#187));
#130=EDGE_LOOP('',(#188));
#131=EDGE_LOOP('',(#189));
#132=EDGE_LOOP('',(#190));
#133=ORIENTED_EDGE('',*,*,#212,.T.);
#134=ORIENTED_EDGE('',*,*,#213,.T.);
#135=ORIENTED_EDGE('',*,*,#214,.T.);
#136=ORIENTED_EDGE('',*,*,#215,.T.);
#137=ORIENTED_EDGE('',*,*,#216,.T.);
#138=ORIENTED_EDGE('',*,*,#217,.T.);
#139=ORIENTED_EDGE('',*,*,#218,.T.);
#140=ORIENTED_EDGE('',*,*,#219,.T.);
#141=ORIENTED_EDGE('',*,*,#220,.T.);
#142=ORIENTED_EDGE('',*,*,#221,.F.);
#143=ORIENTED_EDGE('',*,*,#222,.T.);
#144=ORIENTED_EDGE('',*,*,#213,.F.);
#145=ORIENTED_EDGE('',*,*,#223,.T.);
#146=ORIENTED_EDGE('',*,*,#219,.F.);
#147=ORIENTED_EDGE('',*,*,#224,.T.);
#148=ORIENTED_EDGE('',*,*,#225,.F.);
#149=ORIENTED_EDGE('',*,*,#226,.T.);
#150=ORIENTED_EDGE('',*,*,#217,.F.);
#151=ORIENTED_EDGE('',*,*,#227,.T.);
#152=ORIENTED_EDGE('',*,*,#228,.F.);
#153=ORIENTED_EDGE('',*,*,#229,.T.);
#154=ORIENTED_EDGE('',*,*,#215,.F.);
#155=ORIENTED_EDGE('',*,*,#230,.T.);
#156=ORIENTED_EDGE('',*,*,#231,.F.);
#157=ORIENTED_EDGE('',*,*,#232,.T.);
#158=ORIENTED_EDGE('',*,*,#233,.F.);
#159=ORIENTED_EDGE('',*,*,#231,.T.);
#160=ORIENTED_EDGE('',*,*,#234,.T.);
#161=ORIENTED_EDGE('',*,*,#221,.T.);
#162=ORIENTED_EDGE('',*,*,#235,.T.);
#163=ORIENTED_EDGE('',*,*,#225,.T.);
#164=ORIENTED_EDGE('',*,*,#236,.T.);
#165=ORIENTED_EDGE('',*,*,#228,.T.);
#166=ORIENTED_EDGE('',*,*,#237,.T.);
#167=ORIENTED_EDGE('',*,*,#214,.F.);
#168=ORIENTED_EDGE('',*,*,#222,.F.);
#169=ORIENTED_EDGE('',*,*,#234,.F.);
#170=ORIENTED_EDGE('',*,*,#230,.F.);
#171=ORIENTED_EDGE('',*,*,#216,.F.);
#172=ORIENTED_EDGE('',*,*,#232,.F.);
#173=ORIENTED_EDGE('',*,*,#237,.F.);
#174=ORIENTED_EDGE('',*,*,#227,.F.);
#175=ORIENTED_EDGE('',*,*,#218,.F.);
#176=ORIENTED_EDGE('',*,*,#229,.F.);
#177=ORIENTED_EDGE('',*,*,#236,.F.);
#178=ORIENTED_EDGE('',*,*,#224,.F.);
#179=ORIENTED_EDGE('',*,*,#220,.F.);
#180=ORIENTED_EDGE('',*,*,#226,.F.);
#181=ORIENTED_EDGE('',*,*,#235,.F.);
#182=ORIENTED_EDGE('',*,*,#223,.F.);
#183=ORIENTED_EDGE('',*,*,#238,.T.);
#184=ORIENTED_EDGE('',*,*,#233,.T.);
#185=ORIENTED_EDGE('',*,*,#239,.T.);
#186=ORIENTED_EDGE('',*,*,#240,.T.);
#187=ORIENTED_EDGE('',*,*,#240,.F.);
#188=ORIENTED_EDGE('',*,*,#212,.F.);
#189=ORIENTED_EDGE('',*,*,#239,.F.);
#190=ORIENTED_EDGE('',*,*,#238,.F.);
#191=VERTEX_POINT('',#455);
#192=VERTEX_POINT('',#457);
#193=VERTEX_POINT('',#458);
#194=VERTEX_POINT('',#460);
#195=VERTEX_POINT('',#462);
#196=VERTEX_POINT('',#464);
#197=VERTEX_POINT('',#466);
#198=VERTEX_POINT('',#468);
#199=VERTEX_POINT('',#470);
#200=VERTEX_POINT('',#474);
#201=VERTEX_POINT('',#475);
#202=VERTEX_POINT('',#480);
#203=VERTEX_POINT('',#482);
#204=VERTEX_POINT('',#486);
#205=VERTEX_POINT('',#488);
#206=VERTEX_POINT('',#492);
#207=VERTEX_POINT('',#494);
#208=VERTEX_POINT('',#498);
#209=VERTEX_POINT('',#509);
#210=VERTEX_POINT('',#512);
#211=VERTEX_POINT('',#514);
#212=EDGE_CURVE('',#191,#191,#241,.T.);
#213=EDGE_CURVE('',#192,#193,#69,.T.);
#214=EDGE_CURVE('',#193,#194,#242,.T.);
#215=EDGE_CURVE('',#194,#195,#70,.T.);
#216=EDGE_CURVE('',#195,#196,#243,.T.);
#217=EDGE_CURVE('',#196,#197,#71,.T.);
#218=EDGE_CURVE('',#197,#198,#244,.T.);
#219=EDGE_CURVE('',#198,#199,#72,.T.);
#220=EDGE_CURVE('',#199,#192,#245,.T.);
#221=EDGE_CURVE('',#200,#201,#73,.T.);
#222=EDGE_CURVE('',#200,#193,#74,.T.);
#223=EDGE_CURVE('',#192,#201,#75,.T.);
#224=EDGE_CURVE('',#198,#202,#76,.T.);
#225=EDGE_CURVE('',#203,#202,#77,.T.);
#226=EDGE_CURVE('',#203,#199,#78,.T.);
#227=EDGE_CURVE('',#196,#204,#79,.T.);
#228=EDGE_CURVE('',#205,#204,#80,.T.);
#229=EDGE_CURVE('',#205,#197,#81,.T.);
#230=EDGE_CURVE('',#194,#206,#82,.T.);
#231=EDGE_CURVE('',#207,#206,#83,.T.);
#232=EDGE_CURVE('',#207,#195,#84,.T.);
#233=EDGE_CURVE('',#208,#208,#246,.T.);
#234=EDGE_CURVE('',#206,#200,#247,.T.);
#235=EDGE_CURVE('',#201,#203,#248,.T.);
#236=EDGE_CURVE('',#202,#205,#249,.T.);
#237=EDGE_CURVE('',#204,#207,#250,.T.);
#238=EDGE_CURVE('',#209,#209,#251,.T.);
#239=EDGE_CURVE('',#210,#210,#252,.T.);
#240=EDGE_CURVE('',#211,#211,#253,.T.);
#241=CIRCLE('',#284,2.75);
#242=CIRCLE('',#285,0.208988528699918);
#243=CIRCLE('',#286,0.208988528699918);
#244=CIRCLE('',#287,0.208988528699918);
#245=CIRCLE('',#288,0.208988528699918);
#246=CIRCLE('',#294,3.78614773407047);
#247=CIRCLE('',#295,0.793750000000001);
#248=CIRCLE('',#296,0.793750000000001);
#249=CIRCLE('',#297,0.79375);
#250=CIRCLE('',#298,0.793750000000001);
#251=CIRCLE('',#304,3.75368673962666);
#252=CIRCLE('',#306,3.69710228404942);
#253=CIRCLE('',#307,2.75);
#254=CURVE_STYLE('',#258,POSITIVE_LENGTH_MEASURE(0.18),#257);
#255=CURVE_STYLE('',#259,POSITIVE_LENGTH_MEASURE(0.18),#279);
#256=CURVE_STYLE('',#260,POSITIVE_LENGTH_MEASURE(0.18),#279);
#257=DRAUGHTING_PRE_DEFINED_COLOUR('blue');
#258=DRAUGHTING_PRE_DEFINED_CURVE_FONT('continuous');
#259=DRAUGHTING_PRE_DEFINED_CURVE_FONT('continuous');
#260=DRAUGHTING_PRE_DEFINED_CURVE_FONT('continuous');
#261=B_SPLINE_CURVE_WITH_KNOTS('CUTTING EDGE LINE',5,(#390,#391,#392,#393,#394,#395,
     #396,#397,#398,#399,#400,#401,#402,#403,#404,#405,#406,#407,#408,#409,#410,
     #411,#412,#413,#414,#415,#416,#417,#418,#419,#420,#421,#422,#423,#424,#425,
     #426,#427,#428,#429,#430,#431,#432,#433,#434,#435,#436,#437,#438,#439,#440,
     #441,#442,#443,#444,#445,#446,#447,#448,#449,#450,#451),.UNSPECIFIED.,.T.,.F.,
     (2,4,1,1,1,1,1,1,1,4,4,1,1,1,1,1,1,1,4,4,1,1,1,1,1,1,1,4,4,1,1,1,1,1,1,1,4,
     4,1,1),(-0.224779769,0.0,0.00315252887499995,0.00630505775000001,0.00945758662499996,
     0.0126101155,0.015762644375,0.01891517325,0.022067702125,0.025220231,0.25,0.253152528875,
     0.25630505775,0.259457586625,0.2626101155,0.265762644375,0.26891517325,0.272067702125,
     0.275220231,0.5,0.503152528875,0.50630505775,0.509457586625,0.5126101155,0.515762644375,
     0.51891517325,0.522067702125,0.525220231,0.75,0.753152528875,0.75630505775,
     0.759457586625,0.7626101155,0.765762644375,0.76891517325,0.772067702125,0.775220231,
     1.0,1.003152528875,1.00630505775),.UNSPECIFIED.);
#262=PRESENTATION_LAYER_ASSIGNMENT('1','Layer 1',(#261,#282,#283,#31));
#265=STYLED_ITEM('',(#271),#261);
#266=STYLED_ITEM('',(#272),#282);
#267=STYLED_ITEM('',(#273),#283);
#268=STYLED_ITEM('',(#274),#31);
#269=PRESENTATION_STYLE_ASSIGNMENT((#275));
#270=PRESENTATION_STYLE_ASSIGNMENT((#276));
#271=PRESENTATION_STYLE_ASSIGNMENT((#254));
#272=PRESENTATION_STYLE_ASSIGNMENT((#255));
#273=PRESENTATION_STYLE_ASSIGNMENT((#256));
#274=PRESENTATION_STYLE_ASSIGNMENT((#26));
#275=POINT_STYLE('',#277,POSITIVE_LENGTH_MEASURE(3.0),#279);
#276=POINT_STYLE('',#278,POSITIVE_LENGTH_MEASURE(3.0),#279);
#277=PRE_DEFINED_POINT_MARKER_SYMBOL('plus');
#278=PRE_DEFINED_POINT_MARKER_SYMBOL('plus');
#279=COLOUR_RGB('Medium Maroon',0.6,0.4,0.4);
#280=COLOUR_RGB('IsoInsertColor',0.8,0.8,0.8);
#281=AXIS2_PLACEMENT_3D('',#387,#311,#312);
#282=AXIS2_PLACEMENT_3D('PCS',#452,#313,#314);
#283=AXIS2_PLACEMENT_3D('MCS',#453,#315,#316);
#284=AXIS2_PLACEMENT_3D('',#454,#317,#318);
#285=AXIS2_PLACEMENT_3D('',#459,#320,#321);
#286=AXIS2_PLACEMENT_3D('',#463,#323,#324);
#287=AXIS2_PLACEMENT_3D('',#467,#326,#327);
#288=AXIS2_PLACEMENT_3D('',#471,#329,#330);
#289=AXIS2_PLACEMENT_3D('',#472,#331,#332);
#290=AXIS2_PLACEMENT_3D('',#478,#336,#337);
#291=AXIS2_PLACEMENT_3D('',#484,#341,#342);
#292=AXIS2_PLACEMENT_3D('',#490,#346,#347);
#293=AXIS2_PLACEMENT_3D('',#496,#351,#352);
#294=AXIS2_PLACEMENT_3D('',#497,#353,#354);
#295=AXIS2_PLACEMENT_3D('',#499,#355,#356);
#296=AXIS2_PLACEMENT_3D('',#500,#357,#358);
#297=AXIS2_PLACEMENT_3D('',#501,#359,#360);
#298=AXIS2_PLACEMENT_3D('',#502,#361,#362);
#299=AXIS2_PLACEMENT_3D('',#503,#363,#364);
#300=AXIS2_PLACEMENT_3D('',#504,#365,#366);
#301=AXIS2_PLACEMENT_3D('',#505,#367,#368);
#302=AXIS2_PLACEMENT_3D('',#506,#369,#370);
#303=AXIS2_PLACEMENT_3D('',#507,#371,#372);
#304=AXIS2_PLACEMENT_3D('',#508,#373,#374);
#305=AXIS2_PLACEMENT_3D('',#510,#375,#376);
#306=AXIS2_PLACEMENT_3D('',#511,#377,#378);
#307=AXIS2_PLACEMENT_3D('',#513,#379,#380);
#308=AXIS2_PLACEMENT_3D('',#515,#381,#382);
#309=AXIS2_PLACEMENT_3D('',#516,#383,#384);
#310=AXIS2_PLACEMENT_3D('',#517,#385,#386);
#311=DIRECTION('',(0.0,0.0,1.0));
#312=DIRECTION('',(1.0,0.0,0.0));
#313=DIRECTION('',(0.0,0.0,1.0));
#314=DIRECTION('',(1.0,0.0,0.0));
#315=DIRECTION('',(0.0,0.0,1.0));
#316=DIRECTION('',(1.0,0.0,0.0));
#317=DIRECTION('',(0.0,0.0,1.0));
#318=DIRECTION('',(-0.707106781186547,-0.707106781186547,0.0));
#319=DIRECTION('',(1.0,-2.77555756156289E-16,0.0));
#320=DIRECTION('',(0.0,0.0,-1.0));
#321=DIRECTION('',(-0.707106781186544,-0.707106781186544,0.0));
#322=DIRECTION('',(0.0,-1.0,0.0));
#323=DIRECTION('',(0.0,0.0,-1.0));
#324=DIRECTION('',(-0.707106781186545,-0.707106781186548,0.0));
#325=DIRECTION('',(-1.0,2.77555756156289E-16,0.0));
#326=DIRECTION('',(0.0,0.0,-1.0));
#327=DIRECTION('',(-0.707106781186548,-0.707106781186547,0.0));
#328=DIRECTION('',(-1.11022302462516E-16,1.0,0.0));
#329=DIRECTION('',(0.0,0.0,-1.0));
#330=DIRECTION('',(-0.707106781186547,-0.707106781186543,0.0));
#331=DIRECTION('',(0.0,0.0,1.0));
#332=DIRECTION('',(-0.707106781186548,-0.707106781186547,0.0));
#333=DIRECTION('',(-1.0,2.77555756156289E-16,-1.03344929793645E-16));
#334=DIRECTION('',(6.93889390390723E-17,-0.121869343405148,-0.992546151641322));
#335=DIRECTION('',(-6.93889390390723E-17,0.121869343405148,0.992546151641322));
#336=DIRECTION('',(-3.33066907387547E-16,-0.992546151641322,0.121869343405148));
#337=DIRECTION('',(1.0,-2.77555756156289E-16,0.0));
#338=DIRECTION('',(-0.121869343405148,3.40005801291454E-16,0.992546151641322));
#339=DIRECTION('',(1.11022302462516E-16,-1.0,3.62783763963109E-16));
#340=DIRECTION('',(0.121869343405148,-3.40005801291454E-16,-0.992546151641322));
#341=DIRECTION('',(0.992546151641322,5.55111512312578E-17,0.121869343405148));
#342=DIRECTION('',(-1.11022302462516E-16,1.0,0.0));
#343=DIRECTION('',(-1.45716771982052E-16,-0.121869343405147,0.992546151641322));
#344=DIRECTION('',(1.0,-2.77555756156289E-16,1.03344929793645E-16));
#345=DIRECTION('',(1.45716771982052E-16,0.121869343405147,-0.992546151641322));
#346=DIRECTION('',(2.77555756156289E-16,0.992546151641322,0.121869343405147));
#347=DIRECTION('',(-1.0,2.77555756156289E-16,0.0));
#348=DIRECTION('',(0.121869343405147,3.60822483003176E-16,0.992546151641322));
#349=DIRECTION('',(0.0,1.0,-3.62783763963109E-16));
#350=DIRECTION('',(-0.121869343405147,-3.60822483003176E-16,-0.992546151641322));
#351=DIRECTION('',(-0.992546151641322,0.0,0.121869343405147));
#352=DIRECTION('',(0.0,-1.0,0.0));
#353=DIRECTION('',(0.0,0.0,1.0));
#354=DIRECTION('',(-0.707106781186548,-0.707106781186547,0.0));
#355=DIRECTION('',(-1.04902962956707E-16,3.68253109545943E-16,1.0));
#356=DIRECTION('',(-0.707106781186547,0.707106781186547,-3.34571867426218E-16));
#357=DIRECTION('',(-1.04902962956707E-16,3.68253109545943E-16,1.0));
#358=DIRECTION('',(-0.707106781186547,0.707106781186549,-3.34571867426218E-16));
#359=DIRECTION('',(-1.04902962956707E-16,3.68253109545943E-16,1.0));
#360=DIRECTION('',(-0.707106781186547,0.707106781186548,-3.34571867426217E-16));
#361=DIRECTION('',(-1.04902962956707E-16,3.68253109545943E-16,1.0));
#362=DIRECTION('',(-0.707106781186547,0.707106781186548,-3.34571867426218E-16));
#363=DIRECTION('',(-1.04902962956707E-16,3.68253109545943E-16,1.0));
#364=DIRECTION('',(-0.707106781186547,0.707106781186548,-3.34571867426218E-16));
#365=DIRECTION('',(-1.04902962956707E-16,3.68253109545943E-16,1.0));
#366=DIRECTION('',(-0.707106781186548,0.707106781186548,3.50936071083659E-17));
#367=DIRECTION('',(-1.04902962956707E-16,3.68253109545943E-16,1.0));
#368=DIRECTION('',(-0.707106781186548,0.707106781186548,0.0));
#369=DIRECTION('',(-1.04902962956707E-16,3.68253109545943E-16,1.0));
#370=DIRECTION('',(-0.707106781186548,0.707106781186548,7.01872142167317E-18));
#371=DIRECTION('',(-1.04902962956707E-16,3.68253109545943E-16,1.0));
#372=DIRECTION('',(-0.707106781186548,0.707106781186548,4.2112328530039E-17));
#373=DIRECTION('',(0.0,0.0,-1.0));
#374=DIRECTION('',(0.707106781186548,0.707106781186548,0.0));
#375=DIRECTION('',(0.0,0.0,1.0));
#376=DIRECTION('',(-0.707106781186548,-0.707106781186547,-9.48062626700511E-16));
#377=DIRECTION('',(0.0,0.0,1.0));
#378=DIRECTION('',(0.707106781186547,0.707106781186547,0.0));
#379=DIRECTION('',(0.0,0.0,-1.0));
#380=DIRECTION('',(-0.707106781186548,-0.707106781186548,0.0));
#381=DIRECTION('',(0.0,0.0,1.0));
#382=DIRECTION('',(-0.707106781186548,-0.707106781186547,0.0));
#383=DIRECTION('',(0.0,0.0,1.0));
#384=DIRECTION('',(-0.707106781186548,-0.707106781186548,0.0));
#385=DIRECTION('',(0.0,0.0,-1.0));
#386=DIRECTION('',(0.707106781186547,0.707106781186547,0.0));
#387=CARTESIAN_POINT('',(0.0,0.0,0.0));
#390=CARTESIAN_POINT('',(9.68375,-5.32907051820075E-15,0.0));
#391=CARTESIAN_POINT('',(11.9343133003783,-5.32907051820075E-15,2.95244829062125E-16));
#392=CARTESIAN_POINT('',(11.990439901135,0.00248046874999819,3.00089131191172E-16));
#393=CARTESIAN_POINT('',(12.0808258150766,0.0141836652852874,3.0464729286114E-16));
#394=CARTESIAN_POINT('',(12.1991390324252,0.0477401224125771,3.02941344345989E-16));
#395=CARTESIAN_POINT('',(12.3447503789823,0.121768687071421,2.87072249021024E-16));
#396=CARTESIAN_POINT('',(12.4735178297016,0.226426072614507,2.56550493551287E-16));
#397=CARTESIAN_POINT('',(12.5782636665322,0.35536873898362,2.13291870471798E-16));
#398=CARTESIAN_POINT('',(12.652239931909,0.500645099579527,1.5993376802829E-16));
#399=CARTESIAN_POINT('',(12.6858231852527,0.619406969102025,1.13493087063027E-16));
#400=CARTESIAN_POINT('',(12.69751953125,0.709560098864971,7.6792232827433E-17));
#401=CARTESIAN_POINT('',(12.7,0.765686699621654,5.34397227319055E-17));
#402=CARTESIAN_POINT('',(12.7,3.01624999999999,2.49800180540662E-17));
#403=CARTESIAN_POINT('',(12.7,5.23874999999999,1.66533453693775E-17));
#404=CARTESIAN_POINT('',(12.7,7.46125,1.66533453693776E-17));
#405=CARTESIAN_POINT('',(12.7,9.68374999999999,2.49800180540664E-17));
#406=CARTESIAN_POINT('',(12.7,11.9343133003783,3.2770927475014E-17));
#407=CARTESIAN_POINT('',(12.69751953125,11.990439901135,1.52425672219172E-17));
#408=CARTESIAN_POINT('',(12.6858163347147,12.0808258150766,-1.23742822899661E-17));
#409=CARTESIAN_POINT('',(12.6522598775874,12.1991390324252,-4.70793258883125E-17));
#410=CARTESIAN_POINT('',(12.5782313129286,12.3447503789823,-8.71988174068683E-17));
#411=CARTESIAN_POINT('',(12.4735739273855,12.4735178297016,-1.19572453993325E-16));
#412=CARTESIAN_POINT('',(12.3446312610164,12.5782636665322,-1.42436058629603E-16));
#413=CARTESIAN_POINT('',(12.1993549004205,12.652239931909,-1.54288568581543E-16));
#414=CARTESIAN_POINT('',(12.080593030898,12.6858231852527,-1.55485472788895E-16));
#415=CARTESIAN_POINT('',(11.990439901135,12.69751953125,-1.52036943143998E-16));
#416=CARTESIAN_POINT('',(11.9343133003783,12.7,-1.48373728305237E-16));
#417=CARTESIAN_POINT('',(9.68375,12.7,-8.76902717106277E-17));
#418=CARTESIAN_POINT('',(7.46125,12.7,-5.84601811404185E-17));
#419=CARTESIAN_POINT('',(5.23875,12.7,-5.84601811404185E-17));
#420=CARTESIAN_POINT('',(3.01625,12.7,-8.76902717106278E-17));
#421=CARTESIAN_POINT('',(0.765686699621654,12.7,-1.54261575025301E-16));
#422=CARTESIAN_POINT('',(0.709560098864968,12.69751953125,-1.69440274782794E-16));
#423=CARTESIAN_POINT('',(0.619174184923351,12.6858163347147,-1.9064088338684E-16));
#424=CARTESIAN_POINT('',(0.50086096757476,12.6522598775874,-2.1071953996619E-16));
#425=CARTESIAN_POINT('',(0.355249621017709,12.5782313129286,-2.21661360218628E-16));
#426=CARTESIAN_POINT('',(0.226482170298369,12.4735739273855,-2.14849111816742E-16));
#427=CARTESIAN_POINT('',(0.121736333467771,12.3446312610164,-1.90876978799682E-16));
#428=CARTESIAN_POINT('',(0.0477600680910095,12.1993549004205,-1.51139871234969E-16));
#429=CARTESIAN_POINT('',(0.0141768147473282,12.080593030898,-1.10882759005945E-16));
#430=CARTESIAN_POINT('',(0.00248046874999464,11.990439901135,-7.63355126622734E-17));
#431=CARTESIAN_POINT('',(-5.32907051820075E-15,11.9343133003783,-5.34397227319054E-17));
#432=CARTESIAN_POINT('',(-5.32907051820075E-15,9.68375,-2.4980018054066E-17));
#433=CARTESIAN_POINT('',(-7.105427357601E-15,7.46125,-1.66533453693774E-17));
#434=CARTESIAN_POINT('',(-5.32907051820075E-15,5.23875,-1.66533453693773E-17));
#435=CARTESIAN_POINT('',(-5.32907051820075E-15,3.01625,-2.4980018054066E-17));
#436=CARTESIAN_POINT('',(-5.32907051820075E-15,0.76568669962166,-3.27709274750135E-17));
#437=CARTESIAN_POINT('',(0.00248046874999375,0.709560098864976,-1.52425672219166E-17));
#438=CARTESIAN_POINT('',(0.0141836652852891,0.619174184923356,1.23742822899668E-17));
#439=CARTESIAN_POINT('',(0.0477401224125762,0.500860967574772,4.70793258883133E-17));
#440=CARTESIAN_POINT('',(0.121768687071419,0.355249621017707,8.71988174068691E-17));
#441=CARTESIAN_POINT('',(0.226426072614514,0.226482170298378,1.19572453993326E-16));
#442=CARTESIAN_POINT('',(0.355368738983615,0.121736333467773,1.42436058629604E-16));
#443=CARTESIAN_POINT('',(0.500645099579546,0.0477600680910211,1.54288568581543E-16));
#444=CARTESIAN_POINT('',(0.619406969102021,0.01417681474733,1.55485472788896E-16));
#445=CARTESIAN_POINT('',(0.709560098864976,0.00248046874999996,1.52036943143998E-16));
#446=CARTESIAN_POINT('',(0.765686699621657,-8.88178419700125E-16,1.48373728305237E-16));
#447=CARTESIAN_POINT('',(3.01625,-2.66453525910038E-15,8.76902717106278E-17));
#448=CARTESIAN_POINT('',(5.23875,-3.5527136788005E-15,4.38451358553139E-17));
#449=CARTESIAN_POINT('',(7.46125,-3.5527136788005E-15,1.46150452851046E-17));
#450=CARTESIAN_POINT('',(9.68375,-5.32907051820075E-15,0.0));
#451=CARTESIAN_POINT('',(11.9343133003783,-5.32907051820075E-15,2.95244829062125E-16));
#452=CARTESIAN_POINT('',(0.0,0.0,0.0));
#453=CARTESIAN_POINT('',(6.35,6.35,0.0));
#454=CARTESIAN_POINT('',(6.35,6.35,-4.7625));
#455=CARTESIAN_POINT('',(4.405456351737,4.40545635173699,-4.7625));
#456=CARTESIAN_POINT('',(6.35,12.1152385286999,-4.7625));
#457=CARTESIAN_POINT('',(0.793749999999995,12.1152385286999,-4.7625));
#458=CARTESIAN_POINT('',(11.90625,12.1152385286999,-4.7625));
#459=CARTESIAN_POINT('',(11.90625,11.90625,-4.7625));
#460=CARTESIAN_POINT('',(12.1152385286999,11.90625,-4.7625));
#461=CARTESIAN_POINT('',(12.1152385286999,6.35,-4.7625));
#462=CARTESIAN_POINT('',(12.1152385286999,0.793749999999993,-4.7625));
#463=CARTESIAN_POINT('',(11.90625,0.793749999999997,-4.7625));
#464=CARTESIAN_POINT('',(11.90625,0.584761471300075,-4.7625));
#465=CARTESIAN_POINT('',(6.35,0.584761471300077,-4.7625));
#466=CARTESIAN_POINT('',(0.793749999999998,0.584761471300078,-4.7625));
#467=CARTESIAN_POINT('',(0.793749999999998,0.793750000000002,-4.7625));
#468=CARTESIAN_POINT('',(0.584761471300078,0.793749999999998,-4.7625));
#469=CARTESIAN_POINT('',(0.584761471300078,6.35,-4.7625));
#470=CARTESIAN_POINT('',(0.584761471300078,11.90625,-4.7625));
#471=CARTESIAN_POINT('',(0.793749999999996,11.90625,-4.7625));
#472=CARTESIAN_POINT('',(6.35,5.81966991411009,-4.7625));
#473=CARTESIAN_POINT('',(6.35,12.7,-5.27182464349352E-15));
#474=CARTESIAN_POINT('',(11.90625,12.7,-4.68895755556531E-15));
#475=CARTESIAN_POINT('',(0.793749999999994,12.7,-5.85469173142172E-15));
#476=CARTESIAN_POINT('',(11.90625,12.7,-4.31230897672959E-15));
#477=CARTESIAN_POINT('',(0.793749999999994,12.7,-5.25997115839245E-15));
#478=CARTESIAN_POINT('',(6.35,12.7,-5.27182464349352E-15));
#479=CARTESIAN_POINT('',(-5.20417042793042E-15,0.79375,-1.26205995220368E-15));
#480=CARTESIAN_POINT('',(-5.20417042793042E-15,0.79375,-1.55344487273723E-15));
#481=CARTESIAN_POINT('',(-5.20417042793042E-15,6.35,-3.59955121265187E-15));
#482=CARTESIAN_POINT('',(-5.20417042793042E-15,11.90625,-5.64565755256652E-15));
#483=CARTESIAN_POINT('',(-5.20417042793042E-15,11.90625,-5.25751799316207E-15));
#484=CARTESIAN_POINT('',(-5.20417042793042E-15,6.35,-3.59955121265187E-15));
#485=CARTESIAN_POINT('',(11.90625,-6.07153216591882E-15,-2.24074217007707E-16));
#486=CARTESIAN_POINT('',(11.90625,-6.07153216591882E-15,-1.21430643318369E-17));
#487=CARTESIAN_POINT('',(6.35,-4.33680868994202E-15,-5.95010152260044E-16));
#488=CARTESIAN_POINT('',(0.793749999999998,-2.60208521396521E-15,-1.17787724018825E-15));
#489=CARTESIAN_POINT('',(0.793749999999998,-2.60208521396521E-15,-1.01553410377294E-15));
#490=CARTESIAN_POINT('',(6.35,-4.33680868994202E-15,-5.95010152260044E-16));
#491=CARTESIAN_POINT('',(12.7,11.90625,-4.16991799156393E-15));
#492=CARTESIAN_POINT('',(12.7,11.90625,-4.31338992301633E-15));
#493=CARTESIAN_POINT('',(12.7,6.35,-2.26728358310169E-15));
#494=CARTESIAN_POINT('',(12.7,0.793749999999996,-2.21177243187043E-16));
#495=CARTESIAN_POINT('',(12.7,0.793749999999996,9.2831619807326E-17));
#496=CARTESIAN_POINT('',(12.7,6.35,-2.26728358310169E-15));
#497=CARTESIAN_POINT('',(6.35,6.35,6.93889390390723E-15));
#498=CARTESIAN_POINT('',(3.67278926266469,3.67278926266469,6.93889390390723E-15));
#499=CARTESIAN_POINT('',(11.90625,11.90625,-4.39665664986322E-15));
#500=CARTESIAN_POINT('',(0.793749999999994,11.90625,-5.56239082571963E-15));
#501=CARTESIAN_POINT('',(0.793749999999996,0.79375,-1.47017814589034E-15));
#502=CARTESIAN_POINT('',(11.90625,0.793749999999996,-3.0444397003393E-16));
#503=CARTESIAN_POINT('',(6.35,6.35,-2.93341739787678E-15));
#504=CARTESIAN_POINT('',(11.90625,11.90625,-4.33680868994202E-15));
#505=CARTESIAN_POINT('',(11.90625,0.793749999999996,0.0));
#506=CARTESIAN_POINT('',(0.793749999999996,0.79375,-8.67361737988404E-16));
#507=CARTESIAN_POINT('',(0.793749999999994,11.90625,-5.20417042793042E-15));
#508=CARTESIAN_POINT('',(6.35,6.35,-0.808208197481453));
#509=CARTESIAN_POINT('',(9.00425734804004,9.00425734804003,-0.808208197481453));
#510=CARTESIAN_POINT('',(6.35,6.35,-0.900000000005743));
#511=CARTESIAN_POINT('',(6.35,6.35,-0.971857226151269));
#512=CARTESIAN_POINT('',(8.96424609579161,8.96424609579161,-0.971857226151269));
#513=CARTESIAN_POINT('',(6.35,6.35,-3.90000000000001));
#514=CARTESIAN_POINT('',(4.40545635173699,4.40545635173699,-3.90000000000001));
#515=CARTESIAN_POINT('',(6.35,6.35,-3.90000000000001));
#516=CARTESIAN_POINT('',(6.35,6.35,-33.3676978394524));
#517=CARTESIAN_POINT('',(6.35,6.35,-0.796168659720345));
#518=MECHANICAL_DESIGN_GEOMETRIC_PRESENTATION_REPRESENTATION('',(#265,#266,#267,
     #268),#519);
#519=(GEOMETRIC_REPRESENTATION_CONTEXT(3)GLOBAL_UNCERTAINTY_ASSIGNED_CONTEXT((#520))
     GLOBAL_UNIT_ASSIGNED_CONTEXT((#526,#522,#521))REPRESENTATION_CONTEXT('SCMT120408',
     'TOP_LEVEL_ASSEMBLY_PART'));
#520=UNCERTAINTY_MEASURE_WITH_UNIT(LENGTH_MEASURE(2.0E-5),#526,'DISTANCE_ACCURACY_VALUE',
     'Maximum Tolerance applied to model');
#521=(NAMED_UNIT(*)SI_UNIT($,.STERADIAN.)SOLID_ANGLE_UNIT());
#522=(CONVERSION_BASED_UNIT('DEGREE',#524)NAMED_UNIT(#523)PLANE_ANGLE_UNIT());
#523=DIMENSIONAL_EXPONENTS(0.0,0.0,0.0,0.0,0.0,0.0,0.0);
#524=PLANE_ANGLE_MEASURE_WITH_UNIT(PLANE_ANGLE_MEASURE(0.0174532925),#525);
#525=(NAMED_UNIT(*)PLANE_ANGLE_UNIT()SI_UNIT($,.RADIAN.));
#526=(LENGTH_UNIT()NAMED_UNIT(*)SI_UNIT(.MILLI.,.METRE.));
#527=CONSTRUCTIVE_GEOMETRY_REPRESENTATION('supplemental geometry',(#282,#283),#519);
#528=CONSTRUCTIVE_GEOMETRY_REPRESENTATION_RELATIONSHIP('supplemental geometry','contains PCS and MCS coordinate systems',
     #24,#527);
ENDSEC;
END-ISO-10303-21;
