ISO-10303-21;
HEADER;
FILE_DESCRIPTION(
/* description */ (''),
/* implementation_level */ '2;1');
FILE_NAME(
/* name */ 'DCMT070208.stp',
/* time_stamp */ '2017-03-21T10:54:01',
/* author */ ('Sandvik Coromant R&D'),
/* organization */ ('Sandvik Machining Solutions'),
/* preprocessor_version */ 'ST-DEVELOPER v15',
/* originating_system */ 'SIEMENS PLM Software NX v8.5.3.3(64 bits)',
/* authorization */ '');
FILE_SCHEMA(('AUTOMOTIVE_DESIGN'));
ENDSEC;
DATA;
#10=GEOMETRICALLY_BOUNDED_WIREFRAME_SHAPE_REPRESENTATION('IsoTurningInsert-None',
     (#25),#523);
#11=SHAPE_REPRESENTATION_RELATIONSHIP('None','relationship between IsoTurningInsert-None and IsoTurningInsert-None',
     #24,#13);
#12=SHAPE_REPRESENTATION_RELATIONSHIP('None','relationship between IsoTurningInsert-None and IsoTurningInsert-None',
     #24,#10);
#13=ADVANCED_BREP_SHAPE_REPRESENTATION('IsoTurningInsert-None',(#31),#523);
#14=SHAPE_DEFINITION_REPRESENTATION(#15,#24);
#15=PRODUCT_DEFINITION_SHAPE('','',#16);
#16=PRODUCT_DEFINITION(' ','',#18,#17);
#17=PRODUCT_DEFINITION_CONTEXT('part definition',#23,'design');
#18=PRODUCT_DEFINITION_FORMATION_WITH_SPECIFIED_SOURCE(' ',' ',#20,.NOT_KNOWN.);
#19=PRODUCT_RELATED_PRODUCT_CATEGORY('part','',(#20));
#20=PRODUCT('IsoTurningInsert','IsoTurningInsert',' ',(#21));
#21=PRODUCT_CONTEXT(' ',#23,'mechanical');
#22=APPLICATION_PROTOCOL_DEFINITION('international standard','automotive_design',
     2010,#23);
#23=APPLICATION_CONTEXT('core data for automotive mechanical design processes');
#24=SHAPE_REPRESENTATION('IsoTurningInsert-None',(#281),#523);
#25=GEOMETRIC_CURVE_SET('geometric curve set',(#261));
#26=SURFACE_STYLE_USAGE(.BOTH.,#27);
#27=SURFACE_SIDE_STYLE('',(#28));
#28=SURFACE_STYLE_FILL_AREA(#29);
#29=FILL_AREA_STYLE('',(#30));
#30=FILL_AREA_STYLE_COLOUR('',#280);
#31=MANIFOLD_SOLID_BREP('CUT',#32);
#32=CLOSED_SHELL('',(#49,#50,#51,#52,#53,#54,#55,#56,#57,#58,#59,#60,#61,#62));
#33=CYLINDRICAL_SURFACE('',#309,1.4);
#34=TOROIDAL_SURFACE('',#308,3.9,2.5);
#35=TOROIDAL_SURFACE('',#310,1.38569981785224,0.5);
#36=CONICAL_SURFACE('',#300,0.793750000000003,7.0);
#37=CONICAL_SURFACE('',#301,0.793750000000003,7.0);
#38=CONICAL_SURFACE('',#302,0.793750000000003,7.0);
#39=CONICAL_SURFACE('',#303,0.793750000000003,7.0);
#40=CONICAL_SURFACE('',#305,1.87499999997636,4.00000000179076);
#41=FACE_OUTER_BOUND('',#115,.T.);
#42=FACE_OUTER_BOUND('',#116,.T.);
#43=FACE_OUTER_BOUND('',#117,.T.);
#44=FACE_OUTER_BOUND('',#118,.T.);
#45=FACE_OUTER_BOUND('',#121,.T.);
#46=FACE_OUTER_BOUND('',#122,.T.);
#47=FACE_OUTER_BOUND('',#123,.T.);
#48=FACE_OUTER_BOUND('',#124,.T.);
#49=ADVANCED_FACE('',(#101,#102),#63,.F.);
#50=ADVANCED_FACE('',(#41),#64,.F.);
#51=ADVANCED_FACE('',(#42),#65,.F.);
#52=ADVANCED_FACE('',(#43),#66,.F.);
#53=ADVANCED_FACE('',(#44),#67,.F.);
#54=ADVANCED_FACE('',(#103,#104),#68,.T.);
#55=ADVANCED_FACE('',(#45),#36,.T.);
#56=ADVANCED_FACE('',(#46),#37,.T.);
#57=ADVANCED_FACE('',(#47),#38,.T.);
#58=ADVANCED_FACE('',(#48),#39,.T.);
#59=ADVANCED_FACE('',(#105,#106),#40,.F.);
#60=ADVANCED_FACE('',(#107,#108),#34,.T.);
#61=ADVANCED_FACE('',(#109,#110),#33,.F.);
#62=ADVANCED_FACE('',(#111,#112),#35,.F.);
#63=PLANE('',#289);
#64=PLANE('',#290);
#65=PLANE('',#291);
#66=PLANE('',#292);
#67=PLANE('',#293);
#68=PLANE('',#299);
#69=LINE('',#460,#85);
#70=LINE('',#465,#86);
#71=LINE('',#469,#87);
#72=LINE('',#473,#88);
#73=LINE('',#477,#89);
#74=LINE('',#480,#90);
#75=LINE('',#481,#91);
#76=LINE('',#483,#92);
#77=LINE('',#485,#93);
#78=LINE('',#487,#94);
#79=LINE('',#489,#95);
#80=LINE('',#491,#96);
#81=LINE('',#493,#97);
#82=LINE('',#495,#98);
#83=LINE('',#497,#99);
#84=LINE('',#499,#100);
#85=VECTOR('',#319,1.0);
#86=VECTOR('',#322,1.0);
#87=VECTOR('',#325,1.0);
#88=VECTOR('',#328,1.0);
#89=VECTOR('',#333,1.0);
#90=VECTOR('',#334,1.0);
#91=VECTOR('',#335,1.0);
#92=VECTOR('',#338,1.0);
#93=VECTOR('',#339,1.0);
#94=VECTOR('',#340,1.0);
#95=VECTOR('',#343,1.0);
#96=VECTOR('',#344,1.0);
#97=VECTOR('',#345,1.0);
#98=VECTOR('',#348,1.0);
#99=VECTOR('',#349,1.0);
#100=VECTOR('',#350,1.0);
#101=FACE_BOUND('',#113,.T.);
#102=FACE_BOUND('',#114,.T.);
#103=FACE_BOUND('',#119,.T.);
#104=FACE_BOUND('',#120,.T.);
#105=FACE_BOUND('',#125,.T.);
#106=FACE_BOUND('',#126,.T.);
#107=FACE_BOUND('',#127,.T.);
#108=FACE_BOUND('',#128,.T.);
#109=FACE_BOUND('',#129,.T.);
#110=FACE_BOUND('',#130,.T.);
#111=FACE_BOUND('',#131,.T.);
#112=FACE_BOUND('',#132,.T.);
#113=EDGE_LOOP('',(#133));
#114=EDGE_LOOP('',(#134,#135,#136,#137,#138,#139,#140,#141));
#115=EDGE_LOOP('',(#142,#143,#144,#145));
#116=EDGE_LOOP('',(#146,#147,#148,#149));
#117=EDGE_LOOP('',(#150,#151,#152,#153));
#118=EDGE_LOOP('',(#154,#155,#156,#157));
#119=EDGE_LOOP('',(#158));
#120=EDGE_LOOP('',(#159,#160,#161,#162,#163,#164,#165,#166));
#121=EDGE_LOOP('',(#167,#168,#169,#170));
#122=EDGE_LOOP('',(#171,#172,#173,#174));
#123=EDGE_LOOP('',(#175,#176,#177,#178));
#124=EDGE_LOOP('',(#179,#180,#181,#182));
#125=EDGE_LOOP('',(#183));
#126=EDGE_LOOP('',(#184));
#127=EDGE_LOOP('',(#185));
#128=EDGE_LOOP('',(#186));
#129=EDGE_LOOP('',(#187));
#130=EDGE_LOOP('',(#188));
#131=EDGE_LOOP('',(#189));
#132=EDGE_LOOP('',(#190));
#133=ORIENTED_EDGE('',*,*,#212,.T.);
#134=ORIENTED_EDGE('',*,*,#213,.T.);
#135=ORIENTED_EDGE('',*,*,#214,.T.);
#136=ORIENTED_EDGE('',*,*,#215,.T.);
#137=ORIENTED_EDGE('',*,*,#216,.T.);
#138=ORIENTED_EDGE('',*,*,#217,.T.);
#139=ORIENTED_EDGE('',*,*,#218,.T.);
#140=ORIENTED_EDGE('',*,*,#219,.T.);
#141=ORIENTED_EDGE('',*,*,#220,.T.);
#142=ORIENTED_EDGE('',*,*,#221,.F.);
#143=ORIENTED_EDGE('',*,*,#222,.T.);
#144=ORIENTED_EDGE('',*,*,#213,.F.);
#145=ORIENTED_EDGE('',*,*,#223,.T.);
#146=ORIENTED_EDGE('',*,*,#219,.F.);
#147=ORIENTED_EDGE('',*,*,#224,.T.);
#148=ORIENTED_EDGE('',*,*,#225,.F.);
#149=ORIENTED_EDGE('',*,*,#226,.T.);
#150=ORIENTED_EDGE('',*,*,#217,.F.);
#151=ORIENTED_EDGE('',*,*,#227,.T.);
#152=ORIENTED_EDGE('',*,*,#228,.F.);
#153=ORIENTED_EDGE('',*,*,#229,.T.);
#154=ORIENTED_EDGE('',*,*,#215,.F.);
#155=ORIENTED_EDGE('',*,*,#230,.T.);
#156=ORIENTED_EDGE('',*,*,#231,.F.);
#157=ORIENTED_EDGE('',*,*,#232,.T.);
#158=ORIENTED_EDGE('',*,*,#233,.F.);
#159=ORIENTED_EDGE('',*,*,#231,.T.);
#160=ORIENTED_EDGE('',*,*,#234,.T.);
#161=ORIENTED_EDGE('',*,*,#221,.T.);
#162=ORIENTED_EDGE('',*,*,#235,.T.);
#163=ORIENTED_EDGE('',*,*,#225,.T.);
#164=ORIENTED_EDGE('',*,*,#236,.T.);
#165=ORIENTED_EDGE('',*,*,#228,.T.);
#166=ORIENTED_EDGE('',*,*,#237,.T.);
#167=ORIENTED_EDGE('',*,*,#214,.F.);
#168=ORIENTED_EDGE('',*,*,#222,.F.);
#169=ORIENTED_EDGE('',*,*,#234,.F.);
#170=ORIENTED_EDGE('',*,*,#230,.F.);
#171=ORIENTED_EDGE('',*,*,#216,.F.);
#172=ORIENTED_EDGE('',*,*,#232,.F.);
#173=ORIENTED_EDGE('',*,*,#237,.F.);
#174=ORIENTED_EDGE('',*,*,#227,.F.);
#175=ORIENTED_EDGE('',*,*,#218,.F.);
#176=ORIENTED_EDGE('',*,*,#229,.F.);
#177=ORIENTED_EDGE('',*,*,#236,.F.);
#178=ORIENTED_EDGE('',*,*,#224,.F.);
#179=ORIENTED_EDGE('',*,*,#220,.F.);
#180=ORIENTED_EDGE('',*,*,#226,.F.);
#181=ORIENTED_EDGE('',*,*,#235,.F.);
#182=ORIENTED_EDGE('',*,*,#223,.F.);
#183=ORIENTED_EDGE('',*,*,#238,.T.);
#184=ORIENTED_EDGE('',*,*,#233,.T.);
#185=ORIENTED_EDGE('',*,*,#239,.T.);
#186=ORIENTED_EDGE('',*,*,#240,.T.);
#187=ORIENTED_EDGE('',*,*,#240,.F.);
#188=ORIENTED_EDGE('',*,*,#212,.F.);
#189=ORIENTED_EDGE('',*,*,#239,.F.);
#190=ORIENTED_EDGE('',*,*,#238,.F.);
#191=VERTEX_POINT('',#459);
#192=VERTEX_POINT('',#461);
#193=VERTEX_POINT('',#462);
#194=VERTEX_POINT('',#464);
#195=VERTEX_POINT('',#466);
#196=VERTEX_POINT('',#468);
#197=VERTEX_POINT('',#470);
#198=VERTEX_POINT('',#472);
#199=VERTEX_POINT('',#474);
#200=VERTEX_POINT('',#478);
#201=VERTEX_POINT('',#479);
#202=VERTEX_POINT('',#484);
#203=VERTEX_POINT('',#486);
#204=VERTEX_POINT('',#490);
#205=VERTEX_POINT('',#492);
#206=VERTEX_POINT('',#496);
#207=VERTEX_POINT('',#498);
#208=VERTEX_POINT('',#502);
#209=VERTEX_POINT('',#513);
#210=VERTEX_POINT('',#516);
#211=VERTEX_POINT('',#518);
#212=EDGE_CURVE('',#191,#191,#241,.T.);
#213=EDGE_CURVE('',#192,#193,#69,.T.);
#214=EDGE_CURVE('',#193,#194,#242,.T.);
#215=EDGE_CURVE('',#194,#195,#70,.T.);
#216=EDGE_CURVE('',#195,#196,#243,.T.);
#217=EDGE_CURVE('',#196,#197,#71,.T.);
#218=EDGE_CURVE('',#197,#198,#244,.T.);
#219=EDGE_CURVE('',#198,#199,#72,.T.);
#220=EDGE_CURVE('',#199,#192,#245,.T.);
#221=EDGE_CURVE('',#200,#201,#73,.T.);
#222=EDGE_CURVE('',#200,#193,#74,.T.);
#223=EDGE_CURVE('',#192,#201,#75,.T.);
#224=EDGE_CURVE('',#198,#202,#76,.T.);
#225=EDGE_CURVE('',#203,#202,#77,.T.);
#226=EDGE_CURVE('',#203,#199,#78,.T.);
#227=EDGE_CURVE('',#196,#204,#79,.T.);
#228=EDGE_CURVE('',#205,#204,#80,.T.);
#229=EDGE_CURVE('',#205,#197,#81,.T.);
#230=EDGE_CURVE('',#194,#206,#82,.T.);
#231=EDGE_CURVE('',#207,#206,#83,.T.);
#232=EDGE_CURVE('',#207,#195,#84,.T.);
#233=EDGE_CURVE('',#208,#208,#246,.T.);
#234=EDGE_CURVE('',#206,#200,#247,.T.);
#235=EDGE_CURVE('',#201,#203,#248,.T.);
#236=EDGE_CURVE('',#202,#205,#249,.T.);
#237=EDGE_CURVE('',#204,#207,#250,.T.);
#238=EDGE_CURVE('',#209,#209,#251,.T.);
#239=EDGE_CURVE('',#210,#210,#252,.T.);
#240=EDGE_CURVE('',#211,#211,#253,.T.);
#241=CIRCLE('',#284,1.4);
#242=CIRCLE('',#285,0.501369264349962);
#243=CIRCLE('',#286,0.501369264349961);
#244=CIRCLE('',#287,0.501369264349961);
#245=CIRCLE('',#288,0.501369264349962);
#246=CIRCLE('',#294,1.92255023212159);
#247=CIRCLE('',#295,0.793750000000003);
#248=CIRCLE('',#296,0.793750000000003);
#249=CIRCLE('',#297,0.793750000000003);
#250=CIRCLE('',#298,0.793750000000003);
#251=CIRCLE('',#304,1.88448184298103);
#252=CIRCLE('',#306,1.80474984821024);
#253=CIRCLE('',#307,1.4);
#254=CURVE_STYLE('',#258,POSITIVE_LENGTH_MEASURE(0.18),#257);
#255=CURVE_STYLE('',#259,POSITIVE_LENGTH_MEASURE(0.18),#279);
#256=CURVE_STYLE('',#260,POSITIVE_LENGTH_MEASURE(0.18),#279);
#257=DRAUGHTING_PRE_DEFINED_COLOUR('blue');
#258=DRAUGHTING_PRE_DEFINED_CURVE_FONT('continuous');
#259=DRAUGHTING_PRE_DEFINED_CURVE_FONT('continuous');
#260=DRAUGHTING_PRE_DEFINED_CURVE_FONT('continuous');
#261=B_SPLINE_CURVE_WITH_KNOTS('CUTTING EDGE LINE',5,(#390,#391,#392,#393,#394,#395,
     #396,#397,#398,#399,#400,#401,#402,#403,#404,#405,#406,#407,#408,#409,#410,
     #411,#412,#413,#414,#415,#416,#417,#418,#419,#420,#421,#422,#423,#424,#425,
     #426,#427,#428,#429,#430,#431,#432,#433,#434,#435,#436,#437,#438,#439,#440,
     #441,#442,#443,#444,#445,#446,#447,#448,#449,#450,#451,#452,#453,#454,#455),
     .UNSPECIFIED.,.T.,.F.,(2,4,1,4,4,1,1,1,1,1,1,1,1,1,1,1,1,1,1,1,4,4,1,4,4,1,
     1,1,1,1,1,1,1,1,1,1,1,1,1,1,4,4,1,1),(-0.2058539082,0.0,0.0134890836,0.0269781672,
     0.2328320753,0.23666420133125,0.2404963273625,0.24432845339375,0.248160579425,
     0.25199270545625,0.2558248314875,0.25965695751875,0.26348908355,0.26732120958125,
     0.2711533356125,0.27498546164375,0.278817587675036,0.28264971370625,0.2864818397375,
     0.29031396576875,0.2941460918,0.5,0.5134890836,0.5269781672,0.7328320753,0.73666420133125,
     0.7404963273625,0.74432845339375,0.748160579425013,0.75199270545625,0.7558248314875,
     0.75965695751875,0.76348908355,0.76732120958125,0.7711533356125,0.77498546164375,
     0.778817587675036,0.78264971370625,0.7864818397375,0.79031396576875,0.7941460918,
     1.0,1.0134890836,1.0269781672),.UNSPECIFIED.);
#262=PRESENTATION_LAYER_ASSIGNMENT('1','Layer 1',(#261,#282,#283,#31));
#265=STYLED_ITEM('',(#271),#261);
#266=STYLED_ITEM('',(#272),#282);
#267=STYLED_ITEM('',(#273),#283);
#268=STYLED_ITEM('',(#274),#31);
#269=PRESENTATION_STYLE_ASSIGNMENT((#275));
#270=PRESENTATION_STYLE_ASSIGNMENT((#276));
#271=PRESENTATION_STYLE_ASSIGNMENT((#254));
#272=PRESENTATION_STYLE_ASSIGNMENT((#255));
#273=PRESENTATION_STYLE_ASSIGNMENT((#256));
#274=PRESENTATION_STYLE_ASSIGNMENT((#26));
#275=POINT_STYLE('',#277,POSITIVE_LENGTH_MEASURE(3.0),#279);
#276=POINT_STYLE('',#278,POSITIVE_LENGTH_MEASURE(3.0),#279);
#277=PRE_DEFINED_POINT_MARKER_SYMBOL('plus');
#278=PRE_DEFINED_POINT_MARKER_SYMBOL('plus');
#279=COLOUR_RGB('Medium Maroon',0.6,0.4,0.4);
#280=COLOUR_RGB('IsoInsertColor',0.8,0.8,0.8);
#281=AXIS2_PLACEMENT_3D('',#387,#311,#312);
#282=AXIS2_PLACEMENT_3D('PCS',#456,#313,#314);
#283=AXIS2_PLACEMENT_3D('MCS',#457,#315,#316);
#284=AXIS2_PLACEMENT_3D('',#458,#317,#318);
#285=AXIS2_PLACEMENT_3D('',#463,#320,#321);
#286=AXIS2_PLACEMENT_3D('',#467,#323,#324);
#287=AXIS2_PLACEMENT_3D('',#471,#326,#327);
#288=AXIS2_PLACEMENT_3D('',#475,#329,#330);
#289=AXIS2_PLACEMENT_3D('',#476,#331,#332);
#290=AXIS2_PLACEMENT_3D('',#482,#336,#337);
#291=AXIS2_PLACEMENT_3D('',#488,#341,#342);
#292=AXIS2_PLACEMENT_3D('',#494,#346,#347);
#293=AXIS2_PLACEMENT_3D('',#500,#351,#352);
#294=AXIS2_PLACEMENT_3D('',#501,#353,#354);
#295=AXIS2_PLACEMENT_3D('',#503,#355,#356);
#296=AXIS2_PLACEMENT_3D('',#504,#357,#358);
#297=AXIS2_PLACEMENT_3D('',#505,#359,#360);
#298=AXIS2_PLACEMENT_3D('',#506,#361,#362);
#299=AXIS2_PLACEMENT_3D('',#507,#363,#364);
#300=AXIS2_PLACEMENT_3D('',#508,#365,#366);
#301=AXIS2_PLACEMENT_3D('',#509,#367,#368);
#302=AXIS2_PLACEMENT_3D('',#510,#369,#370);
#303=AXIS2_PLACEMENT_3D('',#511,#371,#372);
#304=AXIS2_PLACEMENT_3D('',#512,#373,#374);
#305=AXIS2_PLACEMENT_3D('',#514,#375,#376);
#306=AXIS2_PLACEMENT_3D('',#515,#377,#378);
#307=AXIS2_PLACEMENT_3D('',#517,#379,#380);
#308=AXIS2_PLACEMENT_3D('',#519,#381,#382);
#309=AXIS2_PLACEMENT_3D('',#520,#383,#384);
#310=AXIS2_PLACEMENT_3D('',#521,#385,#386);
#311=DIRECTION('',(0.0,0.0,1.0));
#312=DIRECTION('',(1.0,0.0,0.0));
#313=DIRECTION('',(0.0,0.0,1.0));
#314=DIRECTION('',(1.0,0.0,0.0));
#315=DIRECTION('',(0.0,0.0,1.0));
#316=DIRECTION('',(1.0,0.0,0.0));
#317=DIRECTION('',(0.0,0.0,1.0));
#318=DIRECTION('',(-0.887010833178222,-0.461748613235034,0.0));
#319=DIRECTION('',(1.0,9.43689570931383E-16,0.0));
#320=DIRECTION('',(0.0,0.0,-1.0));
#321=DIRECTION('',(-0.887010833178221,-0.461748613235034,0.0));
#322=DIRECTION('',(-0.573576436351045,-0.819152044288992,0.0));
#323=DIRECTION('',(0.0,0.0,-1.0));
#324=DIRECTION('',(-0.887010833178222,-0.461748613235034,0.0));
#325=DIRECTION('',(-1.0,2.22044604925031E-16,0.0));
#326=DIRECTION('',(0.0,0.0,-1.0));
#327=DIRECTION('',(-0.887010833178222,-0.461748613235034,0.0));
#328=DIRECTION('',(0.573576436351046,0.819152044288991,0.0));
#329=DIRECTION('',(0.0,0.0,-1.0));
#330=DIRECTION('',(-0.887010833178222,-0.461748613235034,0.0));
#331=DIRECTION('',(0.0,0.0,1.0));
#332=DIRECTION('',(-0.887010833178222,-0.461748613235034,0.0));
#333=DIRECTION('',(-1.0,-8.88178419700125E-16,-1.76126333343879E-16));
#334=DIRECTION('',(2.77555756156289E-16,-0.121869343405148,-0.992546151641322));
#335=DIRECTION('',(-2.77555756156289E-16,0.121869343405148,0.992546151641322));
#336=DIRECTION('',(9.43689570931383E-16,-0.992546151641322,0.121869343405148));
#337=DIRECTION('',(1.0,9.43689570931383E-16,0.0));
#338=DIRECTION('',(-0.0998295217864838,0.0699013836907673,0.992546151641322));
#339=DIRECTION('',(-0.573576436351047,-0.819152044288991,6.01166036099617E-16));
#340=DIRECTION('',(0.0998295217864838,-0.0699013836907673,-0.992546151641322));
#341=DIRECTION('',(0.81304620916816,-0.569301084572375,0.121869343405148));
#342=DIRECTION('',(0.573576436351046,0.819152044288991,0.0));
#343=DIRECTION('',(-1.80411241501588E-16,-0.121869343405147,0.992546151641322));
#344=DIRECTION('',(1.0,-2.22044604925031E-16,1.69310421014735E-16));
#345=DIRECTION('',(1.80411241501588E-16,0.121869343405147,-0.992546151641322));
#346=DIRECTION('',(1.66533453693773E-16,0.992546151641322,0.121869343405147));
#347=DIRECTION('',(-1.0,2.22044604925031E-16,0.0));
#348=DIRECTION('',(0.0998295217864836,-0.0699013836907654,0.992546151641322));
#349=DIRECTION('',(0.573576436351046,0.819152044288992,-6.07981948428762E-16));
#350=DIRECTION('',(-0.0998295217864836,0.0699013836907654,-0.992546151641322));
#351=DIRECTION('',(-0.813046209168161,0.569301084572374,0.121869343405147));
#352=DIRECTION('',(-0.573576436351045,-0.819152044288992,0.0));
#353=DIRECTION('',(0.0,0.0,1.0));
#354=DIRECTION('',(-0.887010833178222,-0.461748613235034,0.0));
#355=DIRECTION('',(-1.7186295311592E-16,8.56845954402636E-16,1.0));
#356=DIRECTION('',(-0.461748613235033,0.887010833178221,-8.39389124187825E-16));
#357=DIRECTION('',(-1.7186295311592E-16,8.56845954402636E-16,1.0));
#358=DIRECTION('',(-0.461748613235034,0.887010833178221,-8.39389124187825E-16));
#359=DIRECTION('',(-1.7186295311592E-16,8.56845954402636E-16,1.0));
#360=DIRECTION('',(-0.461748613235034,0.887010833178222,-8.39389124187825E-16));
#361=DIRECTION('',(-1.7186295311592E-16,8.56845954402636E-16,1.0));
#362=DIRECTION('',(-0.461748613235034,0.887010833178222,-8.39389124187825E-16));
#363=DIRECTION('',(-1.7186295311592E-16,8.56845954402636E-16,1.0));
#364=DIRECTION('',(-0.461748613235034,0.887010833178222,-8.39389124187825E-16));
#365=DIRECTION('',(-1.7186295311592E-16,8.56845954402636E-16,1.0));
#366=DIRECTION('',(-0.461748613235034,0.887010833178222,-8.633027348658E-16));
#367=DIRECTION('',(-1.7186295311592E-16,8.56845954402636E-16,1.0));
#368=DIRECTION('',(-0.461748613235034,0.887010833178222,-8.91377620552493E-16));
#369=DIRECTION('',(-1.7186295311592E-16,8.56845954402636E-16,1.0));
#370=DIRECTION('',(-0.461748613235034,0.887010833178222,-8.8435889913082E-16));
#371=DIRECTION('',(-1.7186295311592E-16,8.56845954402636E-16,1.0));
#372=DIRECTION('',(-0.461748613235034,0.887010833178222,-8.56284013444127E-16));
#373=DIRECTION('',(0.0,0.0,-1.0));
#374=DIRECTION('',(0.887010833178222,0.461748613235034,0.0));
#375=DIRECTION('',(0.0,0.0,1.0));
#376=DIRECTION('',(-0.887010833178222,-0.461748613235034,-9.66395375416632E-17));
#377=DIRECTION('',(0.0,0.0,1.0));
#378=DIRECTION('',(0.887010833178222,0.461748613235034,0.0));
#379=DIRECTION('',(0.0,0.0,-1.0));
#380=DIRECTION('',(-0.887010833178222,-0.461748613235034,0.0));
#381=DIRECTION('',(0.0,0.0,1.0));
#382=DIRECTION('',(-0.887010833178222,-0.461748613235034,0.0));
#383=DIRECTION('',(0.0,0.0,1.0));
#384=DIRECTION('',(-0.887010833178222,-0.461748613235034,0.0));
#385=DIRECTION('',(0.0,0.0,-1.0));
#386=DIRECTION('',(0.887010833178222,0.461748613235034,0.0));
#387=CARTESIAN_POINT('',(0.0,0.0,0.0));
#390=CARTESIAN_POINT('',(6.1759307464645,2.22044604925031E-15,-8.87468518373638E-32));
#391=CARTESIAN_POINT('',(7.41202113461085,2.22044604925031E-15,6.92719476299601E-16));
#392=CARTESIAN_POINT('',(7.55862631931297,0.0169236851823182,7.03414485102559E-16));
#393=CARTESIAN_POINT('',(7.71576797776869,0.0694447734028429,6.89743674090881E-16));
#394=CARTESIAN_POINT('',(7.84892348701213,0.168042825554998,5.89901786870479E-16));
#395=CARTESIAN_POINT('',(7.94687583771816,0.278427735270306,3.89846992720601E-16));
#396=CARTESIAN_POINT('',(8.65586815755892,1.29097370364636,5.01847277363355E-17));
#397=CARTESIAN_POINT('',(9.32281583770367,2.24347370364636,-6.90253292068385E-32));
#398=CARTESIAN_POINT('',(9.98976351784841,3.19597370364636,1.57772181044202E-31));
#399=CARTESIAN_POINT('',(10.6567111979932,4.14847370364635,5.01847277363356E-17));
#400=CARTESIAN_POINT('',(11.335468136519,5.11783907246447,2.63594553528025E-16));
#401=CARTESIAN_POINT('',(11.3579929904898,5.15233560103155,2.82866338445177E-16));
#402=CARTESIAN_POINT('',(11.3896521747158,5.20827989401842,2.96451483597186E-16));
#403=CARTESIAN_POINT('',(11.4241172180512,5.28709869935273,2.86250291568E-16));
#404=CARTESIAN_POINT('',(11.454361240576,5.39365360145977,2.39717533817175E-16));
#405=CARTESIAN_POINT('',(11.4693981007743,5.50401981696584,1.68636867321058E-16));
#406=CARTESIAN_POINT('',(11.4688509686412,5.61569992876767,8.2408691527458E-17));
#407=CARTESIAN_POINT('',(11.4529862876984,5.72475353581634,-1.07032790361515E-17));
#408=CARTESIAN_POINT('',(11.4225638496904,5.82929596633896,-1.05160986369298E-16));
#409=CARTESIAN_POINT('',(11.3804202951419,5.92427182708493,-1.93827819393391E-16));
#410=CARTESIAN_POINT('',(11.3267931744944,6.01326972167939,-2.79392803670674E-16));
#411=CARTESIAN_POINT('',(11.2586066223879,6.09815339872388,-3.63360229174955E-16));
#412=CARTESIAN_POINT('',(11.1783747443987,6.17369956384759,-4.377430911128E-16));
#413=CARTESIAN_POINT('',(11.0872055746077,6.23820482879345,-4.95726574686613E-16));
#414=CARTESIAN_POINT('',(10.9881740748696,6.28919081460495,-5.28107499450026E-16));
#415=CARTESIAN_POINT('',(10.8835421503186,6.32553374275287,-5.23602270012385E-16));
#416=CARTESIAN_POINT('',(10.7992092280659,6.34251024152912,-4.82968199186981E-16));
#417=CARTESIAN_POINT('',(10.7352233840333,6.34866488425548,-4.23237253683604E-16));
#418=CARTESIAN_POINT('',(10.6940457566668,6.35,-3.70528357648146E-16));
#419=CARTESIAN_POINT('',(9.51066914718823,6.35,-6.80121476307094E-17));
#420=CARTESIAN_POINT('',(8.34788135139295,6.34999999999999,3.94430452610506E-32));
#421=CARTESIAN_POINT('',(7.18509355559767,6.35,-7.88860905221012E-32));
#422=CARTESIAN_POINT('',(6.02230575980238,6.34999999999999,-6.80121476307095E-17));
#423=CARTESIAN_POINT('',(4.78621537165604,6.34999999999999,-4.80998397512919E-16));
#424=CARTESIAN_POINT('',(4.63961018695391,6.33307631481767,-6.57447317141847E-16));
#425=CARTESIAN_POINT('',(4.4824685284982,6.28055522659715,-6.95604854770427E-16));
#426=CARTESIAN_POINT('',(4.34931301925476,6.181957174445,-5.89901786870479E-16));
#427=CARTESIAN_POINT('',(4.25136066854873,6.07157226472969,-3.89846992720602E-16));
#428=CARTESIAN_POINT('',(3.54236834870797,5.05902629635364,-5.01847277363355E-17));
#429=CARTESIAN_POINT('',(2.87542066856322,4.10652629635364,5.91645678915759E-32));
#430=CARTESIAN_POINT('',(2.20847298841847,3.15402629635364,0.0));
#431=CARTESIAN_POINT('',(1.54152530827372,2.20152629635365,-5.01847277363355E-17));
#432=CARTESIAN_POINT('',(0.862768369747846,1.23216092753553,-2.63594553528025E-16));
#433=CARTESIAN_POINT('',(0.840243515777069,1.19766439896845,-2.82866338445177E-16));
#434=CARTESIAN_POINT('',(0.808584331551047,1.14172010598157,-2.96451483597186E-16));
#435=CARTESIAN_POINT('',(0.774119288215699,1.0629013006472,-2.86250291567993E-16));
#436=CARTESIAN_POINT('',(0.743875265690855,0.956346398540155,-2.39717533817139E-16));
#437=CARTESIAN_POINT('',(0.728838405492612,0.845980183034087,-1.68636867321008E-16));
#438=CARTESIAN_POINT('',(0.729385537625664,0.734300071232261,-8.24086915273983E-17));
#439=CARTESIAN_POINT('',(0.745250218568533,0.625246464183595,1.07032790362105E-17));
#440=CARTESIAN_POINT('',(0.775672656576449,0.520704033661042,1.05160986369296E-16));
#441=CARTESIAN_POINT('',(0.817816211125017,0.425728172915073,1.9382781939339E-16));
#442=CARTESIAN_POINT('',(0.871443331772485,0.336730278320609,2.79392803670673E-16));
#443=CARTESIAN_POINT('',(0.939629883878973,0.25184660127612,3.63360229174954E-16));
#444=CARTESIAN_POINT('',(1.01986176186816,0.176300436152409,4.37743091112799E-16));
#445=CARTESIAN_POINT('',(1.11103093165918,0.111795171206548,4.95726574686611E-16));
#446=CARTESIAN_POINT('',(1.21006243139732,0.0608091853950476,5.28107499450025E-16));
#447=CARTESIAN_POINT('',(1.31469435594831,0.0244662572471337,5.23602270012384E-16));
#448=CARTESIAN_POINT('',(1.39902727820096,0.00748975847087507,4.82968199186981E-16));
#449=CARTESIAN_POINT('',(1.46301312223363,0.00133511574451672,4.23237253683604E-16));
#450=CARTESIAN_POINT('',(1.50419074960012,1.33226762955019E-15,3.70528357648146E-16));
#451=CARTESIAN_POINT('',(2.68756735907865,3.10862446895044E-15,6.80121476307094E-17));
#452=CARTESIAN_POINT('',(3.85035515487393,3.10862446895044E-15,-3.94430452610506E-32));
#453=CARTESIAN_POINT('',(5.01314295066922,2.66453525910038E-15,-1.28189897098414E-31));
#454=CARTESIAN_POINT('',(6.1759307464645,2.22044604925031E-15,-8.87468518373638E-32));
#455=CARTESIAN_POINT('',(7.41202113461085,2.22044604925031E-15,6.92719476299601E-16));
#456=CARTESIAN_POINT('',(0.0,0.0,0.0));
#457=CARTESIAN_POINT('',(6.09911825313345,3.175,0.0));
#458=CARTESIAN_POINT('',(6.09911825313345,3.175,-2.38125000000001));
#459=CARTESIAN_POINT('',(4.85730308668394,2.52855194147095,-2.38125000000001));
#460=CARTESIAN_POINT('',(6.09911825313344,6.05761926434995,-2.38125));
#461=CARTESIAN_POINT('',(4.8595179640071,6.05761926434995,-2.38125));
#462=CARTESIAN_POINT('',(10.6734569429835,6.05761926434995,-2.38125));
#463=CARTESIAN_POINT('',(10.6734569429835,5.55625,-2.38125));
#464=CARTESIAN_POINT('',(11.0841546008195,5.2686764040582,-2.38125));
#465=CARTESIAN_POINT('',(8.46042171643254,1.52159751499728,-2.38125));
#466=CARTESIAN_POINT('',(7.74941620009573,0.506176404058207,-2.38125));
#467=CARTESIAN_POINT('',(7.33871854225979,0.793750000000005,-2.38125));
#468=CARTESIAN_POINT('',(7.33871854225979,0.292380735650041,-2.38125));
#469=CARTESIAN_POINT('',(6.09911825313344,0.292380735650041,-2.38125));
#470=CARTESIAN_POINT('',(1.52477956328337,0.292380735650042,-2.38125));
#471=CARTESIAN_POINT('',(1.52477956328337,0.793750000000006,-2.38125));
#472=CARTESIAN_POINT('',(1.11408190544743,1.0813235959418,-2.38125));
#473=CARTESIAN_POINT('',(3.73781478983435,4.82840248500272,-2.38125));
#474=CARTESIAN_POINT('',(4.44882030617116,5.84382359594178,-2.38125));
#475=CARTESIAN_POINT('',(4.8595179640071,5.55624999999999,-2.38125));
#476=CARTESIAN_POINT('',(5.93964492065476,2.66921520759503,-2.38125));
#477=CARTESIAN_POINT('',(6.09911825313345,6.34999999999999,-5.65390330310514E-15));
#478=CARTESIAN_POINT('',(10.6734569429835,6.35,-4.86774394731511E-15));
#479=CARTESIAN_POINT('',(4.8595179640071,6.34999999999999,-5.86694466947774E-15));
#480=CARTESIAN_POINT('',(10.6734569429835,6.35,-4.84686468249745E-15));
#481=CARTESIAN_POINT('',(4.8595179640071,6.34999999999999,-6.12473786723662E-15));
#482=CARTESIAN_POINT('',(6.09911825313344,6.34999999999999,-5.65390330310514E-15));
#483=CARTESIAN_POINT('',(0.874577628128977,1.24902629635365,-2.24927568312501E-15));
#484=CARTESIAN_POINT('',(0.874577628128977,1.24902629635365,-2.1810596021089E-15));
#485=CARTESIAN_POINT('',(3.4983105125159,4.99610518541457,-4.94080650733019E-15));
#486=CARTESIAN_POINT('',(4.20931602885271,6.01152629635363,-5.688670470534E-15));
#487=CARTESIAN_POINT('',(4.20931602885271,6.01152629635363,-5.68281878630354E-15));
#488=CARTESIAN_POINT('',(3.4983105125159,4.99610518541457,-4.94080650733019E-15));
#489=CARTESIAN_POINT('',(7.33871854225979,1.30104260698261E-15,-3.18770706930108E-17));
#490=CARTESIAN_POINT('',(7.33871854225979,1.30104260698261E-15,1.09873724190841E-19));
#491=CARTESIAN_POINT('',(6.09911825313345,2.16840434497101E-15,-2.1293149264841E-16));
#492=CARTESIAN_POINT('',(1.52477956328337,3.03576608295941E-15,-9.99090848438455E-16));
#493=CARTESIAN_POINT('',(1.52477956328337,3.03576608295941E-15,-1.2949947944615E-15));
#494=CARTESIAN_POINT('',(6.09911825313344,1.73472347597681E-15,-2.12931492648411E-16));
#495=CARTESIAN_POINT('',(11.3236588781379,5.10097370364635,-3.89432239689648E-15));
#496=CARTESIAN_POINT('',(11.3236588781379,5.10097370364635,-3.68577519364465E-15));
#497=CARTESIAN_POINT('',(8.69992599375099,1.35389481458544,-9.26028288423372E-16));
#498=CARTESIAN_POINT('',(7.98892047741418,0.338473703646361,-1.7816432521955E-16));
#499=CARTESIAN_POINT('',(7.98892047741418,0.338473703646361,-4.36049530198586E-16));
#500=CARTESIAN_POINT('',(8.69992599375099,1.35389481458543,-9.26028288423368E-16));
#501=CARTESIAN_POINT('',(6.09911825313345,3.175,-6.93889390390723E-15));
#502=CARTESIAN_POINT('',(4.3937953699123,2.28726509644316,-6.93889390390723E-15));
#503=CARTESIAN_POINT('',(10.6734569429835,5.55624999999999,-4.18762247100801E-15));
#504=CARTESIAN_POINT('',(4.8595179640071,5.55624999999999,-5.18682319317065E-15));
#505=CARTESIAN_POINT('',(1.52477956328337,0.793750000000005,-1.67921232474555E-15));
#506=CARTESIAN_POINT('',(7.33871854225979,0.793750000000005,-6.80011602582904E-16));
#507=CARTESIAN_POINT('',(6.09911825313345,3.175,-2.93341739787678E-15));
#508=CARTESIAN_POINT('',(10.6734569429835,5.55624999999999,-4.33680868994202E-15));
#509=CARTESIAN_POINT('',(7.33871854225979,0.793750000000005,-8.67361737988404E-16));
#510=CARTESIAN_POINT('',(1.52477956328337,0.793750000000005,-1.73472347597681E-15));
#511=CARTESIAN_POINT('',(4.8595179640071,5.55624999999999,-5.20417042793042E-15));
#512=CARTESIAN_POINT('',(6.09911825313345,3.175,-0.544403327785287));
#513=CARTESIAN_POINT('',(7.77067406278528,4.04515687766309,-0.544403327785287));
#514=CARTESIAN_POINT('',(6.09911825313345,3.175,-0.680000000032648));
#515=CARTESIAN_POINT('',(6.09911825313345,3.175,-0.782283357604647));
#516=CARTESIAN_POINT('',(7.69995091967268,4.00834073964721,-0.782283357604647));
#517=CARTESIAN_POINT('',(6.09911825313345,3.175,-2.14607469113957));
#518=CARTESIAN_POINT('',(4.85730308668394,2.52855194147095,-2.14607469113957));
#519=CARTESIAN_POINT('',(6.09911825313345,3.175,-2.14607469113957));
#520=CARTESIAN_POINT('',(6.09911825313345,3.175,-33.3676978394524));
#521=CARTESIAN_POINT('',(6.09911825313345,3.175,-0.509525090897637));
#522=MECHANICAL_DESIGN_GEOMETRIC_PRESENTATION_REPRESENTATION('',(#265,#266,#267,
     #268),#523);
#523=(GEOMETRIC_REPRESENTATION_CONTEXT(3)GLOBAL_UNCERTAINTY_ASSIGNED_CONTEXT((#524))
     GLOBAL_UNIT_ASSIGNED_CONTEXT((#530,#526,#525))REPRESENTATION_CONTEXT('DCMT070208',
     'TOP_LEVEL_ASSEMBLY_PART'));
#524=UNCERTAINTY_MEASURE_WITH_UNIT(LENGTH_MEASURE(2.0E-5),#530,'DISTANCE_ACCURACY_VALUE',
     'Maximum Tolerance applied to model');
#525=(NAMED_UNIT(*)SI_UNIT($,.STERADIAN.)SOLID_ANGLE_UNIT());
#526=(CONVERSION_BASED_UNIT('DEGREE',#528)NAMED_UNIT(#527)PLANE_ANGLE_UNIT());
#527=DIMENSIONAL_EXPONENTS(0.0,0.0,0.0,0.0,0.0,0.0,0.0);
#528=PLANE_ANGLE_MEASURE_WITH_UNIT(PLANE_ANGLE_MEASURE(0.0174532925),#529);
#529=(NAMED_UNIT(*)PLANE_ANGLE_UNIT()SI_UNIT($,.RADIAN.));
#530=(LENGTH_UNIT()NAMED_UNIT(*)SI_UNIT(.MILLI.,.METRE.));
#531=CONSTRUCTIVE_GEOMETRY_REPRESENTATION('supplemental geometry',(#282,#283),#523);
#532=CONSTRUCTIVE_GEOMETRY_REPRESENTATION_RELATIONSHIP('supplemental geometry','contains PCS and MCS coordinate systems',
     #24,#531);
ENDSEC;
END-ISO-10303-21;
